  0
SECTION
  2
HEADER
  9
$ACADVER
  1
AC1009
  9
$INSBASE
 10
4529.9826734909620427
 20
477.7075182581282888
 30
0.0
  9
$EXTMIN
 10
4527.6363349082612331
 20
476.5666521164283154
 30
0.0
  9
$EXTMAX
 10
4529.989653847243062
 20
479.1355182582502721
 30
0.0
  9
$LIMMIN
 10
0.0
 20
0.0
  9
$LIMMAX
 10
11.6929133858000007
 20
8.2677165353999982
  9
$ORTHOMODE
 70
     0
  9
$REGENMODE
 70
     1
  9
$FILLMODE
 70
     1
  9
$QTEXTMODE
 70
     0
  9
$MIRRTEXT
 70
     0
  9
$DRAGMODE
 70
     2
  9
$LTSCALE
 40
0.6431102362
  9
$OSMODE
 70
  3967
  9
$ATTMODE
 70
     1
  9
$TEXTSIZE
 40
0.2
  9
$TRACEWID
 40
0.05
  9
$TEXTSTYLE
  7
STANDARD
  9
$CLAYER
  8
0
  9
$CELTYPE
  6
BYLAYER
  9
$CECOLOR
 62
   256
  9
$DIMSCALE
 40
1.0
  9
$DIMASZ
 40
0.1875
  9
$DIMEXO
 40
0.0625
  9
$DIMDLI
 40
0.4443307087
  9
$DIMRND
 40
0.0
  9
$DIMDLE
 40
0.0
  9
$DIMEXE
 40
0.125
  9
$DIMTP
 40
0.01
  9
$DIMTM
 40
0.01
  9
$DIMTXT
 40
2.0
  9
$DIMCEN
 40
0.1052362205
  9
$DIMTSZ
 40
0.0
  9
$DIMTOL
 70
     1
  9
$DIMLIM
 70
     0
  9
$DIMTIH
 70
     1
  9
$DIMTOH
 70
     1
  9
$DIMSE1
 70
     0
  9
$DIMSE2
 70
     0
  9
$DIMTAD
 70
     0
  9
$DIMZIN
 70
     0
  9
$DIMBLK
  1

  9
$DIMASO
 70
     1
  9
$DIMSHO
 70
     1
  9
$DIMPOST
  1
\X
  9
$DIMAPOST
  1

  9
$DIMALT
 70
     1
  9
$DIMALTD
 70
     2
  9
$DIMALTF
 40
25.3999999999999986
  9
$DIMLFAC
 40
1.0
  9
$DIMTOFL
 70
     0
  9
$DIMTVP
 40
0.0
  9
$DIMTIX
 70
     0
  9
$DIMSOXD
 70
     0
  9
$DIMSAH
 70
     0
  9
$DIMBLK1
  1

  9
$DIMBLK2
  1

  9
$DIMSTYLE
  2
STANDARD
  9
$DIMCLRD
 70
     0
  9
$DIMCLRE
 70
     0
  9
$DIMCLRT
 70
     0
  9
$DIMTFAC
 40
1.0
  9
$DIMGAP
 40
0.09
  9
$LUNITS
 70
     2
  9
$LUPREC
 70
     4
  9
$SKETCHINC
 40
0.1
  9
$FILLETRAD
 40
0.0
  9
$AUNITS
 70
     0
  9
$AUPREC
 70
     0
  9
$MENU
  1
.
  9
$ELEVATION
 40
0.0
  9
$PELEVATION
 40
0.0
  9
$THICKNESS
 40
0.0
  9
$LIMCHECK
 70
     0
  9
$BLIPMODE
 70
     0
  9
$CHAMFERA
 40
0.0
  9
$CHAMFERB
 40
0.0
  9
$SKPOLY
 70
     0
  9
$TDCREATE
 40
2458060.468368056230247
  9
$TDUPDATE
 40
2460895.26398148201406
  9
$TDINDWG
 40
1.5354964930999999
  9
$TDUSRTIMER
 40
1.5354964930999999
  9
$USRTIMER
 70
     1
  9
$ANGBASE
 50
0.0
  9
$ANGDIR
 70
     0
  9
$PDMODE
 70
     0
  9
$PDSIZE
 40
0.3125
  9
$PLINEWID
 40
0.0
  9
$COORDS
 70
     1
  9
$SPLFRAME
 70
     0
  9
$SPLINETYPE
 70
     6
  9
$SPLINESEGS
 70
     8
  9
$ATTDIA
 70
     1
  9
$ATTREQ
 70
     1
  9
$HANDLING
 70
     1
  9
$HANDSEED
  5
19F09
  9
$SURFTAB1
 70
     6
  9
$SURFTAB2
 70
     6
  9
$SURFTYPE
 70
     6
  9
$SURFU
 70
     6
  9
$SURFV
 70
     6
  9
$UCSNAME
  2

  9
$UCSORG
 10
0.0
 20
0.0
 30
0.0
  9
$UCSXDIR
 10
1.0
 20
0.0
 30
0.0
  9
$UCSYDIR
 10
0.0
 20
1.0
 30
0.0
  9
$PUCSNAME
  2

  9
$PUCSORG
 10
0.0
 20
0.0
 30
0.0
  9
$PUCSXDIR
 10
1.0
 20
0.0
 30
0.0
  9
$PUCSYDIR
 10
0.0
 20
1.0
 30
0.0
  9
$USERI1
 70
     0
  9
$USERI2
 70
     0
  9
$USERI3
 70
     0
  9
$USERI4
 70
     0
  9
$USERI5
 70
     0
  9
$USERR1
 40
0.0
  9
$USERR2
 40
0.0
  9
$USERR3
 40
0.0
  9
$USERR4
 40
0.0
  9
$USERR5
 40
0.0
  9
$WORLDVIEW
 70
     1
  9
$SHADEDGE
 70
     3
  9
$SHADEDIF
 70
    70
  9
$TILEMODE
 70
     1
  9
$MAXACTVP
 70
    64
  9
$PLIMCHECK
 70
     0
  9
$PEXTMIN
 10
1.0000000000000000E+20
 20
1.0000000000000000E+20
 30
1.0000000000000000E+20
  9
$PEXTMAX
 10
-1.0000000000000000E+20
 20
-1.0000000000000000E+20
 30
-1.0000000000000000E+20
  9
$PLIMMIN
 10
0.0
 20
0.0
  9
$PLIMMAX
 10
12.0
 20
9.0
  9
$UNITMODE
 70
     0
  9
$VISRETAIN
 70
     1
  9
$PLINEGEN
 70
     0
  9
$PSLTSCALE
 70
     1
  0
ENDSEC
  0
SECTION
  2
TABLES
  0
TABLE
  2
VPORT
 70
     1
  0
VPORT
  2
*ACTIVE
 70
     0
 10
0.0
 20
0.0
 11
1.0
 21
1.0
 12
617.4476379324396476
 22
345.2714800848003165
 13
0.0
 23
0.0
 14
1.0
 24
1.0
 15
0.0
 25
0.0
 16
0.0
 26
0.0
 36
60.4960186965801583
 17
3911.3653564453120453
 27
132.5796051025390057
 37
0.0
 40
2.5870299279031981
 41
2.2182448036951499
 42
50.0
 43
0.0
 44
0.0
 50
0.0
 51
0.0
 71
     0
 72
   100
 73
     1
 74
     1
 75
     0
 76
     0
 77
     0
 78
     0
  0
ENDTAB
  0
TABLE
  2
LTYPE
 70
     2
  0
LTYPE
  2
CONTINUOUS
 70
     0
  3
Solid line
 72
    65
 73
     0
 40
0.0
  0
LTYPE
  2
PHANTOM2
 70
     0
  3
___ _ _ ___ _ _ ___ _ _ ___ _ _
 72
    65
 73
     6
 40
1.25
 49
0.625
 49
-0.125
 49
0.125
 49
-0.125
 49
0.125
 49
-0.125
  0
ENDTAB
  0
TABLE
  2
LAYER
 70
     2
  0
LAYER
  2
0
 70
     0
 62
   255
  6
CONTINUOUS
  0
LAYER
  2
DEFPOINTS
 70
     0
 62
     7
  6
CONTINUOUS
  0
ENDTAB
  0
TABLE
  2
STYLE
 70
     1
  0
STYLE
  2
STANDARD
 70
     0
 40
0.0
 41
0.8
 50
0.0
 71
     0
 42
0.2
  3
txt
  4

  0
ENDTAB
  0
TABLE
  2
VIEW
 70
     0
  0
ENDTAB
  0
TABLE
  2
UCS
 70
     0
  0
ENDTAB
  0
TABLE
  2
APPID
 70
    11
  0
APPID
  2
ACAD
 70
     0
  0
APPID
  2
ACAD_MLEADERVER
 70
     0
  0
APPID
  2
ACAD_EXEMPT_FROM_CAD_STANDARDS
 70
     0
  0
APPID
  2
ACAD_NAV_VCDISPLAY
 70
     0
  0
APPID
  2
ACAECLAYERSTANDARD
 70
     0
  0
APPID
  2
ACCMTRANSPARENCY
 70
     0
  0
APPID
  2
ACAD_DSTYLE_DIMJAG
 70
     0
  0
APPID
  2
ACAD_DSTYLE_DIMTALN
 70
     0
  0
APPID
  2
ACDBATTR
 70
     0
  0
APPID
  2
ACADANNOTATIVE
 70
     0
  0
APPID
  2
DCO15
 70
     0
  0
ENDTAB
  0
TABLE
  2
DIMSTYLE
 70
     1
  0
DIMSTYLE
  2
STANDARD
 70
     0
  3

  4

  5

  6

  7

 40
1.0
 41
0.1875
 42
0.0625
 43
0.38
 44
0.125
 45
0.0
 46
0.0
 47
0.01
 48
0.01
140
0.15625
141
0.09
142
0.0
143
25.3999999999999986
144
1.0
145
0.0
146
1.0
147
0.09
 71
     1
 72
     0
 73
     1
 74
     1
 75
     0
 76
     0
 77
     0
 78
     4
170
     0
171
     2
172
     0
173
     0
174
     0
175
     0
176
     0
177
     0
178
     0
  0
ENDTAB
  0
ENDSEC
  0
SECTION
  2
BLOCKS
  0
BLOCK
  8
0
  2
$MODEL_SPACE
 70
     0
 10
0.0
 20
0.0
 30
0.0
  3
$MODEL_SPACE
  1

  0
ENDBLK
  5
21
  8
0
  0
BLOCK
 67
     1
  8
0
  2
$PAPER_SPACE
 70
     0
 10
0.0
 20
0.0
 30
0.0
  3
$PAPER_SPACE
  1

  0
ENDBLK
  5
1D
 67
     1
  8
0
  0
BLOCK
  8
0
  2
_CLOSED
 70
     0
 10
0.0
 20
0.0
 30
0.0
  3
_CLOSED
  1

  0
LINE
  5
1995B
  8
0
  6
BYBLOCK
 62
     0
 10
0.0
 20
0.0
 30
0.0
 11
-1.0
 21
0.1666666667
 31
0.0
  0
LINE
  5
1995C
  8
0
  6
BYBLOCK
 62
     0
 10
-1.0
 20
0.1666666667
 30
0.0
 11
-1.0
 21
-0.1666666667
 31
0.0
  0
LINE
  5
1995D
  8
0
  6
BYBLOCK
 62
     0
 10
-1.0
 20
-0.1666666667
 30
0.0
 11
0.0
 21
0.0
 31
0.0
  0
LINE
  5
1995E
  8
0
  6
BYBLOCK
 62
     0
 10
-1.0
 20
0.0
 30
0.0
 11
0.0
 21
0.0
 31
0.0
  0
ENDBLK
  5
1995F
  8
0
  6
BYBLOCK
 62
     0
  0
BLOCK
  8
0
  2
A$C9AD15C45
 70
     0
 10
0.0
 20
0.0
 30
0.0
  3
A$C9AD15C45
  1

  0
LINE
  5
19D2E
  8
0
 10
19.9000769000151401
 20
35.9829677266201813
 30
0.0
 11
19.8657774822779416
 21
35.9829677266201813
 31
0.0
  0
LINE
  5
19D2F
  8
0
 10
20.1066164120486306
 20
35.9829677266201813
 30
0.0
 11
20.1255068876318788
 21
35.9829677266201813
 31
0.0
  0
LINE
  5
19D30
  8
0
 10
18.518968647701719
 20
38.551833868320152
 30
0.0
 11
17.8864505762805699
 21
38.551833868320152
 31
0.0
  0
LINE
  5
19D31
  8
0
 10
20.1455048876316383
 20
36.0029677265201826
 30
0.0
 11
20.1455048876316383
 21
38.2447000101103001
 31
0.0
  0
LINE
  5
19D32
  8
0
 10
18.6003950547312584
 20
38.4786917326201703
 30
0.0
 11
17.8050241692837687
 21
38.4786917326201703
 31
0.0
  0
LINE
  5
19D33
  8
0
 10
18.7837096120312914
 20
36.7202905612201604
 30
0.0
 11
19.5612686671313192
 21
36.7202905612201604
 31
0.0
  0
LINE
  5
19D34
  8
0
 10
18.7637096120317715
 20
36.7202905612201604
 30
0.0
 11
17.9172807958841283
 21
36.7202905612201604
 31
0.0
  0
LINE
  5
19D35
  8
0
 10
20.1255048876275602
 20
38.2647000100201282
 30
0.0
 11
19.8657774822779416
 21
38.2647000100201282
 31
0.0
  0
LINE
  5
19D36
  8
0
 10
19.7585048876319185
 20
38.1487001560495784
 30
0.0
 11
19.7585048876319185
 21
36.0989675805907311
 31
0.0
  0
LINE
  5
19D37
  8
0
 10
19.5612686671313192
 20
37.9113094396454287
 30
0.0
 11
19.5612686671313192
 21
36.3363582969948808
 31
0.0
  0
LINE
  5
19D38
  8
0
 10
19.6341509603318904
 20
37.9924760040201406
 30
0.0
 11
19.6341509603318904
 21
36.2551917326201689
 31
0.0
  0
LINE
  5
19D39
  8
0
 10
19.8509786807319202
 20
38.2581534660201328
 30
0.0
 11
19.8509786807319202
 21
35.989514270620127
 31
0.0
  0
LINE
  5
19D3A
  8
0
 10
19.7385048876314784
 20
37.9983338683201666
 30
0.0
 11
19.6482930959802786
 21
37.9983338683201666
 31
0.0
  0
ARC
  5
19D3B
  8
0
 10
20.1255048876275602
 20
38.2447000101103001
 30
0.0
 40
0.0200000000098175
 50
0.0
 51
89.9999999883794146
  0
ARC
  5
19D3C
  8
0
 10
19.8657774822779416
 20
38.24470000990231
 30
0.0
 40
0.0200000002178156
 50
90.0000001318388456
 51
137.7263106401636037
  0
LINE
  5
19D3D
  8
0
 10
19.8509786807319202
 20
38.2581534660201328
 30
0.0
 11
19.7637060862318492
 21
38.1621536119201323
 31
0.0
  0
ARC
  5
19D3E
  8
0
 10
19.7785048873931615
 20
38.1487001560495784
 30
0.0
 40
0.0199999997671586
 50
137.7263104236517961
 51
179.9999999999934914
  0
ARC
  5
19D3F
  8
0
 10
19.7385048876314784
 20
38.0183338683201484
 30
0.0
 40
0.019999999999996
 50
270.0
 51
0.0000000000065138
  0
ARC
  5
19D40
  8
0
 10
19.6482930959802786
 20
37.9783338680760991
 30
0.0
 40
0.0200000002440408
 50
90.0000001390821467
 51
134.9999994013917899
  0
LINE
  5
19D41
  8
0
 10
19.6341509603318904
 20
37.9924760040201406
 30
0.0
 11
19.5671265315315601
 21
37.9254515752201584
 31
0.0
  0
ARC
  5
19D42
  8
0
 10
19.5812686669107485
 20
37.9113094396640165
 30
0.0
 40
0.0199999997795302
 50
134.9999996422247932
 51
180.0000000532436104
  0
LINE
  5
19D43
  8
0
 10
19.7385048876314784
 20
36.2493338683201429
 30
0.0
 11
19.6482930959802786
 21
36.2493338683201429
 31
0.0
  0
ARC
  5
19D44
  8
0
 10
20.1255048876312017
 20
36.0029677265201826
 30
0.0
 40
0.019999999999996
 50
270.0
 51
0.0000000281492829
  0
ARC
  5
19D45
  8
0
 10
19.8657774822779416
 20
36.0029677267379427
 30
0.0
 40
0.0200000002178156
 50
222.2736893598363963
 51
269.9999998681611828
  0
LINE
  5
19D46
  8
0
 10
19.8509786807319202
 20
35.989514270620127
 30
0.0
 11
19.7637060862318492
 21
36.0855141247201274
 31
0.0
  0
ARC
  5
19D47
  8
0
 10
19.7785048873586007
 20
36.0989675805691874
 30
0.0
 40
0.0199999997268581
 50
179.9999998540164938
 51
222.2736895978846121
  0
ARC
  5
19D48
  8
0
 10
19.7385048876314784
 20
36.2293338683201611
 30
0.0
 40
0.019999999999996
 50
359.9999999999935199
 51
90.0
  0
ARC
  5
19D49
  8
0
 10
19.6482930959802786
 20
36.2693338685642104
 30
0.0
 40
0.0200000002440408
 50
225.0000005986080112
 51
269.9999998609177965
  0
LINE
  5
19D4A
  8
0
 10
19.6341509603318904
 20
36.2551917326201689
 30
0.0
 11
19.5671265315315601
 21
36.3222161614201511
 31
0.0
  0
ARC
  5
19D4B
  8
0
 10
19.5812686669107485
 20
36.3363582969763002
 30
0.0
 40
0.0199999997795128
 50
179.9999995878571042
 51
225.0000003577821133
  0
LINE
  5
19D4C
  8
0
 10
18.7637096120317715
 20
37.5273771753201615
 30
0.0
 11
18.7243674102548816
 21
37.5273771753201615
 31
0.0
  0
LINE
  5
19D4D
  8
0
 10
18.7837096120312914
 20
37.5273771753201615
 30
0.0
 11
19.5612686671313192
 21
37.5273771753201615
 31
0.0
  0
LINE
  5
19D4E
  8
0
 10
17.7991663049317417
 20
38.4645495970201523
 30
0.0
 11
17.7991663049317417
 21
36.8384050521723907
 31
0.0
  0
LINE
  5
19D4F
  8
0
 10
18.6062529191314994
 20
37.6454916664431423
 30
0.0
 11
18.6062529191314994
 21
38.4645495970640283
 31
0.0
  0
ARC
  5
19D50
  8
0
 10
17.8864505762805699
 20
38.5318338680761414
 30
0.0
 40
0.0200000002440204
 50
90.0000001390299644
 51
134.9999998065646025
  0
LINE
  5
19D51
  8
0
 10
17.8723084405312207
 20
38.5459760039201385
 30
0.0
 11
17.8050241693074192
 21
38.4786917326435329
 31
0.0
  0
ARC
  5
19D52
  8
0
 10
17.8191663049312616
 20
38.4645495970201523
 30
0.0
 40
0.0200000000000051
 50
135.0000000014140085
 51
180.0000000000065086
  0
ARC
  5
19D53
  8
0
 10
18.518968647701719
 20
38.5318338679540986
 30
0.0
 40
0.020000000388002
 50
45.0000002754626678
 51
90.0
  0
LINE
  5
19D54
  8
0
 10
18.5331107835320203
 20
38.5459760039201385
 30
0.0
 11
18.6003950547312584
 21
38.4786917326201703
 31
0.0
  0
ARC
  5
19D55
  8
0
 10
18.58625291935207
 20
38.4645495970640283
 30
0.0
 40
0.0199999997795685
 50
359.9999998743818992
 51
45.0000003577039394
  0
ARC
  5
19D56
  8
0
 10
18.7243674100693411
 20
37.6454916662581169
 30
0.0
 40
0.1181144909379554
 50
179.9999999102531945
 51
270.0000000897337031
  0
LINE
  5
19D57
  8
0
 10
18.7837096120312914
 20
37.5273771753201615
 30
0.0
 11
18.7837096120312914
 21
36.7202905612201604
 31
0.0
  0
ARC
  5
19D58
  8
0
 10
18.7637096120317715
 20
37.5073771753201797
 30
0.0
 40
0.0199999999999978
 50
0.0
 51
90.0
  0
ARC
  5
19D59
  8
0
 10
18.7637096120317715
 20
36.7402905612201494
 30
0.0
 40
0.0200000000000023
 50
270.0
 51
0.0
  0
ARC
  5
19D5A
  8
0
 10
17.9172807956985913
 20
36.838405051987408
 30
0.0
 40
0.118114490767244
 50
179.9999999102564061
 51
270.0000000897337031
  0
ARC
  5
19D5B
  8
0
 10
20.0033466560318907
 20
34.8643299700453326
 30
0.0
 40
1.123394442278641
 50
84.7255511166475088
 51
95.274448883352477
  0
ARC
  5
19D5C
  8
0
 10
19.3351286178396791
 20
30.5584695790320104
 30
0.0
 40
6.9693193129959887
 50
88.140543638987026
 51
89.3772068424166122
  0
ARC
  5
19D5D
  8
0
 10
19.2552098769831197
 20
30.6365018754269087
 30
0.0
 40
6.886859478919618
 50
87.4528804636399144
 51
90.0229822339234431
  0
ARC
  5
19D5E
  8
0
 10
19.0974813523291509
 20
31.5616312422206384
 30
0.0
 40
5.9637432720836738
 50
85.5397285597308468
 51
88.5110185937784593
  0
ARC
  5
19D5F
  8
0
 10
18.7648484357143595
 20
18.7648484512113107
 30
0.0
 40
18.76484847661537
 50
88.5110185937784593
 51
89.0990713462110193
  0
ARC
  5
19D60
  8
0
 10
19.1180543768097984
 20
33.2374792079028794
 30
0.0
 40
4.2787299223516753
 50
84.0543239027048088
 51
86.9618214461261942
  0
ARC
  5
19D61
  8
0
 10
18.9315270971066916
 20
29.7231343086495414
 30
0.0
 40
7.7980213989107474
 50
86.9618214461261942
 51
88.3443684679831591
  0
ARC
  5
19D62
  8
0
 10
18.7836159874079591
 20
24.60585835036931
 30
0.0
 40
12.9174345419932006
 50
88.3443684679831591
 51
89.2580585509746953
  0
ARC
  5
19D63
  8
0
 10
19.1856369240278788
 20
55.649838263108947
 30
0.0
 40
18.1291483562270805
 50
268.7296355502414826
 51
269.2580585509746811
  0
ARC
  5
19D64
  8
0
 10
19.0451994688494111
 20
33.6395696805835698
 30
0.0
 40
3.8762613806752122
 50
82.3491634049399011
 51
86.7649526139457947
  0
ARC
  5
19D65
  8
0
 10
18.7249593131730094
 20
27.9738390504311312
 30
0.0
 40
9.5510351498007875
 50
86.7649526139457947
 51
88.6491185760089166
  0
ARC
  5
19D66
  8
0
 10
18.7281093843295992
 20
31.8403625962919783
 30
0.0
 40
5.6788469467470311
 50
81.5635263368064898
 51
89.4390218093327576
  0
ARC
  5
19D67
  8
0
 10
18.4678730764937704
 20
30.3912238244558317
 30
0.0
 40
7.1354538555365714
 50
81.1855997962141345
 51
84.6132197467978955
  0
ARC
  5
19D68
  8
0
 10
18.5159826475439608
 20
29.9564926200017112
 30
0.0
 40
7.5642688563723199
 50
85.2851645805151151
 51
87.9716705068369293
  0
ARC
  5
19D69
  8
0
 10
18.5970790438325118
 20
32.3503667597790283
 30
0.0
 40
5.159615977690974
 50
79.2296852185617553
 51
87.9270788616582166
  0
ARC
  5
19D6A
  8
0
 10
18.5771763715522198
 20
33.0313177226825019
 30
0.0
 40
4.468830761229178
 50
77.2784868499061446
 51
87.3510521372305675
  0
ARC
  5
19D6B
  8
0
 10
18.4990730048232095
 20
33.2820466194784217
 30
0.0
 40
4.2126802594382431
 50
75.3956703902262433
 51
86.1257656516346657
  0
ARC
  5
19D6C
  8
0
 10
18.6569353146926211
 20
34.3305414657285723
 30
0.0
 40
3.1388904475829089
 50
73.2553976167783247
 51
87.6852940511237762
  0
ARC
  5
19D6D
  8
0
 10
18.5765210087058392
 20
34.4113486801540986
 30
0.0
 40
3.046516108889088
 50
71.1411831677481672
 51
86.1003972834336224
  0
ARC
  5
19D6E
  8
0
 10
18.6637058430180609
 20
34.9855242518535121
 30
0.0
 40
2.4487694673772449
 50
68.497842058110777
 51
87.191052634816117
  0
ARC
  5
19D6F
  8
0
 10
18.5738891036791998
 20
34.8988996698832281
 30
0.0
 40
2.5278438806436019
 50
67.0080695211787827
 51
85.2387578363224065
  0
ARC
  5
19D70
  8
0
 10
18.5565908912269393
 20
34.9588631420988918
 30
0.0
 40
2.4417375689705372
 50
65.703406013039924
 51
84.6629064305503363
  0
ARC
  5
19D71
  8
0
 10
18.4756936046653415
 20
34.8961649846637485
 30
0.0
 40
2.4945602906676778
 50
64.2034479349163973
 51
82.9072984606719245
  0
ARC
  5
19D72
  8
0
 10
18.4611962013843609
 20
34.8502322746996285
 30
0.0
 40
2.510530150701932
 50
64.9077387270111075
 51
82.6191429260532857
  0
ARC
  5
19D73
  8
0
 10
18.4567894856138288
 20
35.037296866555657
 30
0.0
 40
2.2952001667741091
 50
65.3795070853258835
 51
81.8111432080949044
  0
ARC
  5
19D74
  8
0
 10
18.5074558469334285
 20
35.029648052989323
 30
0.0
 40
2.2635502355254
 50
67.6951401942262407
 51
82.9898911267920738
  0
ARC
  5
19D75
  8
0
 10
18.44164988252599
 20
34.9493894745609097
 30
0.0
 40
2.3206139727555462
 50
69.5557558058975332
 51
81.5236866171834436
  0
ARC
  5
19D76
  8
0
 10
18.4638690420026492
 20
35.1008722490788614
 30
0.0
 40
2.1459890383000202
 50
70.5050645661561077
 51
81.4286389145977978
  0
ARC
  5
19D77
  8
0
 10
18.7152116270492286
 20
36.1258044443763922
 30
0.0
 40
1.062462110875565
 50
69.9435692322067837
 51
86.3035205621094974
  0
ARC
  5
19D78
  8
0
 10
18.8278592147418991
 20
36.5244409296488968
 30
0.0
 40
0.6240422043458979
 50
74.3214716074070196
 51
94.0569385422156188
  0
ARC
  5
19D79
  8
0
 10
19.3351286178396791
 20
43.6891981576082884
 30
0.0
 40
6.9693193129959887
 50
270.6227931575833736
 51
271.859456361012974
  0
ARC
  5
19D7A
  8
0
 10
19.2552098769831197
 20
43.6111658612133866
 30
0.0
 40
6.886859478919618
 50
269.9770177660764716
 51
272.5471195363601282
  0
ARC
  5
19D7B
  8
0
 10
19.0974813523291509
 20
42.6860364944196675
 30
0.0
 40
5.9637432720836738
 50
271.4889814062215123
 51
274.4602714402691959
  0
ARC
  5
19D7C
  8
0
 10
18.7648484357143595
 20
55.4828192854289881
 30
0.0
 40
18.76484847661537
 50
270.9009286537889238
 51
271.4889814062215123
  0
ARC
  5
19D7D
  8
0
 10
19.1180543768097984
 20
41.0101885287373804
 30
0.0
 40
4.2787299223516753
 50
273.03817855387382
 51
275.945676097295177
  0
ARC
  5
19D7E
  8
0
 10
18.9315270971066916
 20
44.5245334279907681
 30
0.0
 40
7.7980213989107474
 50
271.6556315320167982
 51
273.03817855387382
  0
ARC
  5
19D7F
  8
0
 10
18.7836159874079591
 20
49.6418093862709995
 30
0.0
 40
12.9174345419932006
 50
270.7419414490253189
 51
271.6556315320167982
  0
ARC
  5
19D80
  8
0
 10
19.1856369240278788
 20
18.5978294735313483
 30
0.0
 40
18.1291483562270805
 50
90.7419414490253047
 51
91.2703644497585174
  0
ARC
  5
19D81
  8
0
 10
19.0451994688494111
 20
40.6080980560566829
 30
0.0
 40
3.8762613806752122
 50
273.2350473860541911
 51
277.6508365950600137
  0
ARC
  5
19D82
  8
0
 10
18.7249593131730094
 20
46.2738286862091783
 30
0.0
 40
9.5510351498007875
 50
271.3508814239909839
 51
273.2350473860541911
  0
ARC
  5
19D83
  8
0
 10
18.7281093843295992
 20
42.4073051403482779
 30
0.0
 40
5.6788469467470311
 50
270.5609781906672993
 51
278.4364736631935102
  0
ARC
  5
19D84
  8
0
 10
18.4678730764937704
 20
43.8564439121844671
 30
0.0
 40
7.1354538555365714
 50
275.386780253202005
 51
278.8144002037859082
  0
ARC
  5
19D85
  8
0
 10
18.5159826475439608
 20
44.2911751166385983
 30
0.0
 40
7.5642688563723199
 50
272.0283294931630849
 51
274.7148354194849276
  0
ARC
  5
19D86
  8
0
 10
18.5970790438325118
 20
41.8973009768612812
 30
0.0
 40
5.159615977690974
 50
272.072921138341826
 51
280.7703147814381737
  0
ARC
  5
19D87
  8
0
 10
18.5771763715522198
 20
41.2163500139578076
 30
0.0
 40
4.468830761229178
 50
272.6489478627693757
 51
282.7215131500938128
  0
ARC
  5
19D88
  8
0
 10
18.4990730048232095
 20
40.9656211171618878
 30
0.0
 40
4.2126802594382431
 50
273.8742343483654054
 51
284.6043296097736857
  0
ARC
  5
19D89
  8
0
 10
18.6569353146926211
 20
39.9171262709117514
 30
0.0
 40
3.1388904475829089
 50
272.3147059488762238
 51
286.7446023832217179
  0
ARC
  5
19D8A
  8
0
 10
18.5765210087058392
 20
39.8363190564862109
 30
0.0
 40
3.046516108889088
 50
273.8996027165663918
 51
288.8588168322518186
  0
ARC
  5
19D8B
  8
0
 10
18.6637058430180609
 20
39.2621434847867974
 30
0.0
 40
2.4487694673772449
 50
272.8089473651838262
 51
291.5021579418892088
  0
ARC
  5
19D8C
  8
0
 10
18.5738891036791998
 20
39.3487680667570316
 30
0.0
 40
2.5278438806436019
 50
274.7612421636774798
 51
292.9919304788211889
  0
ARC
  5
19D8D
  8
0
 10
18.5565908912269393
 20
39.2888045945414319
 30
0.0
 40
2.4417375689705372
 50
275.3370935694496779
 51
294.2965939869600902
  0
ARC
  5
19D8E
  8
0
 10
18.4756936046653415
 20
39.351502751976561
 30
0.0
 40
2.4945602906676778
 50
277.0927015393280044
 51
295.7965520650835742
  0
ARC
  5
19D8F
  8
0
 10
18.4611962013843609
 20
39.397435461940681
 30
0.0
 40
2.510530150701932
 50
277.3808570739466859
 51
295.0922612729888783
  0
ARC
  5
19D90
  8
0
 10
18.4567894856138288
 20
39.2103708700846525
 30
0.0
 40
2.2952001667741091
 50
278.1888567919049819
 51
294.6204929146741165
  0
ARC
  5
19D91
  8
0
 10
18.5074558469334285
 20
39.2180196836509865
 30
0.0
 40
2.2635502355254
 50
277.0101088732080257
 51
292.304859805773674
  0
ARC
  5
19D92
  8
0
 10
18.44164988252599
 20
39.2982782620793998
 30
0.0
 40
2.3206139727555462
 50
278.4763133828166133
 51
290.4442441941025095
  0
ARC
  5
19D93
  8
0
 10
18.4638690420026492
 20
39.1467954875614623
 30
0.0
 40
2.1459890383000202
 50
278.5713610854022022
 51
289.4949354338439207
  0
ARC
  5
19D94
  8
0
 10
18.7152116270492286
 20
38.1218632922639173
 30
0.0
 40
1.062462110875565
 50
273.6964794378903889
 51
290.0564307677933016
  0
ARC
  5
19D95
  8
0
 10
18.8278592147418991
 20
37.723226806991363
 30
0.0
 40
0.6240422043458979
 50
265.9430614577843244
 51
285.678528392593023
  0
ARC
  5
19D96
  8
0
 10
18.9962685766688288
 20
37.1238338683201619
 30
0.0
 40
0.0014492055640631
 50
279.1955646096192254
 51
80.8044353903807462
  0
LINE
  5
19D97
  8
0
 10
20.1455048876316383
 20
37.123833868220153
 30
0.0
 11
26.1337520660756013
 21
31.3683850262733301
 31
0.0
  0
LINE
  5
19D98
  8
0
 10
17.833761238320669
 20
36.7548854946095105
 30
0.0
 11
18.6408478525707118
 21
37.5619721087595124
 31
0.0
  0
ENDBLK
  5
19D9A
  8
0
  0
ENDSEC
  0
SECTION
  2
ENTITIES
  0
ATTDEF
  5
194DB
  8
DEFPOINTS
 10
4529.9789871805742223
 20
477.7110814953726958
 30
0.0
 40
0.001
  1
P24936-ULB
  3

  2
MODELNUMBER
 70
     0
1001
ACDBATTR
1070
     0
1070
     1
  0
ATTDEF
  5
194DC
  8
DEFPOINTS
 10
4529.9789871805742223
 20
477.7094146549933953
 30
0.0
 40
0.001
  1
KALLISTA
  3

  2
BRANDNAME
 70
     0
1001
ACDBATTR
1070
     0
1070
     1
  0
ATTDEF
  5
194DD
  8
DEFPOINTS
 10
4529.9789871805742223
 20
477.7077481620393087
 30
0.0
 40
0.001
  1
VALVE TRIM
  3

  2
PRODUCT
 70
     0
1001
ACDBATTR
1070
     0
1070
     1
  0
LINE
  5
19D9C
  8
0
 10
4529.7372455033446386
 20
476.5666521165283029
 30
0.0
 11
4529.7029460856092555
 21
476.5666521165283029
 31
0.0
  0
LINE
  5
19D9D
  8
0
 10
4529.943785015379035
 20
476.5666521165283029
 30
0.0
 11
4529.9626754909622832
 21
476.5666521165283029
 31
0.0
  0
LINE
  5
19D9E
  8
0
 10
4528.3561372510321235
 20
479.1355182582282737
 30
0.0
 11
4527.7236191796109779
 21
479.1355182582282737
 31
0.0
  0
LINE
  5
19D9F
  8
0
 10
4529.9826734909620427
 20
476.5866521164282972
 30
0.0
 11
4529.9826734909620427
 21
478.8283844000184786
 31
0.0
  0
LINE
  5
19DA0
  8
0
 10
4528.4375636580607534
 20
479.0623761225282919
 30
0.0
 11
4527.6421927726141803
 21
479.0623761225282919
 31
0.0
  0
LINE
  5
19DA1
  8
0
 10
4528.6208782153607899
 20
477.3039749511282821
 30
0.0
 11
4529.3984372704617272
 21
477.3039749511282821
 31
0.0
  0
LINE
  5
19DA2
  8
0
 10
4528.6008782153621723
 20
477.3039749511282821
 30
0.0
 11
4527.7544493992136267
 21
477.3039749511282821
 31
0.0
  0
LINE
  5
19DA3
  8
0
 10
4529.9626734909579682
 20
478.8483843999283067
 30
0.0
 11
4529.7029460856092555
 21
478.8483843999283067
 31
0.0
  0
LINE
  5
19DA4
  8
0
 10
4529.5956734909623265
 20
478.7323845459577001
 30
0.0
 11
4529.5956734909623265
 21
476.6826519704989096
 31
0.0
  0
LINE
  5
19DA5
  8
0
 10
4529.3984372704617272
 20
478.4949938295536072
 30
0.0
 11
4529.3984372704617272
 21
476.9200426869030025
 31
0.0
  0
LINE
  5
19DA6
  8
0
 10
4529.4713195636622913
 20
478.5761603939283191
 30
0.0
 11
4529.4713195636622913
 21
476.8388761225282906
 31
0.0
  0
LINE
  5
19DA7
  8
0
 10
4529.6881472840623246
 20
478.8418378559283042
 30
0.0
 11
4529.6881472840623246
 21
476.5731986605283055
 31
0.0
  0
LINE
  5
19DA8
  8
0
 10
4529.5756734909618899
 20
478.5820182582282882
 30
0.0
 11
4529.4854616993097807
 21
478.5820182582282882
 31
0.0
  0
ARC
  5
19DA9
  8
0
 10
4529.9626734909579682
 20
478.8283844000184786
 30
0.0
 40
0.0200000000098175
 50
0.0
 51
89.9999999883794146
  0
ARC
  5
19DAA
  8
0
 10
4529.7029460856092555
 20
478.8283843998104885
 30
0.0
 40
0.0200000002178156
 50
90.0000001318388456
 51
137.7263106401659059
  0
LINE
  5
19DAB
  8
0
 10
4529.6881472840623246
 20
478.8418378559283042
 30
0.0
 11
4529.6008746895622608
 21
478.7458380018283037
 31
0.0
  0
ARC
  5
19DAC
  8
0
 10
4529.6156734907226564
 20
478.7323845459577001
 30
0.0
 40
0.0199999997671586
 50
137.7263104236494087
 51
179.9999999999934914
  0
ARC
  5
19DAD
  8
0
 10
4529.5756734909618899
 20
478.6020182582283269
 30
0.0
 40
0.019999999999996
 50
270.0
 51
0.0000000000065138
  0
ARC
  5
19DAE
  8
0
 10
4529.4854616993097807
 20
478.5620182579842208
 30
0.0
 40
0.0200000002440408
 50
90.0000001390821467
 51
134.9999994013896014
  0
LINE
  5
19DAF
  8
0
 10
4529.4713195636622913
 20
478.5761603939283191
 30
0.0
 11
4529.4042951348619681
 21
478.5091359651282801
 31
0.0
  0
ARC
  5
19DB0
  8
0
 10
4529.4184372702411565
 20
478.494993829572195
 30
0.0
 40
0.0199999997795302
 50
134.999999642222491
 51
180.0000000532436104
  0
LINE
  5
19DB1
  8
0
 10
4529.5756734909618899
 20
476.8330182582283214
 30
0.0
 11
4529.4854616993097807
 21
476.8330182582283214
 31
0.0
  0
ARC
  5
19DB2
  8
0
 10
4529.9626734909606967
 20
476.5866521164282972
 30
0.0
 40
0.019999999999996
 50
270.0
 51
0.0000000281492829
  0
ARC
  5
19DB3
  8
0
 10
4529.7029460856092555
 20
476.5866521166461212
 30
0.0
 40
0.0200000002178156
 50
222.2736893598340089
 51
269.9999998681611828
  0
LINE
  5
19DB4
  8
0
 10
4529.6881472840623246
 20
476.5731986605283055
 30
0.0
 11
4529.6008746895622608
 21
476.6691985146283059
 31
0.0
  0
ARC
  5
19DB5
  8
0
 10
4529.6156734906890051
 20
476.6826519704773091
 30
0.0
 40
0.0199999997268581
 50
179.9999998540164938
 51
222.2736895978869995
  0
ARC
  5
19DB6
  8
0
 10
4529.5756734909618899
 20
476.8130182582282828
 30
0.0
 40
0.019999999999996
 50
359.9999999999935199
 51
90.0
  0
ARC
  5
19DB7
  8
0
 10
4529.4854616993097807
 20
476.8530182584723889
 30
0.0
 40
0.0200000002440408
 50
225.0000005986103986
 51
269.9999998609177965
  0
LINE
  5
19DB8
  8
0
 10
4529.4713195636622913
 20
476.8388761225282906
 30
0.0
 11
4529.4042951348619681
 21
476.9059005513282727
 31
0.0
  0
ARC
  5
19DB9
  8
0
 10
4529.4184372702411565
 20
476.9200426868844147
 30
0.0
 40
0.0199999997795128
 50
179.9999995878571042
 51
225.0000003577798111
  0
LINE
  5
19DBA
  8
0
 10
4528.6008782153621723
 20
478.1110615652282831
 30
0.0
 11
4528.561536013586192
 21
478.1110615652282831
 31
0.0
  0
LINE
  5
19DBB
  8
0
 10
4528.6208782153607899
 20
478.1110615652282831
 30
0.0
 11
4529.3984372704617272
 21
478.1110615652282831
 31
0.0
  0
LINE
  5
19DBC
  8
0
 10
4527.6363349082621426
 20
479.0482339869283237
 30
0.0
 11
4527.6363349082621426
 21
477.4220894420805053
 31
0.0
  0
LINE
  5
19DBD
  8
0
 10
4528.4434215224619038
 20
478.2291760563513208
 30
0.0
 11
4528.4434215224619038
 21
479.0482339869722068
 31
0.0
  0
ARC
  5
19DBE
  8
0
 10
4527.7236191796109779
 20
479.1155182579843199
 30
0.0
 40
0.0200000002440204
 50
90.0000001390300355
 51
134.9999998065621867
  0
LINE
  5
19DBF
  8
0
 10
4527.7094770438607156
 20
479.129660393828317
 30
0.0
 11
4527.6421927726378271
 21
479.0623761225517114
 31
0.0
  0
ARC
  5
19DC0
  8
0
 10
4527.6563349082607601
 20
479.0482339869283237
 30
0.0
 40
0.0200000000000051
 50
135.0000000014117063
 51
180.0000000000065086
  0
ARC
  5
19DC1
  8
0
 10
4528.3561372510321235
 20
479.1155182578622771
 30
0.0
 40
0.020000000388002
 50
45.000000275462547
 51
90.0
  0
LINE
  5
19DC2
  8
0
 10
4528.3702793868624212
 20
479.129660393828317
 30
0.0
 11
4528.4375636580607534
 21
479.0623761225282919
 31
0.0
  0
ARC
  5
19DC3
  8
0
 10
4528.423421522681565
 20
479.0482339869722068
 30
0.0
 40
0.0199999997795685
 50
359.9999998743818992
 51
45.0000003577038328
  0
ARC
  5
19DC4
  8
0
 10
4528.5615360133988361
 20
478.2291760561662954
 30
0.0
 40
0.1181144909379554
 50
179.9999999102531945
 51
270.0000000897337031
  0
LINE
  5
19DC5
  8
0
 10
4528.6208782153607899
 20
478.1110615652282831
 30
0.0
 11
4528.6208782153607899
 21
477.3039749511282821
 31
0.0
  0
ARC
  5
19DC6
  8
0
 10
4528.6008782153621723
 20
478.0910615652283013
 30
0.0
 40
0.0199999999999978
 50
0.0
 51
90.0
  0
ARC
  5
19DC7
  8
0
 10
4528.6008782153621723
 20
477.3239749511283208
 30
0.0
 40
0.0200000000000023
 50
270.0
 51
0.0
  0
ARC
  5
19DC8
  8
0
 10
4527.7544493990280898
 20
477.4220894418955936
 30
0.0
 40
0.118114490767244
 50
179.9999999102564061
 51
270.0000000897337031
  0
ARC
  5
19DC9
  8
0
 10
4529.8405152593622915
 20
475.4480143599533903
 30
0.0
 40
1.123394442278641
 50
84.7255511166475088
 51
95.274448883352477
  0
ARC
  5
19DCA
  8
0
 10
4529.1722972211700835
 20
471.1421539689401925
 30
0.0
 40
6.9693193129959887
 50
88.140543638987026
 51
89.3772068424166122
  0
ARC
  5
19DCB
  8
0
 10
4529.0923784803126182
 20
471.2201862653349735
 30
0.0
 40
6.886859478919618
 50
87.452880463639886
 51
90.0229822339234005
  0
ARC
  5
19DCC
  8
0
 10
4528.9346499556586423
 20
472.1453156321286997
 30
0.0
 40
5.9637432720836738
 50
85.5397285597308183
 51
88.5110185937785445
  0
ARC
  5
19DCD
  8
0
 10
4528.6020170390447674
 20
459.3485328411194928
 30
0.0
 40
18.76484847661537
 50
88.5110185937785445
 51
89.0990713462110051
  0
ARC
  5
19DCE
  8
0
 10
4528.9552229801392969
 20
473.8211635978109939
 30
0.0
 40
4.2787299223516753
 50
84.0543239027047662
 51
86.961821446126109
  0
ARC
  5
19DCF
  8
0
 10
4528.7686957004380019
 20
470.3068186985577199
 30
0.0
 40
7.7980213989107474
 50
86.961821446126109
 51
88.3443684679831591
  0
ARC
  5
19DD0
  8
0
 10
4528.6207845907383671
 20
465.1895427402774885
 30
0.0
 40
12.9174345419932006
 50
88.3443684679831591
 51
89.2580585509746811
  0
ARC
  5
19DD1
  8
0
 10
4529.0228055273582868
 20
496.2335226530170758
 30
0.0
 40
18.1291483562270805
 50
268.7296355502414826
 51
269.2580585509746811
  0
ARC
  5
19DD2
  8
0
 10
4528.8823680721798155
 20
474.2232540704916914
 30
0.0
 40
3.8762613806752122
 50
82.3491634049399437
 51
86.7649526139458516
  0
ARC
  5
19DD3
  8
0
 10
4528.5621279165043234
 20
468.5575234403393097
 30
0.0
 40
9.5510351498007875
 50
86.7649526139458516
 51
88.6491185760089451
  0
ARC
  5
19DD4
  8
0
 10
4528.5652779876591012
 20
472.4240469862000964
 30
0.0
 40
5.6788469467470311
 50
81.5635263368065182
 51
89.4390218093327576
  0
ARC
  5
19DD5
  8
0
 10
4528.3050416798241713
 20
470.974908214363893
 30
0.0
 40
7.1354538555365714
 50
81.1855997962140634
 51
84.6132197467978244
  0
ARC
  5
19DD6
  8
0
 10
4528.3531512508752712
 20
470.5401770099098826
 30
0.0
 40
7.5642688563723199
 50
85.285164580515044
 51
87.971670506836972
  0
ARC
  5
19DD7
  8
0
 10
4528.4342476471629197
 20
472.9340511496872068
 30
0.0
 40
5.159615977690974
 50
79.22968521856167
 51
87.9270788616581598
  0
ARC
  5
19DD8
  8
0
 10
4528.4143449748826242
 20
473.6150021125906164
 30
0.0
 40
4.468830761229178
 50
77.278486849906173
 51
87.3510521372305675
  0
ARC
  5
19DD9
  8
0
 10
4528.3362416081536139
 20
473.8657310093865931
 30
0.0
 40
4.2126802594382431
 50
75.3956703902262859
 51
86.1257656516346657
  0
ARC
  5
19DDA
  8
0
 10
4528.4941039180230291
 20
474.9142258556366869
 30
0.0
 40
3.1388904475829089
 50
73.2553976167782821
 51
87.6852940511238046
  0
ARC
  5
19DDB
  8
0
 10
4528.4136896120362508
 20
474.9950330700622203
 30
0.0
 40
3.046516108889088
 50
71.1411831677471866
 51
86.1003972834335656
  0
ARC
  5
19DDC
  8
0
 10
4528.5008744463475523
 20
475.5692086417615769
 30
0.0
 40
2.4487694673772449
 50
68.4978420581107343
 51
87.1910526348161028
  0
ARC
  5
19DDD
  8
0
 10
4528.4110577070096042
 20
475.4825840597914066
 30
0.0
 40
2.5278438806436019
 50
67.0080695211787116
 51
85.2387578363224918
  0
ARC
  5
19DDE
  8
0
 10
4528.3937594945582532
 20
475.54254753200712
 30
0.0
 40
2.4417375689705372
 50
65.703406013039853
 51
84.6629064305504073
  0
ARC
  5
19DDF
  8
0
 10
4528.3128622079957495
 20
475.479849374571927
 30
0.0
 40
2.4945602906676778
 50
64.2034479349163973
 51
82.9072984606719245
  0
ARC
  5
19DE0
  8
0
 10
4528.2983648047138558
 20
475.433916664607807
 30
0.0
 40
2.510530150701932
 50
64.9077387270111643
 51
82.6191429260533425
  0
ARC
  5
19DE1
  8
0
 10
4528.2939580889433273
 20
475.6209812564637787
 30
0.0
 40
2.2952001667741091
 50
65.3795070853259404
 51
81.8111432080948191
  0
ARC
  5
19DE2
  8
0
 10
4528.3446244502638365
 20
475.6133324428975016
 30
0.0
 40
2.2635502355254
 50
67.6951401942273776
 51
82.9898911267921022
  0
ARC
  5
19DE3
  8
0
 10
4528.2788184858573004
 20
475.5330738644690882
 30
0.0
 40
2.3206139727555462
 50
69.5557558058975474
 51
81.5236866171834436
  0
ARC
  5
19DE4
  8
0
 10
4528.3010376453330537
 20
475.6845566389869759
 30
0.0
 40
2.1459890383000202
 50
70.5050645661560651
 51
81.4286389145977836
  0
ARC
  5
19DE5
  8
0
 10
4528.5523802303787306
 20
476.7094888342845138
 30
0.0
 40
1.062462110875565
 50
69.9435692322078353
 51
86.3035205621095685
  0
ARC
  5
19DE6
  8
0
 10
4528.6650278180723035
 20
477.1081253195570184
 30
0.0
 40
0.6240422043458979
 50
74.3214716074069202
 51
94.0569385422156472
  0
ARC
  5
19DE7
  8
0
 10
4529.1722972211700835
 20
484.2728825475164172
 30
0.0
 40
6.9693193129959887
 50
270.6227931575833736
 51
271.859456361012974
  0
ARC
  5
19DE8
  8
0
 10
4529.0923784803126182
 20
484.1948502511215793
 30
0.0
 40
6.886859478919618
 50
269.9770177660765853
 51
272.5471195363601282
  0
ARC
  5
19DE9
  8
0
 10
4528.9346499556586423
 20
483.2697208843277963
 30
0.0
 40
5.9637432720836738
 50
271.4889814062215123
 51
274.4602714402691959
  0
ARC
  5
19DEA
  8
0
 10
4528.6020170390447674
 20
496.0665036753371169
 30
0.0
 40
18.76484847661537
 50
270.9009286537889807
 51
271.4889814062215123
  0
ARC
  5
19DEB
  8
0
 10
4528.9552229801392969
 20
481.5938729186455021
 30
0.0
 40
4.2787299223516753
 50
273.0381785538738768
 51
275.945676097295177
  0
ARC
  5
19DEC
  8
0
 10
4528.7686957004380019
 20
485.1082178178988897
 30
0.0
 40
7.7980213989107474
 50
271.6556315320167982
 51
273.0381785538738768
  0
ARC
  5
19DED
  8
0
 10
4528.6207845907383671
 20
490.2254937761791211
 30
0.0
 40
12.9174345419932006
 50
270.7419414490253189
 51
271.6556315320167982
  0
ARC
  5
19DEE
  8
0
 10
4529.0228055273582868
 20
459.1815138634394771
 30
0.0
 40
18.1291483562270805
 50
90.7419414490253047
 51
91.2703644497584747
  0
ARC
  5
19DEF
  8
0
 10
4528.8823680721798155
 20
481.1917824459648045
 30
0.0
 40
3.8762613806752122
 50
273.2350473860540774
 51
277.6508365950601274
  0
ARC
  5
19DF0
  8
0
 10
4528.5621279165043234
 20
486.8575130761173
 30
0.0
 40
9.5510351498007875
 50
271.3508814239910976
 51
273.2350473860540774
  0
ARC
  5
19DF1
  8
0
 10
4528.5652779876591012
 20
482.9909895302563996
 30
0.0
 40
5.6788469467470311
 50
270.5609781906672993
 51
278.4364736631935102
  0
ARC
  5
19DF2
  8
0
 10
4528.3050416798241713
 20
484.4401283020927167
 30
0.0
 40
7.1354538555365714
 50
275.3867802532021756
 51
278.8144002037859082
  0
ARC
  5
19DF3
  8
0
 10
4528.3531512508752712
 20
484.8748595065467271
 30
0.0
 40
7.5642688563723199
 50
272.028329493163028
 51
274.7148354194849276
  0
ARC
  5
19DF4
  8
0
 10
4528.4342476471629197
 20
482.4809853667694028
 30
0.0
 40
5.159615977690974
 50
272.0729211383418829
 51
280.7703147814382874
  0
ARC
  5
19DF5
  8
0
 10
4528.4143449748826242
 20
481.8000344038659932
 30
0.0
 40
4.468830761229178
 50
272.6489478627693757
 51
282.7215131500938128
  0
ARC
  5
19DF6
  8
0
 10
4528.3362416081536139
 20
481.5493055070700166
 30
0.0
 40
4.2126802594382431
 50
273.8742343483654054
 51
284.6043296097736857
  0
ARC
  5
19DF7
  8
0
 10
4528.4941039180230291
 20
480.5008106608199228
 30
0.0
 40
3.1388904475829089
 50
272.3147059488762238
 51
286.7446023832217179
  0
ARC
  5
19DF8
  8
0
 10
4528.4136896120362508
 20
480.4200034463943894
 30
0.0
 40
3.046516108889088
 50
273.8996027165663918
 51
288.8588168322527849
  0
ARC
  5
19DF9
  8
0
 10
4528.5008744463475523
 20
479.8458278746949759
 30
0.0
 40
2.4487694673772449
 50
272.808947365183883
 51
291.5021579418893225
  0
ARC
  5
19DFA
  8
0
 10
4528.4110577070096042
 20
479.9324524566650894
 30
0.0
 40
2.5278438806436019
 50
274.7612421636774798
 51
292.9919304788213026
  0
ARC
  5
19DFB
  8
0
 10
4528.3937594945582532
 20
479.8724889844494896
 30
0.0
 40
2.4417375689705372
 50
275.3370935694496211
 51
294.2965939869600902
  0
ARC
  5
19DFC
  8
0
 10
4528.3128622079957495
 20
479.9351871418846827
 30
0.0
 40
2.4945602906676778
 50
277.0927015393281181
 51
295.7965520650835742
  0
ARC
  5
19DFD
  8
0
 10
4528.2983648047138558
 20
479.9811198518488027
 30
0.0
 40
2.510530150701932
 50
277.3808570739466859
 51
295.0922612729888783
  0
ARC
  5
19DFE
  8
0
 10
4528.2939580889433273
 20
479.7940552599927742
 30
0.0
 40
2.2952001667741091
 50
278.1888567919052093
 51
294.6204929146741165
  0
ARC
  5
19DFF
  8
0
 10
4528.3446244502638365
 20
479.8017040735591081
 30
0.0
 40
2.2635502355254
 50
277.010108873207912
 51
292.3048598057727077
  0
ARC
  5
19E00
  8
0
 10
4528.2788184858573004
 20
479.8819626519875214
 30
0.0
 40
2.3206139727555462
 50
278.4763133828166133
 51
290.4442441941023958
  0
ARC
  5
19E01
  8
0
 10
4528.3010376453330537
 20
479.7304798774695769
 30
0.0
 40
2.1459890383000202
 50
278.5713610854022022
 51
289.4949354338439207
  0
ARC
  5
19E02
  8
0
 10
4528.5523802303787306
 20
478.7055476821720958
 30
0.0
 40
1.062462110875565
 50
273.6964794378903889
 51
290.0564307677921079
  0
ARC
  5
19E03
  8
0
 10
4528.6650278180723035
 20
478.3069111968994775
 30
0.0
 40
0.6240422043458979
 50
265.9430614577843244
 51
285.6785283925930798
  0
ARC
  5
19E04
  8
0
 10
4528.8334371799992368
 20
477.7075182582282764
 30
0.0
 40
0.0014492055640631
 50
279.1955646096192822
 51
80.8044353903807036
  0
LINE
  5
19E06
  8
0
 10
4527.6709298416517413
 20
477.3385698845177103
 30
0.0
 11
4528.4780164559024342
 21
478.1456564986676199
 31
0.0
  0
ENDSEC
  0
EOF
