  0
SECTION
  2
HEADER
  9
$ACADVER
  1
AC1009
  9
$INSBASE
 10
596.2163124121827877
 20
28.0931823986452294
 30
0.0
  9
$EXTMIN
 10
583.1011785539327548
 20
24.7305230636006108
 30
0.0
  9
$EXTMAX
 10
609.3314462704329344
 20
29.2340485403452313
 30
0.0
  9
$LIMMIN
 10
0.0
 20
0.0
  9
$LIMMAX
 10
11.6929133858000007
 20
8.2677165353999982
  9
$ORTHOMODE
 70
     1
  9
$REGENMODE
 70
     1
  9
$FILLMODE
 70
     1
  9
$QTEXTMODE
 70
     0
  9
$MIRRTEXT
 70
     0
  9
$DRAGMODE
 70
     2
  9
$LTSCALE
 40
0.6431102362
  9
$OSMODE
 70
    23
  9
$ATTMODE
 70
     1
  9
$TEXTSIZE
 40
0.2
  9
$TRACEWID
 40
0.05
  9
$TEXTSTYLE
  7
STANDARD
  9
$CLAYER
  8
0
  9
$CELTYPE
  6
BYLAYER
  9
$CECOLOR
 62
   256
  9
$DIMSCALE
 40
1.0
  9
$DIMASZ
 40
0.1875
  9
$DIMEXO
 40
0.0625
  9
$DIMDLI
 40
0.4443307087
  9
$DIMRND
 40
0.0
  9
$DIMDLE
 40
0.0
  9
$DIMEXE
 40
0.125
  9
$DIMTP
 40
0.01
  9
$DIMTM
 40
0.01
  9
$DIMTXT
 40
2.0
  9
$DIMCEN
 40
0.1052362205
  9
$DIMTSZ
 40
0.0
  9
$DIMTOL
 70
     1
  9
$DIMLIM
 70
     0
  9
$DIMTIH
 70
     1
  9
$DIMTOH
 70
     1
  9
$DIMSE1
 70
     0
  9
$DIMSE2
 70
     0
  9
$DIMTAD
 70
     0
  9
$DIMZIN
 70
     0
  9
$DIMBLK
  1

  9
$DIMASO
 70
     1
  9
$DIMSHO
 70
     1
  9
$DIMPOST
  1
\X
  9
$DIMAPOST
  1

  9
$DIMALT
 70
     1
  9
$DIMALTD
 70
     2
  9
$DIMALTF
 40
25.3999999999999986
  9
$DIMLFAC
 40
1.0
  9
$DIMTOFL
 70
     0
  9
$DIMTVP
 40
0.0
  9
$DIMTIX
 70
     0
  9
$DIMSOXD
 70
     0
  9
$DIMSAH
 70
     0
  9
$DIMBLK1
  1

  9
$DIMBLK2
  1

  9
$DIMSTYLE
  2
STANDARD
  9
$DIMCLRD
 70
     0
  9
$DIMCLRE
 70
     0
  9
$DIMCLRT
 70
     0
  9
$DIMTFAC
 40
1.0
  9
$DIMGAP
 40
0.09
  9
$LUNITS
 70
     2
  9
$LUPREC
 70
     4
  9
$SKETCHINC
 40
0.1
  9
$FILLETRAD
 40
0.0
  9
$AUNITS
 70
     0
  9
$AUPREC
 70
     0
  9
$MENU
  1
.
  9
$ELEVATION
 40
0.0
  9
$PELEVATION
 40
0.0
  9
$THICKNESS
 40
0.0
  9
$LIMCHECK
 70
     0
  9
$BLIPMODE
 70
     0
  9
$CHAMFERA
 40
0.0
  9
$CHAMFERB
 40
0.0
  9
$SKPOLY
 70
     0
  9
$TDCREATE
 40
2458106.4931018520146608
  9
$TDUPDATE
 40
2459723.6716666668653488
  9
$TDINDWG
 40
0.2785402315
  9
$TDUSRTIMER
 40
0.2785402315
  9
$USRTIMER
 70
     1
  9
$ANGBASE
 50
0.0
  9
$ANGDIR
 70
     0
  9
$PDMODE
 70
     0
  9
$PDSIZE
 40
0.3125
  9
$PLINEWID
 40
0.0
  9
$COORDS
 70
     1
  9
$SPLFRAME
 70
     0
  9
$SPLINETYPE
 70
     6
  9
$SPLINESEGS
 70
     8
  9
$ATTDIA
 70
     1
  9
$ATTREQ
 70
     1
  9
$HANDLING
 70
     1
  9
$HANDSEED
  5
5812
  9
$SURFTAB1
 70
     6
  9
$SURFTAB2
 70
     6
  9
$SURFTYPE
 70
     6
  9
$SURFU
 70
     6
  9
$SURFV
 70
     6
  9
$UCSNAME
  2

  9
$UCSORG
 10
0.0
 20
0.0
 30
0.0
  9
$UCSXDIR
 10
1.0
 20
0.0
 30
0.0
  9
$UCSYDIR
 10
0.0
 20
1.0
 30
0.0
  9
$PUCSNAME
  2

  9
$PUCSORG
 10
0.0
 20
0.0
 30
0.0
  9
$PUCSXDIR
 10
1.0
 20
0.0
 30
0.0
  9
$PUCSYDIR
 10
0.0
 20
1.0
 30
0.0
  9
$USERI1
 70
     0
  9
$USERI2
 70
     0
  9
$USERI3
 70
     0
  9
$USERI4
 70
     0
  9
$USERI5
 70
     0
  9
$USERR1
 40
0.0
  9
$USERR2
 40
0.0
  9
$USERR3
 40
0.0
  9
$USERR4
 40
0.0
  9
$USERR5
 40
0.0
  9
$WORLDVIEW
 70
     1
  9
$SHADEDGE
 70
     3
  9
$SHADEDIF
 70
    70
  9
$TILEMODE
 70
     1
  9
$MAXACTVP
 70
    64
  9
$PLIMCHECK
 70
     0
  9
$PEXTMIN
 10
1.0000000000000000E+20
 20
1.0000000000000000E+20
 30
1.0000000000000000E+20
  9
$PEXTMAX
 10
-1.0000000000000000E+20
 20
-1.0000000000000000E+20
 30
-1.0000000000000000E+20
  9
$PLIMMIN
 10
0.0
 20
0.0
  9
$PLIMMAX
 10
12.0
 20
9.0
  9
$UNITMODE
 70
     0
  9
$VISRETAIN
 70
     1
  9
$PLINEGEN
 70
     0
  9
$PSLTSCALE
 70
     1
  0
ENDSEC
  0
SECTION
  2
TABLES
  0
TABLE
  2
VPORT
 70
     1
  0
VPORT
  2
*ACTIVE
 70
     0
 10
0.0
 20
0.0
 11
1.0
 21
1.0
 12
322.6446192914015114
 22
44.5881948150358127
 13
0.0
 23
0.0
 14
1.0
 24
1.0
 15
0.0
 25
0.0
 16
-0.0000000000000568
 26
0.0
 36
193.9250709296327955
 17
273.5742015565131169
 27
-17.6059607340214797
 37
0.0
 40
11.5425787648836309
 41
2.2831541218637992
 42
50.0
 43
0.0
 44
0.0
 50
0.0
 51
0.0
 71
     0
 72
   100
 73
     1
 74
     1
 75
     0
 76
     0
 77
     0
 78
     0
  0
ENDTAB
  0
TABLE
  2
LTYPE
 70
     2
  0
LTYPE
  2
CONTINUOUS
 70
     0
  3
Solid line
 72
    65
 73
     0
 40
0.0
  0
LTYPE
  2
PHANTOM2
 70
     0
  3
___ _ _ ___ _ _ ___ _ _ ___ _ _
 72
    65
 73
     6
 40
1.25
 49
0.625
 49
-0.125
 49
0.125
 49
-0.125
 49
0.125
 49
-0.125
  0
ENDTAB
  0
TABLE
  2
LAYER
 70
     2
  0
LAYER
  2
0
 70
     0
 62
   255
  6
CONTINUOUS
  0
LAYER
  2
DEFPOINTS
 70
     0
 62
     7
  6
CONTINUOUS
  0
ENDTAB
  0
TABLE
  2
STYLE
 70
     1
  0
STYLE
  2
STANDARD
 70
     0
 40
0.0
 41
0.8
 50
0.0
 71
     0
 42
0.2
  3
txt
  4

  0
ENDTAB
  0
TABLE
  2
VIEW
 70
     0
  0
ENDTAB
  0
TABLE
  2
UCS
 70
     0
  0
ENDTAB
  0
TABLE
  2
APPID
 70
    10
  0
APPID
  2
ACAD
 70
     0
  0
APPID
  2
ACAD_MLEADERVER
 70
     0
  0
APPID
  2
ACAD_EXEMPT_FROM_CAD_STANDARDS
 70
     0
  0
APPID
  2
ACAD_NAV_VCDISPLAY
 70
     0
  0
APPID
  2
ACAD_DSTYLE_DIMJAG
 70
     0
  0
APPID
  2
ACAD_DSTYLE_DIMTALN
 70
     0
  0
APPID
  2
ACAECLAYERSTANDARD
 70
     0
  0
APPID
  2
ACCMTRANSPARENCY
 70
     0
  0
APPID
  2
ACDBATTR
 70
     0
  0
APPID
  2
DCO15
 70
     0
  0
ENDTAB
  0
TABLE
  2
DIMSTYLE
 70
     1
  0
DIMSTYLE
  2
STANDARD
 70
     0
  3

  4

  5

  6

  7

 40
1.0
 41
0.1875
 42
0.0625
 43
0.38
 44
0.125
 45
0.0
 46
0.0
 47
0.01
 48
0.01
140
0.15625
141
0.09
142
0.0
143
25.3999999999999986
144
1.0
145
0.0
146
1.0
147
0.09
 71
     1
 72
     0
 73
     1
 74
     1
 75
     0
 76
     0
 77
     0
 78
     4
170
     0
171
     2
172
     0
173
     0
174
     0
175
     0
176
     0
177
     0
178
     0
  0
ENDTAB
  0
ENDSEC
  0
SECTION
  2
BLOCKS
  0
BLOCK
  8
0
  2
$MODEL_SPACE
 70
     0
 10
0.0
 20
0.0
 30
0.0
  3
$MODEL_SPACE
  1

  0
ENDBLK
  5
21
  8
0
  0
BLOCK
 67
     1
  8
0
  2
$PAPER_SPACE
 70
     0
 10
0.0
 20
0.0
 30
0.0
  3
$PAPER_SPACE
  1

  0
ENDBLK
  5
1D
 67
     1
  8
0
  0
ENDSEC
  0
SECTION
  2
ENTITIES
  0
ATTDEF
  5
FAA
  8
DEFPOINTS
 10
596.2164465564068223
 20
28.0966300844238006
 30
0.0
 40
0.001
  1
P24941-00
  3

  2
MODELNUMBER
 70
     0
1001
ACDBATTR
1070
     0
1070
     1
  0
ATTDEF
  5
FAB
  8
DEFPOINTS
 10
596.2164465564068223
 20
28.094963417757139
 30
0.0
 40
0.001
  1
PURE PALETTA
  3

  2
TRADENAME
 70
     0
1001
ACDBATTR
1070
     0
1070
     1
  0
ATTDEF
  5
FAC
  8
DEFPOINTS
 10
596.2164465564068223
 20
28.0932967510904703
 30
0.0
 40
0.001
  1
TOWEL BAR
  3

  2
PRODUCT
 70
     0
1001
ACDBATTR
1070
     0
1070
     1
  0
ARC
  5
572C
  8
0
 10
584.2420446956328988
 20
28.0931823986452294
 30
0.0
 40
1.1408661416999999
 50
20.7148090218411802
 51
339.2851909781588233
  0
ARC
  5
572D
  8
0
 10
584.2420446956328988
 20
28.0931823986452294
 30
0.0
 40
0.8745000000000002
 50
27.4811030886336987
 51
332.518896911366312
  0
ARC
  5
572E
  8
0
 10
584.2420446956328988
 20
28.0931823986452294
 30
0.0
 40
0.4035433071000006
 50
90.0
 51
270.0
  0
LINE
  5
572F
  8
0
 10
584.2420446956328988
 20
28.4967257057452308
 30
0.0
 11
585.5806273728329643
 21
28.4967257057452308
 31
0.0
  0
LINE
  5
5730
  8
0
 10
585.6044226484327737
 20
28.4967257057452308
 30
0.0
 11
608.1905801287327904
 21
28.4967257057452308
 31
0.0
  0
LINE
  5
5731
  8
0
 10
584.2420446956328988
 20
27.6896390915452315
 30
0.0
 11
585.5806273728329643
 21
27.6896390915452315
 31
0.0
  0
LINE
  5
5732
  8
0
 10
585.6044226484327737
 20
27.6896390915452315
 30
0.0
 11
608.1905801287327904
 21
27.6896390915452315
 31
0.0
  0
ARC
  5
5733
  8
0
 10
585.5806273728329643
 20
28.4770406663452285
 30
0.0
 40
0.019685039400001
 50
53.0057064737839596
 51
90.0
  0
ARC
  5
5734
  8
0
 10
585.6044226484327737
 20
28.476725705745249
 30
0.0
 40
0.0199999999999802
 50
90.0
 51
126.6913753228935064
  0
ARC
  5
5735
  8
0
 10
585.5806273728329643
 20
27.7093241309452303
 30
0.0
 40
0.019685039400001
 50
270.0
 51
306.9942935262159835
  0
ARC
  5
5736
  8
0
 10
585.6044226484327737
 20
27.7096390915452098
 30
0.0
 40
0.0199999999999802
 50
233.3086246771065078
 51
270.0
  0
LINE
  5
5737
  8
0
 10
585.592472559438761
 20
28.4927630176468902
 30
0.0
 11
585.592472559438761
 21
27.6936017796435685
 31
0.0
  0
ARC
  5
5738
  8
0
 10
584.2420446956328988
 20
28.0931823986452294
 30
0.0
 40
0.8016177069105481
 50
30.2259389226892203
 51
329.7740610773108187
  0
ARC
  5
5739
  8
0
 10
584.2420446956328988
 20
28.0931823986452294
 30
0.0
 40
1.038319743551366
 50
22.8705447959754409
 51
337.1294552040246231
  0
ARC
  5
573A
  8
0
 10
608.1905801287327904
 20
28.0931823986452294
 30
0.0
 40
1.1408661416999999
 50
200.7148090218412051
 51
159.2851909781587949
  0
ARC
  5
573B
  8
0
 10
608.1905801287327904
 20
28.0931823986452294
 30
0.0
 40
0.8745000000000002
 50
207.481103088633688
 51
152.518896911366312
  0
ARC
  5
573C
  8
0
 10
608.1905801287327904
 20
28.0931823986452294
 30
0.0
 40
0.4035433071000006
 50
270.0
 51
90.0
  0
LINE
  5
573D
  8
0
 10
608.1905801287327904
 20
28.4967257057452308
 30
0.0
 11
606.8519974515329523
 21
28.4967257057452308
 31
0.0
  0
LINE
  5
573E
  8
0
 10
608.1905801287327904
 20
27.6896390915452315
 30
0.0
 11
606.8519974515329523
 21
27.6896390915452315
 31
0.0
  0
ARC
  5
573F
  8
0
 10
606.8519974515329523
 20
28.4770406663452285
 30
0.0
 40
0.019685039400001
 50
90.0
 51
126.9942935262159978
  0
ARC
  5
5740
  8
0
 10
606.8282021759329155
 20
28.476725705745249
 30
0.0
 40
0.0199999999999802
 50
53.3086246771064936
 51
90.0
  0
ARC
  5
5741
  8
0
 10
606.8519974515329523
 20
27.7093241309452303
 30
0.0
 40
0.019685039400001
 50
233.005706473783988
 51
270.0
  0
ARC
  5
5742
  8
0
 10
606.8282021759329155
 20
27.7096390915452098
 30
0.0
 40
0.0199999999999802
 50
270.0
 51
306.6913753228935207
  0
LINE
  5
5743
  8
0
 10
606.8401522649271556
 20
28.4927630176468902
 30
0.0
 11
606.8401522649271556
 21
27.6936017796435685
 31
0.0
  0
ARC
  5
5744
  8
0
 10
608.1905801287327904
 20
28.0931823986452294
 30
0.0
 40
0.8016177069105481
 50
210.2259389226892097
 51
149.7740610773107903
  0
ARC
  5
5745
  8
0
 10
608.1905801287327904
 20
28.0931823986452294
 30
0.0
 40
1.038319743551366
 50
202.8705447959754053
 51
157.1294552040245094
  0
ENDSEC
  0
EOF
