  0
SECTION
  2
HEADER
  9
$ACADVER
  1
AC1009
  9
$INSBASE
 10
4421.4628054913182496
 20
515.8795860490608902
 30
0.0
  9
$EXTMIN
 10
4417.3079896900935637
 20
506.0001098198828799
 30
-0.0015258207003583
  9
$EXTMAX
 10
4427.1027585490955971
 20
518.2570975323571929
 30
0.0000000349246037
  9
$LIMMIN
 10
0.0
 20
0.0
  9
$LIMMAX
 10
11.6929133858000007
 20
8.2677165353999982
  9
$ORTHOMODE
 70
     1
  9
$REGENMODE
 70
     1
  9
$FILLMODE
 70
     1
  9
$QTEXTMODE
 70
     0
  9
$MIRRTEXT
 70
     0
  9
$DRAGMODE
 70
     2
  9
$LTSCALE
 40
0.6431102362
  9
$OSMODE
 70
  2039
  9
$ATTMODE
 70
     1
  9
$TEXTSIZE
 40
0.2
  9
$TRACEWID
 40
0.05
  9
$TEXTSTYLE
  7
STANDARD
  9
$CLAYER
  8
0
  9
$CELTYPE
  6
BYLAYER
  9
$CECOLOR
 62
   256
  9
$DIMSCALE
 40
1.0
  9
$DIMASZ
 40
0.1875
  9
$DIMEXO
 40
0.0625
  9
$DIMDLI
 40
0.4443307087
  9
$DIMRND
 40
0.0
  9
$DIMDLE
 40
0.0
  9
$DIMEXE
 40
0.125
  9
$DIMTP
 40
0.01
  9
$DIMTM
 40
0.01
  9
$DIMTXT
 40
2.0
  9
$DIMCEN
 40
0.1052362205
  9
$DIMTSZ
 40
0.0
  9
$DIMTOL
 70
     1
  9
$DIMLIM
 70
     0
  9
$DIMTIH
 70
     1
  9
$DIMTOH
 70
     1
  9
$DIMSE1
 70
     0
  9
$DIMSE2
 70
     0
  9
$DIMTAD
 70
     0
  9
$DIMZIN
 70
     0
  9
$DIMBLK
  1

  9
$DIMASO
 70
     1
  9
$DIMSHO
 70
     1
  9
$DIMPOST
  1
\X
  9
$DIMAPOST
  1

  9
$DIMALT
 70
     1
  9
$DIMALTD
 70
     2
  9
$DIMALTF
 40
25.3999999999999986
  9
$DIMLFAC
 40
1.0
  9
$DIMTOFL
 70
     0
  9
$DIMTVP
 40
0.0
  9
$DIMTIX
 70
     0
  9
$DIMSOXD
 70
     0
  9
$DIMSAH
 70
     0
  9
$DIMBLK1
  1

  9
$DIMBLK2
  1

  9
$DIMSTYLE
  2
STANDARD
  9
$DIMCLRD
 70
     0
  9
$DIMCLRE
 70
     0
  9
$DIMCLRT
 70
     0
  9
$DIMTFAC
 40
1.0
  9
$DIMGAP
 40
0.09
  9
$LUNITS
 70
     2
  9
$LUPREC
 70
     4
  9
$SKETCHINC
 40
0.1
  9
$FILLETRAD
 40
0.0
  9
$AUNITS
 70
     0
  9
$AUPREC
 70
     0
  9
$MENU
  1
.
  9
$ELEVATION
 40
0.0
  9
$PELEVATION
 40
0.0
  9
$THICKNESS
 40
0.0
  9
$LIMCHECK
 70
     0
  9
$BLIPMODE
 70
     0
  9
$CHAMFERA
 40
0.0
  9
$CHAMFERB
 40
0.0
  9
$SKPOLY
 70
     0
  9
$TDCREATE
 40
2458060.468368056230247
  9
$TDUPDATE
 40
2459349.579236111138016
  9
$TDINDWG
 40
1.4622115393999999
  9
$TDUSRTIMER
 40
1.4622115393999999
  9
$USRTIMER
 70
     1
  9
$ANGBASE
 50
0.0
  9
$ANGDIR
 70
     0
  9
$PDMODE
 70
     0
  9
$PDSIZE
 40
0.3125
  9
$PLINEWID
 40
0.0
  9
$COORDS
 70
     1
  9
$SPLFRAME
 70
     0
  9
$SPLINETYPE
 70
     6
  9
$SPLINESEGS
 70
     8
  9
$ATTDIA
 70
     1
  9
$ATTREQ
 70
     1
  9
$HANDLING
 70
     1
  9
$HANDSEED
  5
1E810
  9
$SURFTAB1
 70
     6
  9
$SURFTAB2
 70
     6
  9
$SURFTYPE
 70
     6
  9
$SURFU
 70
     6
  9
$SURFV
 70
     6
  9
$UCSNAME
  2

  9
$UCSORG
 10
0.0
 20
0.0
 30
0.0
  9
$UCSXDIR
 10
1.0
 20
0.0
 30
0.0
  9
$UCSYDIR
 10
0.0
 20
1.0
 30
0.0
  9
$PUCSNAME
  2

  9
$PUCSORG
 10
0.0
 20
0.0
 30
0.0
  9
$PUCSXDIR
 10
1.0
 20
0.0
 30
0.0
  9
$PUCSYDIR
 10
0.0
 20
1.0
 30
0.0
  9
$USERI1
 70
     0
  9
$USERI2
 70
     0
  9
$USERI3
 70
     0
  9
$USERI4
 70
     0
  9
$USERI5
 70
     0
  9
$USERR1
 40
0.0
  9
$USERR2
 40
0.0
  9
$USERR3
 40
0.0
  9
$USERR4
 40
0.0
  9
$USERR5
 40
0.0
  9
$WORLDVIEW
 70
     1
  9
$SHADEDGE
 70
     3
  9
$SHADEDIF
 70
    70
  9
$TILEMODE
 70
     1
  9
$MAXACTVP
 70
    64
  9
$PLIMCHECK
 70
     0
  9
$PEXTMIN
 10
1.0000000000000000E+20
 20
1.0000000000000000E+20
 30
1.0000000000000000E+20
  9
$PEXTMAX
 10
-1.0000000000000000E+20
 20
-1.0000000000000000E+20
 30
-1.0000000000000000E+20
  9
$PLIMMIN
 10
0.0
 20
0.0
  9
$PLIMMAX
 10
12.0
 20
9.0
  9
$UNITMODE
 70
     0
  9
$VISRETAIN
 70
     1
  9
$PLINEGEN
 70
     0
  9
$PSLTSCALE
 70
     1
  0
ENDSEC
  0
SECTION
  2
TABLES
  0
TABLE
  2
VPORT
 70
     1
  0
VPORT
  2
*ACTIVE
 70
     0
 10
0.0
 20
0.0
 11
1.0
 21
1.0
 12
510.840017674282592
 22
379.5489985735810023
 13
0.0
 23
0.0
 14
1.0
 24
1.0
 15
0.0
 25
0.0
 16
0.0
 26
0.0
 36
60.4960186965801583
 17
3911.3653564453120453
 27
132.5796051025390057
 37
0.0
 40
12.3589876102202005
 41
2.6486111111111108
 42
50.0
 43
0.0
 44
0.0
 50
0.0
 51
0.0
 71
     0
 72
   100
 73
     1
 74
     1
 75
     0
 76
     0
 77
     0
 78
     0
  0
ENDTAB
  0
TABLE
  2
LTYPE
 70
     2
  0
LTYPE
  2
CONTINUOUS
 70
     0
  3
Solid line
 72
    65
 73
     0
 40
0.0
  0
LTYPE
  2
PHANTOM2
 70
     0
  3
___ _ _ ___ _ _ ___ _ _ ___ _ _
 72
    65
 73
     6
 40
1.25
 49
0.625
 49
-0.125
 49
0.125
 49
-0.125
 49
0.125
 49
-0.125
  0
ENDTAB
  0
TABLE
  2
LAYER
 70
     2
  0
LAYER
  2
0
 70
     0
 62
   255
  6
CONTINUOUS
  0
LAYER
  2
DEFPOINTS
 70
     0
 62
     7
  6
CONTINUOUS
  0
ENDTAB
  0
TABLE
  2
STYLE
 70
     1
  0
STYLE
  2
STANDARD
 70
     0
 40
0.0
 41
0.8
 50
0.0
 71
     0
 42
0.2
  3
txt
  4

  0
ENDTAB
  0
TABLE
  2
VIEW
 70
     0
  0
ENDTAB
  0
TABLE
  2
UCS
 70
     0
  0
ENDTAB
  0
TABLE
  2
APPID
 70
    11
  0
APPID
  2
ACAD
 70
     0
  0
APPID
  2
ACAD_MLEADERVER
 70
     0
  0
APPID
  2
ACAD_EXEMPT_FROM_CAD_STANDARDS
 70
     0
  0
APPID
  2
ACAD_NAV_VCDISPLAY
 70
     0
  0
APPID
  2
ACAECLAYERSTANDARD
 70
     0
  0
APPID
  2
ACCMTRANSPARENCY
 70
     0
  0
APPID
  2
ACAD_DSTYLE_DIMJAG
 70
     0
  0
APPID
  2
ACAD_DSTYLE_DIMTALN
 70
     0
  0
APPID
  2
ACDBATTR
 70
     0
  0
APPID
  2
ACADANNOTATIVE
 70
     0
  0
APPID
  2
DCO15
 70
     0
  0
ENDTAB
  0
TABLE
  2
DIMSTYLE
 70
     1
  0
DIMSTYLE
  2
STANDARD
 70
     0
  3

  4

  5

  6

  7

 40
1.0
 41
0.1875
 42
0.0625
 43
0.38
 44
0.125
 45
0.0
 46
0.0
 47
0.01
 48
0.01
140
0.15625
141
0.09
142
0.0
143
25.3999999999999986
144
1.0
145
0.0
146
1.0
147
0.09
 71
     1
 72
     0
 73
     1
 74
     1
 75
     0
 76
     0
 77
     0
 78
     4
170
     0
171
     2
172
     0
173
     0
174
     0
175
     0
176
     0
177
     0
178
     0
  0
ENDTAB
  0
ENDSEC
  0
SECTION
  2
BLOCKS
  0
BLOCK
  8
0
  2
$MODEL_SPACE
 70
     0
 10
0.0
 20
0.0
 30
0.0
  3
$MODEL_SPACE
  1

  0
ENDBLK
  5
21
  8
0
  0
BLOCK
 67
     1
  8
0
  2
$PAPER_SPACE
 70
     0
 10
0.0
 20
0.0
 30
0.0
  3
$PAPER_SPACE
  1

  0
ENDBLK
  5
1D
 67
     1
  8
0
  0
BLOCK
  8
0
  2
_FILLED
 70
     0
 10
0.0
 20
0.0
 30
0.0
  3
_FILLED
  1

  0
SOLID
  5
1DFBF
  8
0
  6
BYBLOCK
 62
     0
 10
0.0
 20
0.0
 30
0.0
 11
-1.0
 21
0.1666666667
 31
0.0
 12
-1.0
 22
-0.1666666667
 32
0.0
 13
-1.0
 23
-0.1666666667
 33
0.0
  0
ENDBLK
  5
1DFC0
  8
0
  6
BYBLOCK
 62
     0
  0
ENDSEC
  0
SECTION
  2
ENTITIES
  0
ATTDEF
  5
1DCD4
  8
DEFPOINTS
 10
4421.4633495985826812
 20
515.8834220320389932
 30
0.0
 40
0.001
  1
P24977-SNW
  3

  2
MODELNUMBER
 70
     0
1001
ACDBATTR
1070
     0
1070
     1
  0
ATTDEF
  5
1DCD5
  8
DEFPOINTS
 10
4421.4633495985826812
 20
515.8817551916598632
 30
0.0
 40
0.001
  1
PINNA PALETTA
  3

  2
TRADENAME
 70
     0
1001
ACDBATTR
1070
     0
1070
     1
  0
ATTDEF
  5
1DCD6
  8
DEFPOINTS
 10
4421.4633495985826812
 20
515.8800886987057766
 30
0.0
 40
0.001
  1
BATH FILLER
  3

  2
PRODUCT
 70
     0
1001
ACDBATTR
1070
     0
1070
     1
  0
ARC
  5
1E49E
  8
0
 10
4421.4628054913182496
 20
506.8272651821259274
 30
0.0
 40
0.8037168255411424
 50
236.265694423976214
 51
303.7343055760238144
  0
ARC
  5
1E49F
  8
0
 10
4421.3500161181918884
 20
506.6566706784003031
 30
0.0
 40
0.6057561728168139
 50
180.6715599639937864
 51
188.9228231010364141
  0
ARC
  5
1E4A0
  8
0
 10
4421.3164585919757883
 20
506.6541446111056075
 30
0.0
 40
0.5722193659051582
 50
189.1941144044062924
 51
201.2106425563196979
  0
ARC
  5
1E4A1
  8
0
 10
4421.3200117953219888
 20
506.6555235672033746
 30
0.0
 40
0.576030766426494
 50
201.2106425563196979
 51
216.915410725908913
  0
ARC
  5
1E4A2
  8
0
 10
4421.3997187345348721
 20
506.7154027610055209
 30
0.0
 40
0.6757238655307951
 50
216.915410725908913
 51
235.4467794579663007
  0
ARC
  5
1E4A3
  8
0
 10
4421.4628316982307297
 20
507.2391326301860204
 30
0.0
 40
0.8179720387035578
 50
250.0285650845301006
 51
252.5560259610450089
  0
ARC
  5
1E4A4
  8
0
 10
4421.4628316982307297
 20
507.2391326301860204
 30
0.0
 40
0.8179720387035578
 50
256.2775785941250888
 51
259.111004339256624
  0
ARC
  5
1E4A5
  8
0
 10
4421.4628316982307297
 20
507.2391326301860204
 30
0.0
 40
0.8179720387035578
 50
262.111976868988279
 51
264.5460906407927268
  0
ARC
  5
1E4A6
  8
0
 10
4421.4079245572911532
 20
507.120604244504193
 30
0.0
 40
0.687389787948183
 50
214.8613623361084137
 51
217.2522473977842878
  0
ARC
  5
1E4A7
  8
0
 10
4421.4079245572911532
 20
507.120604244504193
 30
0.0
 40
0.687389787948183
 50
220.8317443952159067
 51
224.8915587447837083
  0
ARC
  5
1E4A8
  8
0
 10
4421.4079245572911532
 20
507.120604244504193
 30
0.0
 40
0.687389787948183
 50
228.9687515961157089
 51
232.748722496563488
  0
ARC
  5
1E4A9
  8
0
 10
4421.4079245572911532
 20
507.120604244504193
 30
0.0
 40
0.687389787948183
 50
236.2635876896148091
 51
239.8395762734816117
  0
ARC
  5
1E4AA
  8
0
 10
4421.407925643071394
 20
507.1206064871752233
 30
0.0
 40
0.6873922793390437
 50
243.2864756368018959
 51
246.8055630089139925
  0
ARC
  5
1E4AB
  8
0
 10
4421.0745451926022724
 20
506.958288605194582
 30
0.0
 40
0.3139502858291632
 50
199.0180311431936104
 51
205.2132739452144108
  0
ARC
  5
1E4AC
  8
0
 10
4421.2929058149520642
 20
507.0404813146067227
 30
0.0
 40
0.5472149150765709
 50
207.3691597507020958
 51
210.5801825884022946
  0
ARC
  5
1E4AD
  8
0
 10
4421.3354162503119369
 20
507.0523846908441215
 30
0.0
 40
0.5913604412410102
 50
181.8021952982221876
 51
183.8712769230195931
  0
ARC
  5
1E4AE
  8
0
 10
4421.3354162895484478
 20
507.0523846969074953
 30
0.0
 40
0.5913604809378771
 50
185.8691311519542921
 51
189.7563825000326858
  0
ARC
  5
1E4AF
  8
0
 10
4421.3354162503119369
 20
507.0523846908441215
 30
0.0
 40
0.5913604412410102
 50
192.876988840768405
 51
195.6428142943686908
  0
ARC
  5
1E4B0
  8
0
 10
4421.3044715714413542
 20
507.0593640873456138
 30
0.0
 40
0.5601793304762537
 50
180.3303915391277883
 51
201.1536930286210065
  0
ARC
  5
1E4B1
  8
0
 10
4421.3420610720786499
 20
507.0749893466090725
 30
0.0
 40
0.600875437846474
 50
201.2497529798947937
 51
221.7037408878333054
  0
ARC
  5
1E4B2
  8
0
 10
4421.4115164927361548
 20
507.1368800042143903
 30
0.0
 40
0.6939050511823025
 50
221.7037408878333054
 51
240.4140780360501992
  0
ARC
  5
1E4B3
  8
0
 10
4421.4628051171202969
 20
507.2385061026462267
 30
0.0
 40
0.8076226375026127
 50
240.809539344184401
 51
299.1899770931278795
  0
ARC
  5
1E4B4
  8
0
 10
4421.3612572832962542
 20
506.4278096082355205
 30
0.0
 40
0.0551761460238448
 50
354.469757803329685
 51
4.6892595345236971
  0
ARC
  5
1E4B5
  8
0
 10
4421.2582469291655798
 20
506.2878654364860154
 30
0.0
 40
0.2075238664095183
 50
35.1084462238210904
 51
40.4458545160436529
  0
ARC
  5
1E4B6
  8
0
 10
4421.482601573701686
 20
506.4455939361037053
 30
0.0
 40
0.0667265412779624
 50
215.1084462238210904
 51
252.7420078947378101
  0
ARC
  5
1E4B7
  8
0
 10
4427.440818254604892
 20
511.5073952273040163
 30
0.0
 40
7.9059800146088159
 50
220.0067262072826111
 51
220.8750853333532973
  0
ARC
  5
1E4B8
  8
0
 10
4421.4407326459931937
 20
506.4190269987220177
 30
0.0
 40
0.0559503526673244
 50
163.9463050324361859
 51
174.0588089370482976
  0
ARC
  5
1E4B9
  8
0
 10
4421.3112384858086443
 20
506.4372474050176152
 30
0.0
 40
0.0402126832124244
 50
348.0194948251976825
 51
1.9277615427952099
  0
ARC
  5
1E4BA
  8
0
 10
4425.035590542051068
 20
509.372845746524888
 30
0.0
 40
4.7165828233777889
 50
218.6212336008005082
 51
220.7561956004279864
  0
ARC
  5
1E4BB
  8
0
 10
4421.4628054913182496
 20
506.1856566493671039
 30
0.0
 40
0.0326567764744711
 50
224.2873109149421964
 51
315.7126890850213954
  0
ARC
  5
1E4BC
  8
0
 10
4421.3490351840446237
 20
506.4266217775127075
 30
0.0
 40
0.0417649403561665
 50
153.6456647734059118
 51
167.1811050739937912
  0
ARC
  5
1E4BD
  8
0
 10
4421.2374274225758199
 20
506.4557260001698751
 30
0.0
 40
0.0333118404877805
 50
340.3214658970888991
 51
357.1405464972805817
  0
ARC
  5
1E4BE
  8
0
 10
4421.2510496119057279
 20
506.4457745014818784
 30
0.0
 40
0.0358645568368202
 50
142.7836206266987062
 51
158.7405620342964028
  0
ARC
  5
1E4BF
  8
0
 10
4421.1513808372592393
 20
506.4871546273917033
 30
0.0
 40
0.0362066928460191
 50
332.3477561800934268
 51
347.8261794292238847
  0
ARC
  5
1E4C0
  8
0
 10
4421.1718336827016174
 20
506.4698054463563039
 30
0.0
 40
0.0394927312054334
 50
136.741850515199701
 51
151.2952390371904983
  0
ARC
  5
1E4C1
  8
0
 10
4421.062606244698145
 20
506.5330964096551725
 30
0.0
 40
0.0449647160013719
 50
323.8675865044091893
 51
336.3580381128261934
  0
ARC
  5
1E4C2
  8
0
 10
4421.1020318604942076
 20
506.4977415914269159
 30
0.0
 40
0.0486998075996208
 50
132.8436386214166873
 51
144.1376597662990946
  0
ARC
  5
1E4C3
  8
0
 10
4420.9929599116194368
 20
506.5804225782051162
 30
0.0
 40
0.0457379936769269
 50
316.5541215149169147
 51
327.9336156359771053
  0
ARC
  5
1E4C4
  8
0
 10
4421.027843291813042
 20
506.5392727399229216
 30
0.0
 40
0.0496422502965235
 50
126.271372317481493
 51
136.4909872930521999
  0
ARC
  5
1E4C5
  8
0
 10
4420.930527833137603
 20
506.6338350598052784
 30
0.0
 40
0.0411408698884645
 50
309.4580806520264105
 51
320.8838952146209067
  0
ARC
  5
1E4C6
  8
0
 10
4420.9485969746920091
 20
506.6002333024582072
 30
0.0
 40
0.0447874067286455
 50
118.1842109741727995
 51
128.1228130498141979
  0
ARC
  5
1E4C7
  8
0
 10
4420.8618881874090221
 20
506.7128735236644843
 30
0.0
 40
0.0491173001664274
 50
301.8713782413763056
 51
309.9854546001662925
  0
ARC
  5
1E4C8
  8
0
 10
4420.8874181450082688
 20
506.6592245574594813
 30
0.0
 40
0.0525404459702268
 50
113.2618507614560031
 51
120.4678870770010946
  0
ARC
  5
1E4C9
  8
0
 10
4420.8207519954730742
 20
506.7759942868922849
 30
0.0
 40
0.0535557671316899
 50
295.6032827963663863
 51
302.488040911690689
  0
ARC
  5
1E4CA
  8
0
 10
4420.8458152496095863
 20
506.7113961036018281
 30
0.0
 40
0.0560944500719742
 50
108.9026837261958036
 51
115.3499734797587024
  0
ARC
  5
1E4CB
  8
0
 10
4420.7879749217509016
 20
506.8427172911603975
 30
0.0
 40
0.057048819260647
 50
289.4215021980444931
 51
295.3897208462684034
  0
ARC
  5
1E4CC
  8
0
 10
4420.8100303897172125
 20
506.7687603546239075
 30
0.0
 40
0.0591069006120263
 50
104.5204781830307041
 51
109.2889604916203012
  0
ARC
  5
1E4CD
  8
0
 10
4420.7637500319469837
 20
506.9131714339907262
 30
0.0
 40
0.0588727643345787
 50
283.7382669633632872
 51
288.0990626001781152
  0
ARC
  5
1E4CE
  8
0
 10
4420.7799656043962386
 20
506.834270015024174
 30
0.0
 40
0.0603095865924503
 50
100.159905369630394
 51
103.4292818274962968
  0
ARC
  5
1E4CF
  8
0
 10
4420.7478475959533171
 20
506.9913285473458018
 30
0.0
 40
0.0715962461049897
 50
278.9030664066368104
 51
281.0686719873227162
  0
ARC
  5
1E4D0
  8
0
 10
4420.7629305925593144
 20
506.8807709972425073
 30
0.0
 40
0.0721444035353893
 50
96.6398777204772443
 51
98.2258129531745254
  0
ARC
  5
1E4D1
  8
0
 10
4420.742640699319054
 20
507.0740689068177858
 30
0.0
 40
0.0822787015454209
 50
273.1456479955326131
 51
274.0446081373527818
  0
ARC
  5
1E4D2
  8
0
 10
4420.7491468342768712
 20
506.9389421145900769
 30
0.0
 40
0.0813030256259558
 50
92.3272192776786653
 51
92.9689430214470462
  0
ARC
  5
1E4D3
  8
0
 10
4406.4400636873524491
 20
494.2324380961413794
 30
0.0
 40
19.2350975366168591
 50
38.7014944911801706
 51
39.3782113886250968
  0
ARC
  5
1E4D4
  8
0
 10
4426.8613902995348326
 20
510.7565452298871946
 30
0.0
 40
7.0619258776815821
 50
217.6331536165228044
 51
220.0405560772836964
  0
ARC
  5
1E4D5
  8
0
 10
4422.997863779400177
 20
507.5620227978129719
 30
0.0
 40
2.0943722620240979
 50
211.7872061446354905
 51
221.9176073764897978
  0
ARC
  5
1E4D6
  8
0
 10
4423.2315128274512972
 20
507.7087821567010906
 30
0.0
 40
2.3933793811597108
 50
211.1607150215814954
 51
221.7015145803237886
  0
ARC
  5
1E4D7
  8
0
 10
4423.251306690027377
 20
507.7140512179540224
 30
0.0
 40
2.443517142962135
 50
210.0953241101447873
 51
222.5835643806211976
  0
ARC
  5
1E4D8
  8
0
 10
4425.1012335996392721
 20
508.9701189583852852
 30
0.0
 40
4.699734692566091
 50
211.6134758554931921
 51
218.5051461307415934
  0
ARC
  5
1E4D9
  8
0
 10
4423.598310562530969
 20
507.8772463654851776
 30
0.0
 40
2.873176211957416
 50
208.0474386758534138
 51
219.5693226433724021
  0
ARC
  5
1E4DA
  8
0
 10
4423.0570045888907771
 20
507.4845529266629001
 30
0.0
 40
2.2359824610055239
 50
204.7349650766061018
 51
219.8302675501437022
  0
ARC
  5
1E4DB
  8
0
 10
4423.147246922119848
 20
507.5047719391974965
 30
0.0
 40
2.3480081247924751
 50
203.368511902212191
 51
217.9702708555153947
  0
ARC
  5
1E4DC
  8
0
 10
4422.8850721603130296
 20
507.3379321062495251
 30
0.0
 40
2.0640285528935691
 50
200.8864531037743006
 51
217.9259881112982953
  0
ARC
  5
1E4DD
  8
0
 10
4422.9403241655436432
 20
507.3394481228273207
 30
0.0
 40
2.1385676057794298
 50
199.2192213114470007
 51
215.9777370071369091
  0
ARC
  5
1E4DE
  8
0
 10
4422.6447142694778449
 20
507.1924115066473746
 30
0.0
 40
1.832585409200568
 50
196.5250367192790009
 51
216.973615667263914
  0
ARC
  5
1E4DF
  8
0
 10
4422.4806063643509333
 20
507.1046360454553792
 30
0.0
 40
1.6685165191898239
 50
193.8752991818662963
 51
216.6454188578871083
  0
ARC
  5
1E4E0
  8
0
 10
4422.4465394311891941
 20
507.0732677916719808
 30
0.0
 40
1.6394775754296991
 50
192.16811720507431
 51
215.412517150431114
  0
ARC
  5
1E4E1
  8
0
 10
4422.3984188118602106
 20
507.0501994822016059
 30
0.0
 40
1.602728537696299
 50
190.3559193059905965
 51
215.3888834527081997
  0
ARC
  5
1E4E2
  8
0
 10
4422.4845102376466457
 20
507.0584482798901149
 30
0.0
 40
1.6990806699305641
 50
189.1276739280623076
 51
211.8636839664567901
  0
ARC
  5
1E4E3
  8
0
 10
4422.454053117845433
 20
507.0375953510290969
 30
0.0
 40
1.677134297964072
 50
187.2979910395796992
 51
211.4387784070974021
  0
ARC
  5
1E4E4
  8
0
 10
4422.4006060821648134
 20
506.9970908076995784
 30
0.0
 40
1.628997599063982
 50
184.9693309676700039
 51
208.9503612366368941
  0
ARC
  5
1E4E5
  8
0
 10
4422.3691509340033008
 20
506.9808981152958154
 30
0.0
 40
1.605603517614836
 50
183.1406842619439885
 51
208.6662363154439106
  0
ARC
  5
1E4E6
  8
0
 10
4422.4896130562028702
 20
506.9836405960408001
 30
0.0
 40
1.7318329300595909
 50
182.0862574428664971
 51
204.5780440874939075
  0
ARC
  5
1E4E7
  8
0
 10
4422.4330864316725638
 20
506.9572498007451031
 30
0.0
 40
1.6804855557810841
 50
180.1730868540822996
 51
204.1612196961397956
  0
ARC
  5
1E4E8
  8
0
 10
4423.5712509894538016
 20
507.0596855773515017
 30
0.0
 40
2.8249083580066001
 50
181.374695135006391
 51
189.6303891938422055
  0
ARC
  5
1E4E9
  8
0
 10
4421.9738878716007093
 20
506.7886402858915176
 30
0.0
 40
1.2047125425893781
 50
189.6303891938422055
 51
202.9749035239456987
  0
ARC
  5
1E4EA
  8
0
 10
4420.9858862950959519
 20
506.399741657501977
 30
0.0
 40
0.1521082458273096
 50
197.277472031199494
 51
211.6474633523014859
  0
ARC
  5
1E4EB
  8
0
 10
4422.0042934860130117
 20
506.7903167202928785
 30
0.0
 40
1.2425638489344131
 50
189.3354105538003012
 51
200.5293477400446989
  0
ARC
  5
1E4EC
  8
0
 10
4423.5088545335838717
 20
507.0131442822868735
 30
0.0
 40
2.7634494730336039
 50
180.0142100480059923
 51
188.8339858150933992
  0
ARC
  5
1E4ED
  8
0
 10
4418.2364297951644403
 20
505.6120436281703974
 30
0.0
 40
2.6974407078325928
 50
16.6069435659585309
 51
17.494078960560369
  0
ARC
  5
1E4EE
  8
0
 10
4422.4130065667250165
 20
506.8685507711281275
 30
0.0
 40
1.6646564769344541
 50
181.3495897764825031
 51
195.5277492430130906
  0
ARC
  5
1E4EF
  8
0
 10
4421.1324119397177128
 20
506.5123865828994099
 30
0.0
 40
0.342508320624695
 50
195.4600678530860023
 51
201.2267919995194063
  0
ARC
  5
1E4F0
  8
0
 10
4422.2450683334491259
 20
506.8201185681920151
 30
0.0
 40
1.4969359819712991
 50
181.6294777543405132
 51
195.4600678530860023
  0
ARC
  5
1E4F1
  8
0
 10
4430.3579930560872526
 20
507.0509103608189889
 30
0.0
 40
9.6131427564886298
 50
180.1791749213385003
 51
181.6294777543405132
  0
ARC
  5
1E4F2
  8
0
 10
4422.2111349042179427
 20
506.7877775269378162
 30
0.0
 40
1.462580147834551
 50
187.6967356619616965
 51
193.3968932024413903
  0
ARC
  5
1E4F3
  8
0
 10
4422.3976621692745539
 20
506.8129861813487764
 30
0.0
 40
1.650803145544949
 50
178.9871643776924088
 51
187.6967356619616965
  0
ARC
  5
1E4F4
  8
0
 10
4422.3553068116652867
 20
506.7924109111266944
 30
0.0
 40
1.6095922149198969
 50
180.7032924025631075
 51
191.8985598387714901
  0
ARC
  5
1E4F5
  8
0
 10
4422.3499284358913428
 20
506.7559731737453035
 30
0.0
 40
1.6041905572956709
 50
179.3864942724221976
 51
188.0562310592339088
  0
ARC
  5
1E4F6
  8
0
 10
4422.045144191439249
 20
506.7118531926537912
 30
0.0
 40
1.299268513394866
 50
181.9528418697748009
 51
187.6952118188808925
  0
ARC
  5
1E4F7
  8
0
 10
4417.8266529703141714
 20
506.5808872256234281
 30
0.0
 40
2.9212639008718821
 50
1.7005487816681251
 51
2.8508227433164262
  0
ARC
  5
1E4F8
  8
0
 10
4422.5714643199580678
 20
506.7148621433893823
 30
0.0
 40
1.8266653422419641
 50
181.9555779831796087
 51
183.6180791527941949
  0
ARC
  5
1E4F9
  8
0
 10
4420.2795555443481135
 20
506.6461227386927817
 30
0.0
 40
0.4663512987940863
 50
0.7869524859681972
 51
4.7553476924560707
  0
ARC
  5
1E4FA
  8
0
 10
4420.8454568239958462
 20
506.6152474315796894
 30
0.0
 40
0.0991431825016933
 50
182.7643200157775141
 51
191.4828233270928877
  0
ARC
  5
1E4FB
  8
0
 10
4419.5181931746583359
 20
506.563255507506824
 30
0.0
 40
1.2291428277012351
 50
2.2012300920301131
 51
4.026852214282969
  0
ARC
  5
1E4FC
  8
0
 10
4420.730154156073695
 20
506.5981829435870054
 30
0.0
 40
0.0183396384945045
 50
351.6213246715469722
 51
4.3990301099630997
  0
ARC
  5
1E4FD
  8
0
 10
4420.8139437914496739
 20
506.5435198702114121
 30
0.0
 40
0.056649182236054
 50
185.7170012997746937
 51
204.1788540554331064
  0
ARC
  5
1E4FE
  8
0
 10
4420.7195605657861961
 20
506.5230201835439061
 30
0.0
 40
0.0427892627200882
 50
356.3781487840316231
 51
10.9581106067419398
  0
ARC
  5
1E4FF
  8
0
 10
4420.8268178681082645
 20
506.4721706060295787
 30
0.0
 40
0.0479502951513415
 50
194.0302120152159944
 51
216.6573863966088993
  0
ARC
  5
1E500
  8
0
 10
4420.7787370301439296
 20
506.4462286054927063
 30
0.0
 40
0.0099822339642206
 50
344.3923749401577084
 51
15.5509375092945703
  0
ARC
  5
1E501
  8
0
 10
4420.8471765834792677
 20
506.4035183687159929
 30
0.0
 40
0.0372510449663428
 50
203.9817374958907124
 51
223.8317588615263105
  0
ARC
  5
1E502
  8
0
 10
4420.8166243814857808
 20
506.3811913194101066
 30
0.0
 40
0.0050587426432969
 50
316.6762205938799752
 51
20.7589791465266309
  0
ARC
  5
1E503
  8
0
 10
4420.8681069459371429
 20
506.3260232139132881
 30
0.0
 40
0.0131989594586977
 50
207.4844721036876933
 51
254.3692187890555942
  0
ARC
  5
1E504
  8
0
 10
4420.855595521489704
 20
506.3161927006082124
 30
0.0
 40
0.0094069478386457
 50
342.1701755200419939
 51
13.6169503293240801
  0
ARC
  5
1E505
  8
0
 10
4420.9394600278847065
 20
506.2902073537022147
 30
0.0
 40
0.0447646212373572
 50
207.672804012002814
 51
233.9288787421062921
  0
ARC
  5
1E506
  8
0
 10
4420.8915196233201641
 20
506.2502161777675838
 30
0.0
 40
0.0266184062533906
 50
12.4223140915363892
 51
29.4791421267156686
  0
ARC
  5
1E507
  8
0
 10
4420.9151214158719085
 20
506.2554150053900912
 30
0.0
 40
0.0024508159658316
 50
214.5608589265970068
 51
12.42231409150458
  0
ARC
  5
1E508
  8
0
 10
4420.9988213451160846
 20
506.2395489438101777
 30
0.0
 40
0.0481003881169232
 50
216.883412915988913
 51
237.8735609201528973
  0
ARC
  5
1E509
  8
0
 10
4420.9566403776580046
 20
506.1945610562582942
 30
0.0
 40
0.0232294936711016
 50
5.6028492656830506
 51
37.0952788931104109
  0
ARC
  5
1E50A
  8
0
 10
4420.9883732388170756
 20
506.2368032126731237
 30
0.0
 40
0.0408918579001106
 50
248.2825968784653128
 51
257.8388719036229872
  0
ARC
  5
1E50B
  8
0
 10
4421.0501001976490443
 20
506.1871311194659029
 30
0.0
 40
0.036311020906584
 50
222.0228163156286882
 51
253.4502892835467946
  0
ARC
  5
1E50C
  8
0
 10
4421.0360206663835925
 20
506.1577709772798244
 30
0.0
 40
0.0066050487679402
 50
304.4505493997223198
 51
34.4081632204516694
  0
ARC
  5
1E50D
  8
0
 10
4421.1144712288805749
 20
506.1466069617721928
 30
0.0
 40
0.0334353282651437
 50
227.3312007765507872
 51
256.3563137137243757
  0
ARC
  5
1E50E
  8
0
 10
4421.1068069455213845
 20
506.119375218301002
 30
0.0
 40
0.0052647933313526
 50
267.5773432517058836
 51
47.5086603789666313
  0
ARC
  5
1E50F
  8
0
 10
4421.1845619291279945
 20
506.1319806796083753
 30
0.0
 40
0.0485869036861621
 50
208.5450317848973896
 51
259.1654183486006104
  0
ARC
  5
1E510
  8
0
 10
4421.1768105992759956
 20
506.0883053991806833
 30
0.0
 40
0.0042749743688377
 50
251.1423015348165961
 51
26.4292315956218289
  0
ARC
  5
1E511
  8
0
 10
4421.2493471081188545
 20
506.1079737170285853
 30
0.0
 40
0.0468041530690449
 50
212.100103993117898
 51
272.537929194617675
  0
ARC
  5
1E512
  8
0
 10
4421.2514918966480764
 20
506.0671011228404836
 30
0.0
 40
0.0058860935940451
 50
269.2965370876224256
 51
21.8448392873350308
  0
ARC
  5
1E513
  8
0
 10
4421.3282290124316205
 20
506.0804465236456053
 30
0.0
 40
0.0378812532136017
 50
212.3905075244290117
 51
278.9790196735003747
  0
ARC
  5
1E514
  8
0
 10
4421.332953864681258
 20
506.0502017872461238
 30
0.0
 40
0.0072699246893254
 50
279.4001044144009143
 51
17.3651358362775987
  0
ARC
  5
1E515
  8
0
 10
4421.4093417273315936
 20
506.0636319066210831
 30
0.0
 40
0.0307226773356428
 50
212.7748678245370115
 51
289.7066348370706805
  0
ARC
  5
1E516
  8
0
 10
4421.4189786101869686
 20
506.040452527634784
 30
0.0
 40
0.0057892332529355
 50
277.1735859063263092
 51
39.5006634625067008
  0
ARC
  5
1E517
  8
0
 10
4419.7371853700024076
 20
506.8028007355122782
 30
0.0
 40
1.009100897797895
 50
358.2880446567799027
 51
3.5941023905649052
  0
ARC
  5
1E518
  8
0
 10
4424.298040286923424
 20
506.9886387410970769
 30
0.0
 40
3.552801325937164
 50
181.592151763998487
 51
182.5698003888340963
  0
ARC
  5
1E519
  8
0
 10
4421.6333152212673667
 20
506.649700671659275
 30
0.0
 40
0.5476571638556109
 50
350.8609276326462805
 51
359.5112682479689283
  0
ARC
  5
1E51A
  8
0
 10
4421.6091523906607108
 20
506.6541446111056075
 30
0.0
 40
0.5722193659051582
 50
338.7893574436802737
 51
350.8058855955936792
  0
ARC
  5
1E51B
  8
0
 10
4421.6055991873163293
 20
506.6555235672033746
 30
0.0
 40
0.576030766426494
 50
323.0845892740911154
 51
338.7893574436802737
  0
ARC
  5
1E51C
  8
0
 10
4421.525892248103446
 20
506.7154027610055209
 30
0.0
 40
0.6757238655307951
 50
304.5532205420337277
 51
323.0845892740911154
  0
ARC
  5
1E51D
  8
0
 10
4421.4627792844066789
 20
507.2391326301860204
 30
0.0
 40
0.8179720387035578
 50
287.4439740389548774
 51
289.9714349154697857
  0
ARC
  5
1E51E
  8
0
 10
4421.4627792844066789
 20
507.2391326301860204
 30
0.0
 40
0.8179720387035578
 50
280.888995660743376
 51
283.7224214058749112
  0
ARC
  5
1E51F
  8
0
 10
4421.4627792844066789
 20
507.2391326301860204
 30
0.0
 40
0.8179720387035578
 50
275.4539093592072732
 51
277.888023131011721
  0
ARC
  5
1E520
  8
0
 10
4421.5176864253471649
 20
507.120604244504193
 30
0.0
 40
0.687389787948183
 50
322.7477526022155985
 51
325.1386376638915863
  0
ARC
  5
1E521
  8
0
 10
4421.5176864253471649
 20
507.120604244504193
 30
0.0
 40
0.687389787948183
 50
315.1084412552162917
 51
319.1682556047841217
  0
ARC
  5
1E522
  8
0
 10
4421.5176864253471649
 20
507.120604244504193
 30
0.0
 40
0.687389787948183
 50
307.2512775034364836
 51
311.0312484038843763
  0
ARC
  5
1E523
  8
0
 10
4421.5176864253471649
 20
507.120604244504193
 30
0.0
 40
0.687389787948183
 50
300.1604237265183883
 51
303.7364123103852194
  0
ARC
  5
1E524
  8
0
 10
4421.5176853395669241
 20
507.1206064871752233
 30
0.0
 40
0.6873922793390437
 50
293.1944369910859791
 51
296.7135243631980757
  0
ARC
  5
1E525
  8
0
 10
4421.8510657900360457
 20
506.958288605194582
 30
0.0
 40
0.3139502858291632
 50
334.7867260547856176
 51
340.981968856806418
  0
ARC
  5
1E526
  8
0
 10
4421.6327051676862538
 20
507.0404813146067227
 30
0.0
 40
0.5472149150765709
 50
329.4198174115975917
 51
332.6308402492978757
  0
ARC
  5
1E527
  8
0
 10
4421.5901947323272907
 20
507.0523846908441215
 30
0.0
 40
0.5913604412410102
 50
356.1287230769802932
 51
358.3481558987509743
  0
ARC
  5
1E528
  8
0
 10
4421.5901946930898703
 20
507.0523846969074953
 30
0.0
 40
0.5913604809378771
 50
350.2436174999672858
 51
354.1308688480391993
  0
ARC
  5
1E529
  8
0
 10
4421.5901947323272907
 20
507.0523846908441215
 30
0.0
 40
0.5913604412410102
 50
344.3571857056311956
 51
347.1230111592316234
  0
ARC
  5
1E52A
  8
0
 10
4421.6211849558376343
 20
507.0593510856846251
 30
0.0
 40
0.5601321629210744
 50
338.8458660838057881
 51
359.6997610363553122
  0
ARC
  5
1E52B
  8
0
 10
4421.5835499105587587
 20
507.0749893466090725
 30
0.0
 40
0.600875437846474
 50
318.2962591121666946
 51
338.7502470201051779
  0
ARC
  5
1E52C
  8
0
 10
4421.5140944899021633
 20
507.1368800042143903
 30
0.0
 40
0.6939050511823025
 50
299.5859219639497724
 51
318.2962591121666946
  0
ARC
  5
1E52D
  8
0
 10
4421.5643536993402449
 20
506.4278096082355205
 30
0.0
 40
0.0551761460238448
 50
175.3107404654763002
 51
185.5302421966702013
  0
ARC
  5
1E52E
  8
0
 10
4421.6673640534718288
 20
506.2878654364860154
 30
0.0
 40
0.2075238664095183
 50
139.5541454839562903
 51
144.8915537761789096
  0
ARC
  5
1E52F
  8
0
 10
4421.4430094089348131
 20
506.4455939361037053
 30
0.0
 40
0.0667265412779624
 50
287.2579921052621899
 51
324.8915537761789096
  0
ARC
  5
1E530
  8
0
 10
4415.4847927280334261
 20
511.5073952273040163
 30
0.0
 40
7.9059800146088159
 50
319.124914666646589
 51
319.9932737927173889
  0
ARC
  5
1E531
  8
0
 10
4421.4848783366442149
 20
506.4190269987220177
 30
0.0
 40
0.0559503526673244
 50
5.9411910629517442
 51
16.0536949675637786
  0
ARC
  5
1E532
  8
0
 10
4421.6143724968287643
 20
506.4372474050176152
 30
0.0
 40
0.0402126832124244
 50
178.0722384572048043
 51
191.9805051748022038
  0
ARC
  5
1E533
  8
0
 10
4417.8900204405863406
 20
509.372845746524888
 30
0.0
 40
4.7165828233777889
 50
319.2438043995720136
 51
321.3787663991994918
  0
ARC
  5
1E534
  8
0
 10
4421.5765757985927848
 20
506.4266217775127075
 30
0.0
 40
0.0417649403561665
 50
12.8188949260061609
 51
26.3543352265940385
  0
ARC
  5
1E535
  8
0
 10
4421.6881835600615887
 20
506.4557260001698751
 30
0.0
 40
0.0333118404877805
 50
182.8594535027193047
 51
199.6785341029111009
  0
ARC
  5
1E536
  8
0
 10
4421.6745613707316807
 20
506.4457745014818784
 30
0.0
 40
0.0358645568368202
 50
21.2594379657035404
 51
37.2163793733013009
  0
ARC
  5
1E537
  8
0
 10
4421.7742301453790787
 20
506.4871546273917033
 30
0.0
 40
0.0362066928460191
 50
192.1738205707760017
 51
207.6522438199066016
  0
ARC
  5
1E538
  8
0
 10
4421.7537772999357912
 20
506.4698054463563039
 30
0.0
 40
0.0394927312054334
 50
28.70476096280942
 51
43.258149484800299
  0
ARC
  5
1E539
  8
0
 10
4421.8630047379392636
 20
506.5330964096551725
 30
0.0
 40
0.0449647160013719
 50
203.641961887173693
 51
216.1324134955908107
  0
ARC
  5
1E53A
  8
0
 10
4421.8235791221432009
 20
506.4977415914269159
 30
0.0
 40
0.0486998075996208
 50
35.8623402337008983
 51
47.1563613785833198
  0
ARC
  5
1E53B
  8
0
 10
4421.9326510710188813
 20
506.5804225782051162
 30
0.0
 40
0.0457379936769269
 50
212.0663843640228947
 51
223.4458784850831137
  0
ARC
  5
1E53C
  8
0
 10
4421.8977676908252761
 20
506.5392727399229216
 30
0.0
 40
0.0496422502965235
 50
43.5090127069477788
 51
53.7286276825184927
  0
ARC
  5
1E53D
  8
0
 10
4421.9950831494988961
 20
506.6338350598052784
 30
0.0
 40
0.0411408698884645
 50
219.1161047853790933
 51
230.5419193479735895
  0
ARC
  5
1E53E
  8
0
 10
4421.9770140079453995
 20
506.6002333024582072
 30
0.0
 40
0.0447874067286455
 50
51.8771869501857879
 51
61.8157890258271721
  0
ARC
  5
1E53F
  8
0
 10
4422.063722795229296
 20
506.7128735236644843
 30
0.0
 40
0.0491173001664274
 50
230.0145453998337075
 51
238.1286217586236944
  0
ARC
  5
1E540
  8
0
 10
4422.0381928376291398
 20
506.6592245574594813
 30
0.0
 40
0.0525404459702268
 50
59.532112922998877
 51
66.7381492385439543
  0
ARC
  5
1E541
  8
0
 10
4422.1048589871643344
 20
506.7759942868922849
 30
0.0
 40
0.0535557671316899
 50
237.5119590883093963
 51
244.3967172036336137
  0
ARC
  5
1E542
  8
0
 10
4422.0797957330278223
 20
506.7113961036018281
 30
0.0
 40
0.0560944500719742
 50
64.650026520241326
 51
71.0973162738041822
  0
ARC
  5
1E543
  8
0
 10
4422.1376360608874165
 20
506.8427172911603975
 30
0.0
 40
0.057048819260647
 50
244.6102791537315966
 51
250.5784978019553932
  0
ARC
  5
1E544
  8
0
 10
4422.1155805929211056
 20
506.7687603546239075
 30
0.0
 40
0.0591069006120263
 50
70.711039508379713
 51
75.4795218169692674
  0
ARC
  5
1E545
  8
0
 10
4422.1618609506904249
 20
506.9131714339907262
 30
0.0
 40
0.0588727643345787
 50
251.9009373998219132
 51
256.2617330366367128
  0
ARC
  5
1E546
  8
0
 10
4422.1456453782420795
 20
506.834270015024174
 30
0.0
 40
0.0603095865924503
 50
76.5707181725037032
 51
79.8400946303696202
  0
ARC
  5
1E547
  8
0
 10
4422.177763386685001
 20
506.9913285473458018
 30
0.0
 40
0.0715962461049897
 50
258.9313280126772838
 51
261.0969335933631896
  0
ARC
  5
1E548
  8
0
 10
4422.1626803900790037
 20
506.8807709972425073
 30
0.0
 40
0.0721444035353893
 50
81.7741870468254746
 51
83.3601222795227415
  0
ARC
  5
1E549
  8
0
 10
4422.1829702833201736
 20
507.0740689068177858
 30
0.0
 40
0.0822787015454209
 50
265.9553918626472182
 51
266.8543520044673869
  0
ARC
  5
1E54A
  8
0
 10
4422.1764641483596279
 20
506.9389421145900769
 30
0.0
 40
0.0813030256259558
 50
87.0310569785529538
 51
87.6727807223213205
  0
ARC
  5
1E54B
  8
0
 10
4436.485547295285869
 20
494.2324380961413794
 30
0.0
 40
19.2350975366168591
 50
140.6217886113749103
 51
141.298505508819801
  0
ARC
  5
1E54C
  8
0
 10
4416.064220683102576
 20
510.7565452298871946
 30
0.0
 40
7.0619258776815821
 50
319.9594439227162752
 51
322.3668463834771956
  0
ARC
  5
1E54D
  8
0
 10
4419.9277472032381411
 20
507.5620227978129719
 30
0.0
 40
2.0943722620240979
 50
318.0823926235103158
 51
328.2127938553645095
  0
ARC
  5
1E54E
  8
0
 10
4419.6940981551852019
 20
507.7087821567010906
 30
0.0
 40
2.3933793811597108
 50
318.298485419676183
 51
328.8392849784183909
  0
ARC
  5
1E54F
  8
0
 10
4419.674304292610941
 20
507.7140512179540224
 30
0.0
 40
2.443517142962135
 50
317.4164356193787739
 51
329.9046758898551843
  0
ARC
  5
1E550
  8
0
 10
4417.8243773829981365
 20
508.9701189583852852
 30
0.0
 40
4.699734692566091
 50
321.4948538692584066
 51
328.3865241445067795
  0
ARC
  5
1E551
  8
0
 10
4419.3273004201073491
 20
507.8772463654851776
 30
0.0
 40
2.873176211957416
 50
320.4306773566274842
 51
331.9525613241465862
  0
ARC
  5
1E552
  8
0
 10
4419.868606393745722
 20
507.4845529266629001
 30
0.0
 40
2.2359824610055239
 50
320.1697324498563262
 51
335.2650349233938982
  0
ARC
  5
1E553
  8
0
 10
4419.7783640605175606
 20
507.5047719391974965
 30
0.0
 40
2.3480081247924751
 50
322.0297291444845769
 51
336.6314880977877806
  0
ARC
  5
1E554
  8
0
 10
4420.0405388223252885
 20
507.3379321062495251
 30
0.0
 40
2.0640285528935691
 50
322.0740118887018184
 51
339.1135468962256141
  0
ARC
  5
1E555
  8
0
 10
4419.9852868170937654
 20
507.3394481228273207
 30
0.0
 40
2.1385676057794298
 50
324.0222629928630909
 51
340.780778688552914
  0
ARC
  5
1E556
  8
0
 10
4420.2808967131595637
 20
507.1924115066473746
 30
0.0
 40
1.832585409200568
 50
323.0263843327359723
 51
343.4749632807208855
  0
ARC
  5
1E557
  8
0
 10
4420.4450046182873848
 20
507.1046360454553792
 30
0.0
 40
1.6685165191898239
 50
323.3545811421129201
 51
346.1247008181337037
  0
ARC
  5
1E558
  8
0
 10
4420.4790715514491239
 20
507.0732677916719808
 30
0.0
 40
1.6394775754296991
 50
324.5874828495689144
 51
347.8318827949257184
  0
ARC
  5
1E559
  8
0
 10
4420.5271921707781075
 20
507.0501994822016059
 30
0.0
 40
1.602728537696299
 50
324.6111165472917719
 51
349.6440806940094035
  0
ARC
  5
1E55A
  8
0
 10
4420.4411007449916724
 20
507.0584482798901149
 30
0.0
 40
1.6990806699305641
 50
328.1363160335375824
 51
350.8723260719377208
  0
ARC
  5
1E55B
  8
0
 10
4420.4715578647937946
 20
507.0375953510290969
 30
0.0
 40
1.677134297964072
 50
328.5612215929024842
 51
352.7020089604201871
  0
ARC
  5
1E55C
  8
0
 10
4420.5250049004744142
 20
506.9970908076995784
 30
0.0
 40
1.628997599063982
 50
331.0496387633573931
 51
355.0306690323299108
  0
ARC
  5
1E55D
  8
0
 10
4420.5564600486350173
 20
506.9808981152958154
 30
0.0
 40
1.605603517614836
 50
331.3337636845503766
 51
356.8593157380560115
  0
ARC
  5
1E55E
  8
0
 10
4420.4359979264354479
 20
506.9836405960408001
 30
0.0
 40
1.7318329300595909
 50
335.4219559125060073
 51
357.9137425571333893
  0
ARC
  5
1E55F
  8
0
 10
4420.4925245509648448
 20
506.9572498007451031
 30
0.0
 40
1.6804855557810841
 50
335.838780303860176
 51
359.826913145917672
  0
ARC
  5
1E560
  8
0
 10
4419.354359993183607
 20
507.0596855773515017
 30
0.0
 40
2.8249083580066001
 50
350.3696108061578229
 51
358.625304864993609
  0
ARC
  5
1E561
  8
0
 10
4420.9517231110366993
 20
506.7886402858915176
 30
0.0
 40
1.2047125425893781
 50
337.0250964760542161
 51
350.3696108061578229
  0
ARC
  5
1E562
  8
0
 10
4421.9397246875423662
 20
506.399741657501977
 30
0.0
 40
0.1521082458273096
 50
328.3525366476985141
 51
342.7225279688004775
  0
ARC
  5
1E563
  8
0
 10
4420.9213174966253064
 20
506.7903167202928785
 30
0.0
 40
1.2425638489344131
 50
339.4706522599552727
 51
350.6645894461996136
  0
ARC
  5
1E564
  8
0
 10
4419.4167564490553559
 20
507.0131442822868735
 30
0.0
 40
2.7634494730336039
 50
351.1660141849064871
 51
359.9857899519939792
  0
ARC
  5
1E565
  8
0
 10
4424.6891811874729683
 20
505.6120436281703974
 30
0.0
 40
2.6974407078325928
 50
162.5059210394396132
 51
163.3930564340415117
  0
ARC
  5
1E566
  8
0
 10
4420.5126044159142111
 20
506.8685507711281275
 30
0.0
 40
1.6646564769344541
 50
344.4722507569869094
 51
358.6504102235174969
  0
ARC
  5
1E567
  8
0
 10
4421.7931990429196958
 20
506.5123865828994099
 30
0.0
 40
0.342508320624695
 50
338.7732080004806221
 51
344.539932146913884
  0
ARC
  5
1E568
  8
0
 10
4420.6805426491891922
 20
506.8201185681920151
 30
0.0
 40
1.4969359819712991
 50
344.539932146913884
 51
358.3705222456594015
  0
ARC
  5
1E569
  8
0
 10
4412.5676179265510655
 20
507.0509103608189889
 30
0.0
 40
9.6131427564886298
 50
358.3705222456594015
 51
359.8208250786614144
  0
ARC
  5
1E56A
  8
0
 10
4420.7144760784203754
 20
506.7877775269378162
 30
0.0
 40
1.462580147834551
 50
346.6031067975586097
 51
352.3032643380382751
  0
ARC
  5
1E56B
  8
0
 10
4420.5279488133619452
 20
506.8129861813487764
 30
0.0
 40
1.650803145544949
 50
352.3032643380382751
 51
1.012835622307549
  0
ARC
  5
1E56C
  8
0
 10
4420.5703041709730314
 20
506.7924109111266944
 30
0.0
 40
1.6095922149198969
 50
348.1014401612284246
 51
359.2967075974369209
  0
ARC
  5
1E56D
  8
0
 10
4420.5756825467460658
 20
506.7559731737453035
 30
0.0
 40
1.6041905572956709
 50
351.9437689407661196
 51
0.6135057275777807
  0
ARC
  5
1E56E
  8
0
 10
4420.8804667911981596
 20
506.7118531926537912
 30
0.0
 40
1.299268513394866
 50
352.3047881811190223
 51
358.0471581302252275
  0
ARC
  5
1E56F
  8
0
 10
4424.3977002151059423
 20
506.6051229366357234
 30
0.0
 40
2.2195983664690639
 50
176.919356264947794
 51
178.3875952917908023
  0
ARC
  5
1E570
  8
0
 10
4420.3541466626793408
 20
506.7148621433893823
 30
0.0
 40
1.8266653422419641
 50
356.3819208472057767
 51
358.0444220168204197
  0
ARC
  5
1E571
  8
0
 10
4423.3564843286421819
 20
506.6240637336484269
 30
0.0
 40
1.177080410759759
 50
176.7393901119642123
 51
178.6143413499528947
  0
ARC
  5
1E572
  8
0
 10
4422.0801541586406529
 20
506.6152474315796894
 30
0.0
 40
0.0991431825016933
 50
348.5171766729071123
 51
357.2356799842223722
  0
ARC
  5
1E573
  8
0
 10
4423.7590606867042879
 20
506.5468643731981047
 30
0.0
 40
1.5811584073225049
 50
176.2379590462047929
 51
177.6946731767430094
  0
ARC
  5
1E574
  8
0
 10
4422.1954568265628041
 20
506.5981829435870054
 30
0.0
 40
0.0183396384945045
 50
175.6009698900369074
 51
188.3786753284529141
  0
ARC
  5
1E575
  8
0
 10
4422.1116671911877347
 20
506.5435198702114121
 30
0.0
 40
0.056649182236054
 50
335.821145944566922
 51
354.2829987002252778
  0
ARC
  5
1E576
  8
0
 10
4422.206050416852122
 20
506.5230201835439061
 30
0.0
 40
0.0427892627200882
 50
169.0418893932580033
 51
183.6218512159682916
  0
ARC
  5
1E577
  8
0
 10
4422.0987931145300536
 20
506.4721706060295787
 30
0.0
 40
0.0479502951513415
 50
323.342613603390987
 51
345.9697879847839772
  0
ARC
  5
1E578
  8
0
 10
4422.1468739524943885
 20
506.4462286054927063
 30
0.0
 40
0.0099822339642206
 50
164.4490624907053871
 51
195.6076250598422916
  0
ARC
  5
1E579
  8
0
 10
4422.0784343991590504
 20
506.4035183687159929
 30
0.0
 40
0.0372510449663428
 50
316.1682411384737179
 51
336.0182625041093161
  0
ARC
  5
1E57A
  8
0
 10
4422.1089866011516278
 20
506.3811913194101066
 30
0.0
 40
0.0050587426432969
 50
159.2410208534734011
 51
223.32377940612011
  0
ARC
  5
1E57B
  8
0
 10
4422.0575040367020847
 20
506.3260232139132881
 30
0.0
 40
0.0131989594586977
 50
285.6307812109444058
 51
332.5155278963065939
  0
ARC
  5
1E57C
  8
0
 10
4422.0700154611477046
 20
506.3161927006082124
 30
0.0
 40
0.0094069478386457
 50
166.3830496706758879
 51
197.8298244799578924
  0
ARC
  5
1E57D
  8
0
 10
4421.9861509547527021
 20
506.2902073537022147
 30
0.0
 40
0.0447646212373572
 50
306.0711212578937079
 51
332.327195987997186
  0
ARC
  5
1E57E
  8
0
 10
4422.034091359318154
 20
506.2502161777675838
 30
0.0
 40
0.0266184062533906
 50
150.5208578732843137
 51
167.577685908463593
  0
ARC
  5
1E57F
  8
0
 10
4422.0104895667645906
 20
506.2554150053900912
 30
0.0
 40
0.0024508159658316
 50
167.5776859084953969
 51
325.4391410734028796
  0
ARC
  5
1E580
  8
0
 10
4421.9267896375222335
 20
506.2395489438101777
 30
0.0
 40
0.0481003881169232
 50
302.126439079846989
 51
323.1165870840109733
  0
ARC
  5
1E581
  8
0
 10
4421.9689706049803135
 20
506.1945610562582942
 30
0.0
 40
0.0232294936711016
 50
142.9047211068896104
 51
174.3971507343169094
  0
ARC
  5
1E582
  8
0
 10
4421.9372377438212425
 20
506.2368032126731237
 30
0.0
 40
0.0408918579001106
 50
282.1611280963771264
 51
291.7174031215346872
  0
ARC
  5
1E583
  8
0
 10
4421.8755107849892738
 20
506.1871311194659029
 30
0.0
 40
0.036311020906584
 50
286.5497107164530917
 51
317.9771836843713118
  0
ARC
  5
1E584
  8
0
 10
4421.8895903162529066
 20
506.1577709772798244
 30
0.0
 40
0.0066050487679402
 50
145.591836779548288
 51
235.5494506002777086
  0
ARC
  5
1E585
  8
0
 10
4421.8111397537568337
 20
506.1466069617721928
 30
0.0
 40
0.0334353282651437
 50
283.6436862862756243
 51
312.6687992234491844
  0
ARC
  5
1E586
  8
0
 10
4421.8188040371178431
 20
506.119375218301002
 30
0.0
 40
0.0052647933313526
 50
132.4913396210334042
 51
272.4226567482941164
  0
ARC
  5
1E587
  8
0
 10
4421.7410490535103236
 20
506.1319806796083753
 30
0.0
 40
0.0485869036861621
 50
280.8345816513992759
 51
331.4549682151024967
  0
ARC
  5
1E588
  8
0
 10
4421.748800383361413
 20
506.0883053991806833
 30
0.0
 40
0.0042749743688377
 50
153.5707684043782137
 51
288.8576984651833754
  0
ARC
  5
1E589
  8
0
 10
4421.6762638745185541
 20
506.1079737170285853
 30
0.0
 40
0.0468041530690449
 50
267.462070805382325
 51
327.8998960068819883
  0
ARC
  5
1E58A
  8
0
 10
4421.6741190859911512
 20
506.0671011228404836
 30
0.0
 40
0.0058860935940451
 50
158.1551607126648946
 51
270.7034629123775176
  0
ARC
  5
1E58B
  8
0
 10
4421.5973819702048786
 20
506.0804465236456053
 30
0.0
 40
0.0378812532136017
 50
261.0209803264996253
 51
327.6094924755710167
  0
ARC
  5
1E58C
  8
0
 10
4421.5926571179570601
 20
506.0502017872461238
 30
0.0
 40
0.0072699246893254
 50
162.6348641637223977
 51
260.5998955855990857
  0
ARC
  5
1E58D
  8
0
 10
4421.5162692553049055
 20
506.0636319066210831
 30
0.0
 40
0.0307226773356428
 50
250.293365162929291
 51
327.2251321754629885
  0
ARC
  5
1E58E
  8
0
 10
4421.5066323724513495
 20
506.040452527634784
 30
0.0
 40
0.0057892332529355
 50
140.4993365374932921
 51
262.8264140936736908
  0
ARC
  5
1E58F
  8
0
 10
4423.0322501894788729
 20
506.8015243863043224
 30
0.0
 40
0.8529637894560647
 50
176.0530721164026886
 51
181.9396664156626002
  0
ARC
  5
1E590
  8
0
 10
4428.1618845116654484
 20
506.6014695168245225
 30
0.0
 40
5.9894218316949903
 50
177.2395847473528079
 51
177.8195917253956111
  0
ARC
  5
1E591
  8
0
 10
4421.4628054913182496
 20
506.1343273663201785
 30
0.0
 40
0.0254441863931163
 50
224.2071078440465897
 51
315.7928921559533819
  0
ARC
  5
1E592
  8
0
 10
4421.4628054913182496
 20
506.0699210561393215
 30
0.0
 40
0.0141385779697441
 50
221.1941615502813931
 51
318.8058384497136899
  0
ARC
  5
1E593
  8
0
 10
4421.4628054913182496
 20
506.2208025437769265
 30
0.0
 40
0.0108635439717738
 50
222.9634697141395066
 51
317.0365302859150916
  0
ARC
  5
1E594
  8
0
 10
4421.4628054913182496
 20
506.2688665852352869
 30
0.0
 40
0.0147973481240009
 50
219.6063771173556063
 51
320.393622882659372
  0
ARC
  5
1E595
  8
0
 10
4421.4628054913691813
 20
515.8795860490608902
 30
0.0
 40
2.3622047244000011
 50
22.5403104629917017
 51
157.4596895370083018
  0
ARC
  5
1E596
  8
0
 10
4421.4628054913691813
 20
515.8795860490608902
 30
0.0
 40
2.3622047244000011
 50
202.5403104629916982
 51
252.2919643897822937
  0
ARC
  5
1E597
  8
0
 10
4421.4628054913691813
 20
515.8795860490608902
 30
0.0
 40
2.3622047244000011
 50
287.7080356102176779
 51
337.4596895370082734
  0
LINE
  5
1E598
  8
0
 10
4417.5651676960687837
 20
516.7850978600608869
 30
0.0
 11
4424.6124117905692401
 21
516.7850978600608869
 31
0.0
  0
LINE
  5
1E599
  8
0
 10
4424.6124117905692401
 20
516.7850978600608869
 30
0.0
 11
4424.6124117905692401
 21
514.9740742380607799
 31
0.0
  0
LINE
  5
1E59A
  8
0
 10
4424.6124117905692401
 20
514.9740742380607799
 30
0.0
 11
4422.181309428368877
 21
514.9740742380607799
 31
0.0
  0
LINE
  5
1E59B
  8
0
 10
4420.744301554368576
 20
514.9740742380607799
 30
0.0
 11
4417.5651676960687837
 21
514.9740742380607799
 31
0.0
  0
ARC
  5
1E59C
  8
0
 10
4417.5651676960687837
 20
515.0134443167607969
 30
0.0
 40
0.0393700787000029
 50
180.0
 51
270.0
  0
LINE
  5
1E59D
  8
0
 10
4417.5257976173679708
 20
515.0134443167607969
 30
0.0
 11
4417.5257976173679708
 21
515.5449401135058451
 31
0.0
  0
ARC
  5
1E59E
  8
0
 10
4417.5454829230247924
 20
515.5449401135058451
 30
0.0
 40
0.0196853056568543
 50
90.0007752546103319
 51
180.0
  0
ARC
  5
1E59F
  8
0
 10
4417.6630000803233997
 20
-8169.6498404811381988
 30
0.0
 40
8685.2144666953463457
 50
89.9992143810862046
 51
90.0007752546103319
  0
ARC
  5
1E5A0
  8
0
 10
4417.7820883162366954
 20
515.5450047218561167
 30
0.0
 40
0.0196206759066057
 50
54.7173610696688968
 51
89.9992143810862046
  0
ARC
  5
1E5A1
  8
0
 10
4418.0164679783465544
 20
515.8795860494309409
 30
0.0
 40
0.3888871928213084
 50
235.0017936557318023
 51
124.9982065601041938
  0
ARC
  5
1E5A2
  8
0
 10
4417.7820875095176234
 20
516.2141685144446228
 30
0.0
 40
0.0196220703743276
 50
269.7196513363837767
 51
305.2826391461618982
  0
LINE
  5
1E5A3
  8
0
 10
4417.7819914989686367
 20
516.1945466789609327
 30
0.0
 11
4417.5454854878544211
 21
516.1945466789609327
 31
0.0
  0
ARC
  5
1E5A4
  8
0
 10
4417.5454826566301563
 20
516.2142317182219813
 30
0.0
 40
0.0196850392610912
 50
180.0000013420462892
 51
270.000000113235501
  0
ARC
  5
1E5A5
  8
0
 10
4417.5651676960687837
 20
516.7457277813608698
 30
0.0
 40
0.0393700787000171
 50
90.0
 51
179.999999999980389
  0
LINE
  5
1E5A6
  8
0
 10
4417.5257976173679708
 20
516.7457277813608698
 30
0.0
 11
4417.5257976173679708
 21
516.2142319845884231
 31
0.0
  0
ARC
  5
1E5A7
  8
0
 10
4418.0192646906143636
 20
515.8795847896559508
 30
0.0
 40
0.4479425618278239
 50
225.678562039260612
 51
134.3001798720999034
  0
ARC
  5
1E5A8
  8
0
 10
4417.691249419450287
 20
515.5426752168009443
 30
0.0
 40
0.0222834678525611
 50
47.5316734848519715
 51
80.0893298996910659
  0
ARC
  5
1E5A9
  8
0
 10
4417.6920936977312522
 20
516.2153081823413459
 30
0.0
 40
0.02083593919958
 50
274.8445277993043874
 51
313.4149310930055776
  0
LINE
  5
1E5AA
  8
0
 10
4424.6439078535686349
 20
516.7850899976607479
 30
0.0
 11
4424.6439078535686349
 21
514.9740821004609188
 31
0.0
  0
LINE
  5
1E5AB
  8
0
 10
4424.6439078535686349
 20
514.9740821004609188
 30
0.0
 11
4425.5032001088693505
 21
514.9740742380607799
 31
0.0
  0
ARC
  5
1E5AC
  8
0
 10
4425.5032002889811338
 20
514.9937588701832283
 30
0.0
 40
0.019684632123173
 50
269.9994757519235122
 51
317.726835220140174
  0
LINE
  5
1E5AD
  8
0
 10
4425.5177658582688309
 20
514.9805176869607521
 30
0.0
 11
4425.5849088386930816
 21
515.0543763230959939
 31
0.0
  0
ARC
  5
1E5AE
  8
0
 10
4425.5703406997490674
 20
515.0676198423259393
 30
0.0
 40
0.019688104883059
 50
317.726835220140174
 51
359.9925992423924868
  0
LINE
  5
1E5AF
  8
0
 10
4425.5900288044686022
 20
515.0676172992607462
 30
0.0
 11
4425.5900288044686022
 21
516.6915547989608513
 31
0.0
  0
ARC
  5
1E5B0
  8
0
 10
4425.5703437664860758
 20
516.6915547994880171
 30
0.0
 40
0.0196850378886382
 50
359.9986814074420067
 51
42.27369072256392
  0
LINE
  5
1E5B1
  8
0
 10
4425.5849095144685634
 20
516.7047963893609221
 30
0.0
 11
4425.5177658560660348
 21
516.7786544091584346
 31
0.0
  0
ARC
  5
1E5B2
  8
0
 10
4425.5032001015579226
 20
516.7654128133533504
 30
0.0
 40
0.0196850467074689
 50
42.27369072256392
 51
89.999978718868519
  0
LINE
  5
1E5B3
  8
0
 10
4425.5032001088693505
 20
516.7850978600608869
 30
0.0
 11
4424.6439078535686349
 21
516.7850981792239509
 31
0.0
  0
LINE
  5
1E5B4
  8
0
 10
4424.6439078535686349
 20
516.7752553404609444
 30
0.0
 11
4424.6124117905692401
 21
516.7752553404609444
 31
0.0
  0
LINE
  5
1E5B5
  8
0
 10
4424.6124117905692401
 20
514.9839167577607668
 30
0.0
 11
4424.6439078535686349
 21
514.9839167577607668
 31
0.0
  0
ARC
  5
1E5B6
  8
0
 10
4425.6097138437680769
 20
516.5933572347609015
 30
0.0
 40
0.0196850393999899
 50
179.9999999999608917
 51
270.0000000000521254
  0
LINE
  5
1E5B7
  8
0
 10
4425.6097138437680769
 20
516.5736721953609276
 30
0.0
 11
4425.6756197464701472
 21
516.5736721953609276
 31
0.0
  0
ARC
  5
1E5B8
  8
0
 10
4425.6756197464701472
 20
516.5539871561910559
 30
0.0
 40
0.0196850391697439
 50
44.9999995260538768
 51
90.0000000000521254
  0
LINE
  5
1E5B9
  8
0
 10
4425.6895391712678247
 20
516.5679065807609049
 30
0.0
 11
4425.740504443348982
 21
516.5169413078369871
 31
0.0
  0
ARC
  5
1E5BA
  8
0
 10
4425.726584868179998
 20
516.5030217823532439
 30
0.0
 40
0.0196852168542086
 50
0.0002942838269937
 51
44.9998977410631298
  0
LINE
  5
1E5BB
  8
0
 10
4425.7462700850337569
 20
516.5030218834607467
 30
0.0
 11
4425.7462700850337569
 21
515.25615021466092
 31
0.0
  0
ARC
  5
1E5BC
  8
0
 10
4425.7265857384327319
 20
515.2561499544526669
 30
0.0
 40
0.0196843466020251
 50
314.9990547600443733
 51
0.0007573949178594
  0
LINE
  5
1E5BD
  8
0
 10
4425.7405044437682591
 20
515.2422307898608551
 30
0.0
 11
4425.6895385656662256
 21
515.1912661229722517
 31
0.0
  0
ARC
  5
1E5BE
  8
0
 10
4425.6756174446027217
 20
515.2051875748802559
 30
0.0
 40
0.01968767215401
 50
270.0066989736495202
 51
314.9993191684141038
  0
LINE
  5
1E5BF
  8
0
 10
4425.6756197464701472
 20
515.1854999028608972
 30
0.0
 11
4425.6097138442191863
 21
515.1854921971988688
 31
0.0
  0
ARC
  5
1E5C0
  8
0
 10
4425.6097161460465941
 20
515.1658048532107159
 30
0.0
 40
0.0196873441228588
 50
90.0066989736494776
 51
179.9708673191329922
  0
CIRCLE
  5
1E5C1
  8
0
 10
4426.4943018503690837
 20
515.8795869788607433
 30
0.0
 40
0.4735009298000081
  0
LINE
  5
1E5C2
  8
0
 10
4425.7462700850337569
 20
516.3530860490608347
 30
0.0
 11
4426.4929748080921854
 21
516.3530860490608347
 31
0.0
  0
LINE
  5
1E5C3
  8
0
 10
4425.7462700850337569
 20
515.4060860490609457
 30
0.0
 11
4426.4943017461628187
 21
515.406086049060832
 31
0.0
  0
CIRCLE
  5
1E5C4
  8
0
 10
4426.494301554368576
 20
515.8795869008607724
 30
0.0
 40
0.3883575859000066
  0
LINE
  5
1E5C5
  8
0
 10
4425.6895391712678247
 20
516.5679065807609049
 30
0.0
 11
4425.6895391712678247
 21
515.1912667285881753
 31
0.0
  0
LINE
  5
1E5C6
  8
0
 10
4425.5177658582688309
 20
516.7786544067355408
 30
0.0
 11
4425.5177658582688309
 21
514.9805176869607521
 31
0.0
  0
LINE
  5
1E5C7
  8
0
 10
4420.744301554368576
 20
506.6495708137557017
 30
0.0
 11
4420.744301554368576
 21
515.5572378793507369
 31
0.0
  0
LINE
  5
1E5C8
  8
0
 10
4422.181309428368877
 20
506.6506086543275842
 30
0.0
 11
4422.181309428368877
 21
515.5572378793507369
 31
0.0
  0
CIRCLE
  5
1E5C9
  8
0
 10
4421.4628054913691813
 20
515.8795860490608902
 30
0.0
 40
0.7874999999999988
  0
CIRCLE
  5
1E5CA
  8
0
 10
4421.4628054913182496
 20
515.8795860490608902
 30
0.0
 40
0.6733578643499998
  0
ENDSEC
  0
EOF
