  0
SECTION
  2
HEADER
  9
$ACADVER
  1
AC1009
  9
$INSBASE
 10
4446.9596893989182718
 20
459.0091397652111027
 30
0.0
  9
$EXTMIN
 10
4436.8977735355683762
 20
458.9947595597973873
 30
-0.0015258207003583
  9
$EXTMAX
 10
4449.4576521590288394
 20
496.289550283284882
 30
0.0000000349246037
  9
$LIMMIN
 10
0.0
 20
0.0
  9
$LIMMAX
 10
11.6929133858000007
 20
8.2677165353999982
  9
$ORTHOMODE
 70
     1
  9
$REGENMODE
 70
     1
  9
$FILLMODE
 70
     1
  9
$QTEXTMODE
 70
     0
  9
$MIRRTEXT
 70
     0
  9
$DRAGMODE
 70
     2
  9
$LTSCALE
 40
0.6431102362
  9
$OSMODE
 70
  2039
  9
$ATTMODE
 70
     1
  9
$TEXTSIZE
 40
0.2
  9
$TRACEWID
 40
0.05
  9
$TEXTSTYLE
  7
STANDARD
  9
$CLAYER
  8
0
  9
$CELTYPE
  6
BYLAYER
  9
$CECOLOR
 62
   256
  9
$DIMSCALE
 40
1.0
  9
$DIMASZ
 40
0.1875
  9
$DIMEXO
 40
0.0625
  9
$DIMDLI
 40
0.4443307087
  9
$DIMRND
 40
0.0
  9
$DIMDLE
 40
0.0
  9
$DIMEXE
 40
0.125
  9
$DIMTP
 40
0.01
  9
$DIMTM
 40
0.01
  9
$DIMTXT
 40
2.0
  9
$DIMCEN
 40
0.1052362205
  9
$DIMTSZ
 40
0.0
  9
$DIMTOL
 70
     1
  9
$DIMLIM
 70
     0
  9
$DIMTIH
 70
     1
  9
$DIMTOH
 70
     1
  9
$DIMSE1
 70
     0
  9
$DIMSE2
 70
     0
  9
$DIMTAD
 70
     0
  9
$DIMZIN
 70
     0
  9
$DIMBLK
  1

  9
$DIMASO
 70
     1
  9
$DIMSHO
 70
     1
  9
$DIMPOST
  1
\X
  9
$DIMAPOST
  1

  9
$DIMALT
 70
     1
  9
$DIMALTD
 70
     2
  9
$DIMALTF
 40
25.3999999999999986
  9
$DIMLFAC
 40
1.0
  9
$DIMTOFL
 70
     0
  9
$DIMTVP
 40
0.0
  9
$DIMTIX
 70
     0
  9
$DIMSOXD
 70
     0
  9
$DIMSAH
 70
     0
  9
$DIMBLK1
  1

  9
$DIMBLK2
  1

  9
$DIMSTYLE
  2
STANDARD
  9
$DIMCLRD
 70
     0
  9
$DIMCLRE
 70
     0
  9
$DIMCLRT
 70
     0
  9
$DIMTFAC
 40
1.0
  9
$DIMGAP
 40
0.09
  9
$LUNITS
 70
     2
  9
$LUPREC
 70
     4
  9
$SKETCHINC
 40
0.1
  9
$FILLETRAD
 40
0.0
  9
$AUNITS
 70
     0
  9
$AUPREC
 70
     0
  9
$MENU
  1
.
  9
$ELEVATION
 40
0.0
  9
$PELEVATION
 40
0.0
  9
$THICKNESS
 40
0.0
  9
$LIMCHECK
 70
     0
  9
$BLIPMODE
 70
     0
  9
$CHAMFERA
 40
0.0
  9
$CHAMFERB
 40
0.0
  9
$SKPOLY
 70
     0
  9
$TDCREATE
 40
2458060.468368056230247
  9
$TDUPDATE
 40
2459349.5787499998696148
  9
$TDINDWG
 40
1.4611698727
  9
$TDUSRTIMER
 40
1.4611698727
  9
$USRTIMER
 70
     1
  9
$ANGBASE
 50
0.0
  9
$ANGDIR
 70
     0
  9
$PDMODE
 70
     0
  9
$PDSIZE
 40
0.3125
  9
$PLINEWID
 40
0.0
  9
$COORDS
 70
     1
  9
$SPLFRAME
 70
     0
  9
$SPLINETYPE
 70
     6
  9
$SPLINESEGS
 70
     8
  9
$ATTDIA
 70
     1
  9
$ATTREQ
 70
     1
  9
$HANDLING
 70
     1
  9
$HANDSEED
  5
1EEDC
  9
$SURFTAB1
 70
     6
  9
$SURFTAB2
 70
     6
  9
$SURFTYPE
 70
     6
  9
$SURFU
 70
     6
  9
$SURFV
 70
     6
  9
$UCSNAME
  2

  9
$UCSORG
 10
0.0
 20
0.0
 30
0.0
  9
$UCSXDIR
 10
1.0
 20
0.0
 30
0.0
  9
$UCSYDIR
 10
0.0
 20
1.0
 30
0.0
  9
$PUCSNAME
  2

  9
$PUCSORG
 10
0.0
 20
0.0
 30
0.0
  9
$PUCSXDIR
 10
1.0
 20
0.0
 30
0.0
  9
$PUCSYDIR
 10
0.0
 20
1.0
 30
0.0
  9
$USERI1
 70
     0
  9
$USERI2
 70
     0
  9
$USERI3
 70
     0
  9
$USERI4
 70
     0
  9
$USERI5
 70
     0
  9
$USERR1
 40
0.0
  9
$USERR2
 40
0.0
  9
$USERR3
 40
0.0
  9
$USERR4
 40
0.0
  9
$USERR5
 40
0.0
  9
$WORLDVIEW
 70
     1
  9
$SHADEDGE
 70
     3
  9
$SHADEDIF
 70
    70
  9
$TILEMODE
 70
     1
  9
$MAXACTVP
 70
    64
  9
$PLIMCHECK
 70
     0
  9
$PEXTMIN
 10
1.0000000000000000E+20
 20
1.0000000000000000E+20
 30
1.0000000000000000E+20
  9
$PEXTMAX
 10
-1.0000000000000000E+20
 20
-1.0000000000000000E+20
 30
-1.0000000000000000E+20
  9
$PLIMMIN
 10
0.0
 20
0.0
  9
$PLIMMAX
 10
12.0
 20
9.0
  9
$UNITMODE
 70
     0
  9
$VISRETAIN
 70
     1
  9
$PLINEGEN
 70
     0
  9
$PSLTSCALE
 70
     1
  0
ENDSEC
  0
SECTION
  2
TABLES
  0
TABLE
  2
VPORT
 70
     1
  0
VPORT
  2
*ACTIVE
 70
     0
 10
0.0
 20
0.0
 11
1.0
 21
1.0
 12
531.8123564019859941
 22
345.0625498190020721
 13
0.0
 23
0.0
 14
1.0
 24
1.0
 15
0.0
 25
0.0
 16
0.0
 26
0.0
 36
60.4960186965801583
 17
3911.3653564453120453
 27
132.5796051025390057
 37
0.0
 40
37.6051495921989272
 41
2.6486111111111108
 42
50.0
 43
0.0
 44
0.0
 50
0.0
 51
0.0
 71
     0
 72
   100
 73
     1
 74
     1
 75
     0
 76
     0
 77
     0
 78
     0
  0
ENDTAB
  0
TABLE
  2
LTYPE
 70
     2
  0
LTYPE
  2
CONTINUOUS
 70
     0
  3
Solid line
 72
    65
 73
     0
 40
0.0
  0
LTYPE
  2
PHANTOM2
 70
     0
  3
___ _ _ ___ _ _ ___ _ _ ___ _ _
 72
    65
 73
     6
 40
1.25
 49
0.625
 49
-0.125
 49
0.125
 49
-0.125
 49
0.125
 49
-0.125
  0
ENDTAB
  0
TABLE
  2
LAYER
 70
     2
  0
LAYER
  2
0
 70
     0
 62
   255
  6
CONTINUOUS
  0
LAYER
  2
DEFPOINTS
 70
     0
 62
     7
  6
CONTINUOUS
  0
ENDTAB
  0
TABLE
  2
STYLE
 70
     1
  0
STYLE
  2
STANDARD
 70
     0
 40
0.0
 41
0.8
 50
0.0
 71
     0
 42
0.2
  3
txt
  4

  0
ENDTAB
  0
TABLE
  2
VIEW
 70
     0
  0
ENDTAB
  0
TABLE
  2
UCS
 70
     0
  0
ENDTAB
  0
TABLE
  2
APPID
 70
    11
  0
APPID
  2
ACAD
 70
     0
  0
APPID
  2
ACAD_MLEADERVER
 70
     0
  0
APPID
  2
ACAD_EXEMPT_FROM_CAD_STANDARDS
 70
     0
  0
APPID
  2
ACAD_NAV_VCDISPLAY
 70
     0
  0
APPID
  2
ACAECLAYERSTANDARD
 70
     0
  0
APPID
  2
ACCMTRANSPARENCY
 70
     0
  0
APPID
  2
ACAD_DSTYLE_DIMJAG
 70
     0
  0
APPID
  2
ACAD_DSTYLE_DIMTALN
 70
     0
  0
APPID
  2
ACDBATTR
 70
     0
  0
APPID
  2
ACADANNOTATIVE
 70
     0
  0
APPID
  2
DCO15
 70
     0
  0
ENDTAB
  0
TABLE
  2
DIMSTYLE
 70
     1
  0
DIMSTYLE
  2
STANDARD
 70
     0
  3

  4

  5

  6

  7

 40
1.0
 41
0.1875
 42
0.0625
 43
0.38
 44
0.125
 45
0.0
 46
0.0
 47
0.01
 48
0.01
140
0.15625
141
0.09
142
0.0
143
25.3999999999999986
144
1.0
145
0.0
146
1.0
147
0.09
 71
     1
 72
     0
 73
     1
 74
     1
 75
     0
 76
     0
 77
     0
 78
     4
170
     0
171
     2
172
     0
173
     0
174
     0
175
     0
176
     0
177
     0
178
     0
  0
ENDTAB
  0
ENDSEC
  0
SECTION
  2
BLOCKS
  0
BLOCK
  8
0
  2
$MODEL_SPACE
 70
     0
 10
0.0
 20
0.0
 30
0.0
  3
$MODEL_SPACE
  1

  0
ENDBLK
  5
21
  8
0
  0
BLOCK
 67
     1
  8
0
  2
$PAPER_SPACE
 70
     0
 10
0.0
 20
0.0
 30
0.0
  3
$PAPER_SPACE
  1

  0
ENDBLK
  5
1D
 67
     1
  8
0
  0
BLOCK
  8
0
  2
_FILLED
 70
     0
 10
0.0
 20
0.0
 30
0.0
  3
_FILLED
  1

  0
SOLID
  5
1E03F
  8
0
  6
BYBLOCK
 62
     0
 10
0.0
 20
0.0
 30
0.0
 11
-1.0
 21
0.1666666667
 31
0.0
 12
-1.0
 22
-0.1666666667
 32
0.0
 13
-1.0
 23
-0.1666666667
 33
0.0
  0
ENDBLK
  5
1E040
  8
0
  6
BYBLOCK
 62
     0
  0
ENDSEC
  0
SECTION
  2
ENTITIES
  0
ATTDEF
  5
1BE53
  8
DEFPOINTS
 10
4446.9599776623217622
 20
459.0129619680307087
 30
0.0
 40
0.001
  1
P24977-SNW
  3

  2
MODELNUMBER
 70
     0
1001
ACDBATTR
1070
     0
1070
     1
  0
ATTDEF
  5
1BE54
  8
DEFPOINTS
 10
4446.9599776623217622
 20
459.0112951276515219
 30
0.0
 40
0.001
  1
PINNA PALETTA
  3

  2
TRADENAME
 70
     0
1001
ACDBATTR
1070
     0
1070
     1
  0
ATTDEF
  5
1BE55
  8
DEFPOINTS
 10
4446.9599776623217622
 20
459.0096286346973216
 30
0.0
 40
0.001
  1
BATH FILLER
  3

  2
PRODUCT
 70
     0
1001
ACDBATTR
1070
     0
1070
     1
  0
ARC
  5
1EA56
  8
0
 10
4437.5290499844204533
 20
494.0261081877038123
 30
0.0
 40
0.0201083821677747
 50
150.1863288026007979
 51
236.5643604976843903
  0
LINE
  5
1EA57
  8
0
 10
4437.5116030100343778
 20
494.0361056933014083
 30
0.0
 11
4437.8800186595299238
 21
494.6742203164955072
 31
0.0
  0
ARC
  5
1EA58
  8
0
 10
4438.4890264057303284
 20
494.3070073097692898
 30
0.0
 40
0.7111510579615443
 50
91.0889662790174839
 51
148.911310713404788
  0
LINE
  5
1EA59
  8
0
 10
4438.47551104901504
 20
495.0180299271120248
 30
0.0
 11
4446.1750324424692735
 21
495.0180299271120248
 31
0.0
  0
ARC
  5
1EA5A
  8
0
 10
4442.6796035081542868
 20
491.7241220973176041
 30
0.0
 40
4.8029594011356762
 50
37.7121062534734222
 51
43.3483115396451808
  0
ARC
  5
1EA5B
  8
0
 10
4445.5070842893346708
 20
493.9104020488389892
 30
0.0
 40
1.2288206804965429
 50
26.9094366657431507
 51
37.7121062534734222
  0
ARC
  5
1EA5C
  8
0
 10
4446.275062983443604
 20
494.3001789332207068
 30
0.0
 40
0.3675905752388568
 50
340.8318211688693964
 51
26.9094366657431507
  0
ARC
  5
1EA5D
  8
0
 10
4445.3999574666722765
 20
494.728297134461684
 30
0.0
 40
1.339870872996817
 50
317.8990096496331716
 51
335.820170344729604
  0
ARC
  5
1EA5E
  8
0
 10
4440.9519889891362254
 20
498.397019649824415
 30
0.0
 40
7.1045210829688372
 50
317.2890913744021191
 51
319.9965607914786005
  0
LINE
  5
1EA5F
  8
0
 10
4446.172287824068917
 20
493.5780259901119962
 30
0.0
 11
4446.172287824068917
 21
486.5127163143113194
 31
0.0
  0
ARC
  5
1EA60
  8
0
 10
4445.9749827716323125
 20
486.5129734380323043
 30
0.0
 40
0.1973052199769772
 50
343.2399384868400034
 51
359.925333176714787
  0
ARC
  5
1EA61
  8
0
 10
4445.9623270765732741
 20
486.5167847937744909
 30
0.0
 40
0.2105223698219412
 50
331.5248454909140037
 51
343.2399384868400034
  0
ARC
  5
1EA62
  8
0
 10
4446.9596893989692035
 20
486.0162785098119116
 30
0.0
 40
0.9055118109999906
 50
153.7756566122164088
 51
206.7655005857747881
  0
ARC
  5
1EA63
  8
0
 10
4445.9731754587455725
 20
485.5193025481281097
 30
0.0
 40
0.1991130926821151
 50
0.1548575860684431
 51
26.6106426791832895
  0
LINE
  5
1EA64
  8
0
 10
4446.1722878241680519
 20
485.5198407053118785
 30
0.0
 11
4446.1722878241680519
 21
459.7965413400119132
 31
0.0
  0
LINE
  5
1EA65
  8
0
 10
4444.6174846742860609
 20
459.7965413400119132
 30
0.0
 11
4449.3018745955678241
 21
459.7965413400119132
 31
0.0
  0
ARC
  5
1EA66
  8
0
 10
4449.3018745955678241
 20
459.7765218026785874
 30
0.0
 40
0.0200195373333738
 50
0.0559157239413261
 51
90.0
  0
LINE
  5
1EA67
  8
0
 10
4449.3218941233690202
 20
459.7765413400119883
 30
0.0
 11
4449.3218941233690202
 21
459.0191397652120031
 31
0.0
  0
ARC
  5
1EA68
  8
0
 10
4449.3118941233678925
 20
459.0191397652120031
 30
0.0
 40
0.0100000000000051
 50
270.0
 51
359.9999999999805027
  0
LINE
  5
1EA69
  8
0
 10
4449.3118941233678925
 20
459.0091397652120122
 30
0.0
 11
4444.6074846744686511
 21
459.0091397652103069
 31
0.0
  0
ARC
  5
1EA6A
  8
0
 10
4444.6074846744686511
 20
459.0191397652102978
 30
0.0
 40
0.0099999999999945
 50
179.9999999903922117
 51
270.0
  0
LINE
  5
1EA6B
  8
0
 10
4444.5974846744702518
 20
459.0191397652120031
 30
0.0
 11
4444.597484674595762
 21
459.7765413400119883
 31
0.0
  0
ARC
  5
1EA6C
  8
0
 10
4444.6174846745998366
 20
459.7765413400085777
 30
0.0
 40
0.0200000000033533
 50
90.0000008977546742
 51
179.9999999903922117
  0
LINE
  5
1EA6D
  8
0
 10
4447.7470909737694456
 20
459.7965413400119132
 30
0.0
 11
4447.7470909736703106
 21
485.5198407052120047
 31
0.0
  0
ARC
  5
1EA6E
  8
0
 10
4447.944756572705046
 20
485.5198407052126868
 30
0.0
 40
0.1976655990361635
 50
151.7108782212154097
 51
180.0000000002214051
  0
ARC
  5
1EA6F
  8
0
 10
4446.9596893989692035
 20
486.0162785098119116
 30
0.0
 40
0.9055118109999865
 50
333.5902854240998181
 51
26.7655006115874805
  0
ARC
  5
1EA70
  8
0
 10
4447.9462033358604458
 20
486.5132544707054763
 30
0.0
 40
0.1991130893504222
 50
180.1548575914519859
 51
206.6106427879157934
  0
LINE
  5
1EA71
  8
0
 10
4447.7470909737694456
 20
486.5127163135118735
 30
0.0
 11
4447.7470909256826417
 21
495.3221532968115071
 31
0.0
  0
ARC
  5
1EA72
  8
0
 10
4447.7170912415322164
 20
495.3220997622253208
 30
0.0
 40
0.0299996841523799
 50
359.9996582971019166
 51
45.0001199893323118
  0
LINE
  5
1EA73
  8
0
 10
4447.7383041772063734
 20
495.3433127867472194
 30
0.0
 11
4447.6658776186777686
 21
495.4157390419215972
 31
0.0
  0
ARC
  5
1EA74
  8
0
 10
4447.6446639863443124
 20
495.3945253207356814
 30
0.0
 40
0.0300006693819201
 50
45.0001199893323118
 51
89.9988913043630561
  0
LINE
  5
1EA75
  8
0
 10
4447.6446645668693236
 20
495.424525990111988
 30
0.0
 11
4446.2747142312246069
 21
495.424525990111988
 31
0.0
  0
ARC
  5
1EA76
  8
0
 10
4446.2747142309690389
 20
495.3945259901119016
 30
0.0
 40
0.0300000000000402
 50
89.9999995101640451
 51
134.9999998260084908
  0
LINE
  5
1EA77
  8
0
 10
4446.2535010275969398
 20
495.4157391936120121
 30
0.0
 11
4446.1810746204637326
 21
495.3433127869175223
 31
0.0
  0
ARC
  5
1EA78
  8
0
 10
4446.2022520293912748
 20
495.3221353778611729
 30
0.0
 40
0.0299493790124021
 50
134.9999998260084908
 51
180.0684781173029023
  0
LINE
  5
1EA79
  8
0
 10
4446.1723026717691027
 20
495.3220995833119105
 30
0.0
 11
4446.172287824068917
 21
495.021025990111923
 31
0.0
  0
ARC
  5
1EA7A
  8
0
 10
4446.3616893989692471
 20
495.4545259901120176
 30
0.0
 40
0.0300000000000047
 50
270.0
 51
359.9999999999935199
  0
LINE
  5
1EA7B
  8
0
 10
4446.3916893989689925
 20
495.4545259901119039
 30
0.0
 11
4446.3916893989689925
 21
495.4960995833118886
 31
0.0
  0
ARC
  5
1EA7C
  8
0
 10
4446.4216483310019612
 20
495.4960995833118886
 30
0.0
 40
0.0299589320325779
 50
134.9214046068028097
 51
179.9999999999934914
  0
LINE
  5
1EA7D
  8
0
 10
4446.4004932462694342
 20
495.5173127867118978
 30
0.0
 11
4446.4429026023690312
 21
495.5597391936120175
 31
0.0
  0
ARC
  5
1EA7E
  8
0
 10
4446.4641158057766006
 20
495.5385259900755273
 30
0.0
 40
0.0300000000364329
 50
90.0000000138613245
 51
135.0001416523581099
  0
LINE
  5
1EA7F
  8
0
 10
4446.4641158057702341
 20
495.5685259901119935
 30
0.0
 11
4447.4552629920690379
 21
495.5685259901119935
 31
0.0
  0
ARC
  5
1EA80
  8
0
 10
4447.4552629929703471
 20
495.5385259922857131
 30
0.0
 40
0.0299999978262866
 50
44.9999982809014867
 51
90.0000017195847448
  0
LINE
  5
1EA81
  8
0
 10
4447.4764761955048016
 20
495.5597391935477276
 30
0.0
 11
4447.518902601525042
 21
495.5173127858682278
 31
0.0
  0
ARC
  5
1EA82
  8
0
 10
4447.4976893945504344
 20
495.4960995797229089
 30
0.0
 40
0.0300000044185396
 50
0.0000068546679402
 51
44.999998879882618
  0
LINE
  5
1EA83
  8
0
 10
4447.5276893989694145
 20
495.4960995833118886
 30
0.0
 11
4447.527689403941622
 21
495.4545259901119039
 31
0.0
  0
ARC
  5
1EA84
  8
0
 10
4447.5576894075320524
 20
495.454525993701111
 30
0.0
 40
0.0300000035890984
 50
180.0000068546711987
 51
269.999983646201315
  0
LINE
  5
1EA85
  8
0
 10
4446.5360066104685757
 20
495.6508450264120142
 30
0.0
 11
4446.5360066104685757
 21
495.5685259901119935
 31
0.0
  0
LINE
  5
1EA86
  8
0
 10
4447.3833688551685555
 20
495.6508450264120142
 30
0.0
 11
4447.3833688551685555
 21
495.5685259901119935
 31
0.0
  0
LINE
  5
1EA87
  8
0
 10
4446.1810746202581868
 20
495.3433127867119197
 30
0.0
 11
4447.7383041772400247
 21
495.3433127867119197
 31
0.0
  0
LINE
  5
1EA88
  8
0
 10
4446.1750519761963005
 20
493.5810220531120081
 30
0.0
 11
4439.0707391997157174
 21
493.5810220531120081
 31
0.0
  0
ARC
  5
1EA89
  8
0
 10
4439.0791784149832893
 20
493.2848339148866899
 30
0.0
 40
0.2963083420689025
 50
91.632072892067626
 51
148.3679271071659969
  0
LINE
  5
1EA8A
  8
0
 10
4438.8268915706157713
 20
493.4402365588119892
 30
0.0
 11
4438.7561170571689217
 21
493.317651505752508
 31
0.0
  0
ARC
  5
1EA8B
  8
0
 10
4438.7386144252459417
 20
493.3277883151786796
 30
0.0
 40
0.0202261471757144
 50
246.7759575093296007
 51
329.9223299595972207
  0
LINE
  5
1EA8C
  8
0
 10
4446.3004739287689517
 20
495.6508450264120142
 30
0.0
 11
4447.6189053862690344
 21
495.6508450264120142
 31
0.0
  0
ARC
  5
1EA8D
  8
0
 10
4446.3004739287689517
 20
495.6708450264119961
 30
0.0
 40
0.0200000000000173
 50
225.0000003090489997
 51
270.0
  0
LINE
  5
1EA8E
  8
0
 10
4446.2863317932205973
 20
495.6567028907119266
 30
0.0
 11
4446.1780475213536192
 21
495.7649871614107155
 31
0.0
  0
LINE
  5
1EA8F
  8
0
 10
4447.6189053862690344
 20
496.2745304947118825
 30
0.0
 11
4446.3004739287689517
 21
496.2745304947118825
 31
0.0
  0
ARC
  5
1EA90
  8
0
 10
4446.3004739287689517
 20
496.2545304947119007
 30
0.0
 40
0.0200000000000067
 50
90.0
 51
135.0000000000829061
  0
LINE
  5
1EA91
  8
0
 10
4446.2863317931451093
 20
496.2686726303355726
 30
0.0
 11
4446.1780475219457003
 21
496.1603883591354816
 31
0.0
  0
ARC
  5
1EA92
  8
0
 10
4446.1921896575686333
 20
496.1462462235114117
 30
0.0
 40
0.0200000000006049
 50
135.0000000000852083
 51
179.9999999983911039
  0
LINE
  5
1EA93
  8
0
 10
4446.1721896575691062
 20
496.1462462235119233
 30
0.0
 11
4446.1721896575581923
 21
495.7791292973907957
 31
0.0
  0
ARC
  5
1EA94
  8
0
 10
4446.1921896568828743
 20
495.7791292973902841
 30
0.0
 40
0.019999999325298
 50
179.9999999983911039
 51
225.0000009120442996
  0
ARC
  5
1EA95
  8
0
 10
4447.6189053862690344
 20
495.6708450264119961
 30
0.0
 40
0.0200000000000245
 50
270.0
 51
314.9999999999492957
  0
LINE
  5
1EA96
  8
0
 10
4447.6330475218919673
 20
495.6567028907882104
 30
0.0
 11
4447.741331793136851
 21
495.7649871620316731
 31
0.0
  0
ARC
  5
1EA97
  8
0
 10
4447.7271896573765844
 20
495.7791292977915987
 30
0.0
 40
0.0200000001927346
 50
314.9999999999470219
 51
359.9999994852195186
  0
LINE
  5
1EA98
  8
0
 10
4447.7471896575689243
 20
495.7791292976119735
 30
0.0
 11
4447.7471896608676616
 21
496.1462462235119233
 31
0.0
  0
ARC
  5
1EA99
  8
0
 10
4447.7271896692636801
 20
496.146246223691719
 30
0.0
 40
0.0199999916031226
 50
359.9999994852195186
 51
45.0000233273021735
  0
LINE
  5
1EA9A
  8
0
 10
4447.7413317931932397
 20
496.1603883591357089
 30
0.0
 11
4447.6330474779060751
 21
496.2686725862490107
 31
0.0
  0
ARC
  5
1EA9B
  8
0
 10
4447.6189052277031806
 20
496.2545303245307196
 30
0.0
 40
0.0200001701819195
 50
45.0000233273021735
 51
89.9995457469800755
  0
LINE
  5
1EA9C
  8
0
 10
4446.1721896575691062
 20
495.7791292976119735
 30
0.0
 11
4447.7471896575689243
 21
495.7791292976119735
 31
0.0
  0
LINE
  5
1EA9D
  8
0
 10
4446.1721896575691062
 20
496.1462462235119233
 30
0.0
 11
4447.7471896608676616
 21
496.1462462235119233
 31
0.0
  0
ARC
  5
1EA9E
  8
0
 10
4442.9128763554763282
 20
494.0594221814968137
 30
0.0
 40
4.4675868865967256
 50
24.7952826822200905
 51
27.2934854673324914
  0
ARC
  5
1EA9F
  8
0
 10
4444.2851075002572543
 20
497.312306984369684
 30
0.0
 40
3.0172130325037352
 50
332.7974748272778811
 51
336.4768638688011038
  0
ARC
  5
1EAA0
  8
0
 10
4447.1995115243498731
 20
496.0522810795116015
 30
0.0
 40
0.1580982018737861
 50
153.5919384079093959
 51
159.3332858748784133
  0
ARC
  5
1EAA1
  8
0
 10
4447.073215944783442
 20
496.1149968999927751
 30
0.0
 40
0.0170881045169453
 50
0.3905438405655006
 51
153.5919384079122949
  0
ARC
  5
1EAA2
  8
0
 10
4447.0733161932739677
 20
496.116933178215902
 30
0.0
 40
0.0170846552246315
 50
328.7822733661005827
 51
353.8854401420554154
  0
ARC
  5
1EAA3
  8
0
 10
4454.664853542894889
 20
492.4397399784270988
 30
0.0
 40
8.4182255450641694
 50
154.1662424926360018
 51
156.1719829154176011
  0
ARC
  5
1EAA4
  8
0
 10
4232.313919564086973
 20
395.6624648975509899
 30
0.0
 40
236.8763407393028046
 50
25.0186591251527695
 51
25.090058063787879
  0
ARC
  5
1EAA5
  8
0
 10
4446.8541784436702073
 20
496.1150738303978187
 30
0.0
 40
0.0165661227095639
 50
142.7762665984000137
 51
205.0900580637907922
  0
ARC
  5
1EAA6
  8
0
 10
4446.8571449754390414
 20
496.1096703938629275
 30
0.0
 40
0.0223382559304567
 50
84.8962210851260153
 51
136.3295932288590109
  0
ARC
  5
1EAA7
  8
0
 10
4446.8600452406999466
 20
496.1136315490406901
 30
0.0
 40
0.0183113119525009
 50
36.6084751046059935
 51
92.8581161591572197
  0
ARC
  5
1EAA8
  8
0
 10
4446.7703449850932884
 20
496.0614936705991909
 30
0.0
 40
0.1219650980225202
 50
22.4287420855321216
 51
31.1321958716706604
  0
ARC
  5
1EAA9
  8
0
 10
4446.9212301588013361
 20
495.8183168455980763
 30
0.0
 40
0.0288431078845327
 50
192.9927786827443015
 51
224.4815882197555936
  0
ARC
  5
1EAAA
  8
0
 10
4446.9120166619040901
 20
495.8092685854510933
 30
0.0
 40
0.0159295670556931
 50
224.4815882197578958
 51
325.1657216580138083
  0
ARC
  5
1EAAB
  8
0
 10
4446.9129042231506901
 20
495.8063246979301084
 30
0.0
 40
0.0136536551320368
 50
333.204559521094609
 51
22.6774616415603703
  0
ARC
  5
1EAAC
  8
0
 10
4445.3499132808274226
 20
495.3315527423304161
 30
0.0
 40
1.6470930097937291
 50
16.9444497391583617
 51
28.127085343875919
  0
ARC
  5
1EAAD
  8
0
 10
4446.7640482674341911
 20
496.098201378613112
 30
0.0
 40
0.0396820903519601
 50
14.3552355783846508
 51
47.5401220246588707
  0
ARC
  5
1EAAE
  8
0
 10
4446.7762374220310448
 20
496.1065149829566963
 30
0.0
 40
0.0255447849953464
 50
55.1441830202575503
 51
117.249234575918905
  0
ARC
  5
1EAAF
  8
0
 10
4446.7729011250476105
 20
496.1153783340811856
 30
0.0
 40
0.0161744106444676
 50
121.1209693346740011
 51
204.0322338705722132
  0
ARC
  5
1EAB0
  8
0
 10
4439.7276309796479836
 20
492.733585107707313
 30
0.0
 40
7.7987124569847639
 50
23.2480262552473818
 51
25.6447629107601784
  0
ARC
  5
1EAB1
  8
0
 10
4442.2136148395693453
 20
493.8195996090851168
 30
0.0
 40
5.0485711611135597
 50
23.2418322258217209
 51
26.9546583649700402
  0
ARC
  5
1EAB2
  8
0
 10
4455.5727988406388249
 20
500.0088150548164094
 30
0.0
 40
9.7088678949202087
 50
203.6891411634167923
 51
205.6125748453389974
  0
ARC
  5
1EAB3
  8
0
 10
4446.849240261972227
 20
495.8212876056164191
 30
0.0
 40
0.0326912628842132
 50
196.8162997583521019
 51
222.8016423424845129
  0
ARC
  5
1EAB4
  8
0
 10
4446.8380833739229274
 20
495.8109556199539725
 30
0.0
 40
0.0174851431073783
 50
222.8016423424820971
 51
324.0917779443988138
  0
ARC
  5
1EAB5
  8
0
 10
4446.8416642567899544
 20
495.8063342348741003
 30
0.0
 40
0.0119875155932448
 50
331.9693878892069279
 51
8.9885506954344816
  0
ARC
  5
1EAB6
  8
0
 10
4446.9470851146443238
 20
495.8365787151826112
 30
0.0
 40
0.0977868445037143
 50
194.6598661358937932
 51
196.8661606402311861
  0
ARC
  5
1EAB7
  8
0
 10
4446.6101095547628574
 20
496.0730456848183962
 30
0.0
 40
0.1093774953881486
 50
18.6606948369523984
 51
27.3313485437521386
  0
ARC
  5
1EAB8
  8
0
 10
4446.6927114251493549
 20
496.1157369395821775
 30
0.0
 40
0.0163957110178446
 50
27.3313485437521386
 51
74.8677989900278789
  0
ARC
  5
1EAB9
  8
0
 10
4446.6933543547484078
 20
496.1181144291606984
 30
0.0
 40
0.0139328234514594
 50
74.8677989900270262
 51
137.6466797332400915
  0
ARC
  5
1EABA
  8
0
 10
4446.6936241757694006
 20
496.1178684515297732
 30
0.0
 40
0.0142979376509964
 50
137.6466797332400915
 51
191.5453092950550911
  0
ARC
  5
1EABB
  8
0
 10
4446.7074675852336441
 20
496.1206966125100735
 30
0.0
 40
0.0284272858351764
 50
191.5458724852950922
 51
206.4331207084875928
  0
ARC
  5
1EABC
  8
0
 10
4450.2702414422701622
 20
497.6019213508449752
 30
0.0
 40
3.9579921765405799
 50
202.1765618291809972
 51
206.8898672757271129
  0
ARC
  5
1EABD
  8
0
 10
4447.0676381601442699
 20
495.9778600630771166
 30
0.0
 40
0.3671367284467559
 50
206.8898672757271129
 51
208.799471997426906
  0
ARC
  5
1EABE
  8
0
 10
4446.7604364105391141
 20
495.810307924947324
 30
0.0
 40
0.0172543087633651
 50
212.6719540448173973
 51
315.7685916736160152
  0
ARC
  5
1EABF
  8
0
 10
4446.7638107449956806
 20
495.8092884896514079
 30
0.0
 40
0.0142183612990548
 50
309.212718201032601
 51
10.32909258687455
  0
ARC
  5
1EAC0
  8
0
 10
4443.9971975639828088
 20
494.6244497315497028
 30
0.0
 40
3.0235133834544969
 50
23.1237274985061987
 51
26.1063991715985111
  0
ARC
  5
1EAC1
  8
0
 10
4395.9503211968658434
 20
472.1720391444414986
 30
0.0
 40
56.0570988459779471
 50
25.1039355726434117
 51
25.2768955770965817
  0
ARC
  5
1EAC2
  8
0
 10
4446.563955342103327
 20
496.0828809536394033
 30
0.0
 40
0.080310359262791
 50
18.2584259712817492
 51
32.0514893372750294
  0
ARC
  5
1EAC3
  8
0
 10
4446.619174924424442
 20
496.1160638461706185
 30
0.0
 40
0.0159419426186122
 50
36.2931398945597792
 51
64.3316028820959502
  0
ARC
  5
1EAC4
  8
0
 10
4446.6193434197975876
 20
496.1156018087609141
 30
0.0
 40
0.0162892023710532
 50
65.5698433982071833
 51
152.2067713874355945
  0
ARC
  5
1EAC5
  8
0
 10
4446.6230912292012363
 20
496.1156915491438895
 30
0.0
 40
0.0196479263491409
 50
157.5420142408970037
 51
203.2689431755767941
  0
ARC
  5
1EAC6
  8
0
 10
4451.2890050088499265
 20
498.2521663394804818
 30
0.0
 40
5.1895755320360157
 50
204.4034804505022009
 51
208.0491218002239862
  0
ARC
  5
1EAC7
  8
0
 10
4448.16611526997076
 20
496.7570681303744777
 30
0.0
 40
1.761782379876756
 50
201.6164307404712019
 51
212.4456049601149061
  0
ARC
  5
1EAC8
  8
0
 10
4448.064747005024401
 20
496.7337987654548215
 30
0.0
 40
1.7141653299477619
 50
201.4356639110741867
 51
212.5361066042287916
  0
ARC
  5
1EAC9
  8
0
 10
4448.3501669201414188
 20
496.8569445920630869
 30
0.0
 40
1.998749098934661
 50
201.9750283766477139
 51
211.5846515712767086
  0
ARC
  5
1EACA
  8
0
 10
4448.0286641643178882
 20
496.7003299883069758
 30
0.0
 40
1.720320586306183
 50
200.1871797390834047
 51
211.0954970034148914
  0
ARC
  5
1EACB
  8
0
 10
4448.1700543038869
 20
496.7596048901202153
 30
0.0
 40
1.8476289199851259
 50
200.6170358619293097
 51
210.8615743220790932
  0
ARC
  5
1EACC
  8
0
 10
4447.5991482451336196
 20
496.5027944499124146
 30
0.0
 40
1.2810710633034179
 50
197.9473535272211961
 51
212.639124240656713
  0
ARC
  5
1EACD
  8
0
 10
4447.32188000143924
 20
496.3779801844029862
 30
0.0
 40
1.002285852932739
 50
195.7704463760462943
 51
214.4057861926814041
  0
ARC
  5
1EACE
  8
0
 10
4447.5997338565375685
 20
496.4634106679409911
 30
0.0
 40
1.315041462059517
 50
195.6782888646033882
 51
209.6960454486473111
  0
ARC
  5
1EACF
  8
0
 10
4447.2247352719932678
 20
496.3164370742504161
 30
0.0
 40
0.9381397924367936
 50
192.6716972905950911
 51
212.5350457356761922
  0
ARC
  5
1EAD0
  8
0
 10
4447.4860871049422713
 20
496.4182710226535846
 30
0.0
 40
1.237736405248923
 50
194.5154930206977895
 51
209.201699428464309
  0
ARC
  5
1EAD1
  8
0
 10
4447.1320605362061542
 20
496.2703902676511234
 30
0.0
 40
0.8778704704398753
 50
190.6586817288902012
 51
211.4917162721224031
  0
ARC
  5
1EAD2
  8
0
 10
4447.3276109097896551
 20
496.305281207471694
 30
0.0
 40
1.091887420334932
 50
190.4070149407004067
 51
206.8775849570961896
  0
ARC
  5
1EAD3
  8
0
 10
4447.2330048888097735
 20
496.2598655362069735
 30
0.0
 40
1.005597632444037
 50
188.6836800213029051
 51
206.4744063532033067
  0
ARC
  5
1EAD4
  8
0
 10
4447.3265621794307663
 20
496.2638263305665873
 30
0.0
 40
1.1139805594891561
 50
188.0388224352672921
 51
203.9406128310702115
  0
ARC
  5
1EAD5
  8
0
 10
4447.2197360818527159
 20
496.2150188676938001
 30
0.0
 40
1.0132826513340849
 50
186.060377134491489
 51
203.4472376606071009
  0
ARC
  5
1EAD6
  8
0
 10
4447.2791792919779255
 20
496.1992042261193774
 30
0.0
 40
1.081942392703759
 50
184.8331349595275128
 51
200.9991037527979074
  0
ARC
  5
1EAD7
  8
0
 10
4447.3657556606985963
 20
496.1958865629754882
 30
0.0
 40
1.176203589152256
 50
184.283186766109992
 51
199.0584678497083928
  0
ARC
  5
1EAD8
  8
0
 10
4447.3359822954462288
 20
496.1557328923674959
 30
0.0
 40
1.1506297446214391
 50
182.3753859212274904
 51
197.3773573194650908
  0
ARC
  5
1EAD9
  8
0
 10
4447.3745310227341179
 20
496.1331012003869887
 30
0.0
 40
1.194352157030274
 50
181.2157793456489969
 51
195.6546115493623859
  0
ARC
  5
1EADA
  8
0
 10
4447.5135709508567743
 20
496.1157630105727208
 30
0.0
 40
1.337241108463429
 50
180.3308016825054949
 51
193.1345097430200894
  0
ARC
  5
1EADB
  8
0
 10
4447.5403709038600937
 20
496.0867715426703057
 30
0.0
 40
1.366801371181469
 50
179.108297101798712
 51
191.6026791621692098
  0
ARC
  5
1EADC
  8
0
 10
4447.659589492754094
 20
496.0564842985100995
 30
0.0
 40
1.488332133824311
 50
182.0282213214752005
 51
189.4651276331426004
  0
ARC
  5
1EADD
  8
0
 10
4447.7053129481610085
 20
496.0154939157483227
 30
0.0
 40
1.534756034676118
 50
182.6431117378774047
 51
187.625331498924993
  0
ARC
  5
1EADE
  8
0
 10
4448.1349835256123697
 20
495.9845528811691793
 30
0.0
 40
1.9639123724084731
 50
181.9338199295146126
 51
185.0455542779322116
  0
ARC
  5
1EADF
  8
0
 10
4447.5989496430720465
 20
495.9008715953473825
 30
0.0
 40
1.4269230728942019
 50
180.8662667955755978
 51
183.6214687521872975
  0
ARC
  5
1EAE0
  8
0
 10
4446.7209269574041173
 20
495.8320942401761044
 30
0.0
 40
0.046237458112685
 50
205.9322598177963073
 51
229.9480443223114037
  0
ARC
  5
1EAE1
  8
0
 10
4446.6996205765181003
 20
495.8067489948817865
 30
0.0
 40
0.0131263825412457
 50
229.9480443223135069
 51
315.1928426087690127
  0
ARC
  5
1EAE2
  8
0
 10
4446.702810722358663
 20
495.8035802514792749
 30
0.0
 40
0.0086299433678759
 50
315.1928426087714001
 51
3.3044638975780152
  0
ARC
  5
1EAE3
  8
0
 10
4446.6947297444949072
 20
495.8031139545881274
 30
0.0
 40
0.0167243634203155
 50
3.3035026753187511
 51
31.6136380277807483
  0
ARC
  5
1EAE4
  8
0
 10
4446.6783580051951503
 20
495.8413366417099155
 30
0.0
 40
0.0657200969405555
 50
206.6412904739453893
 51
214.8160151831314124
  0
ARC
  5
1EAE5
  8
0
 10
4446.6649607537319753
 20
495.8320197546202053
 30
0.0
 40
0.0494016799891937
 50
214.8160151831287124
 51
226.1208192642305903
  0
ARC
  5
1EAE6
  8
0
 10
4446.6375557188030143
 20
495.8035209908188108
 30
0.0
 40
0.0098641601160363
 50
226.1208192642305903
 51
290.5862365157236127
  0
ARC
  5
1EAE7
  8
0
 10
4446.6364945874429395
 20
495.8063461454790968
 30
0.0
 40
0.0128820233694223
 50
290.5862365157236127
 51
336.8811282025849891
  0
ARC
  5
1EAE8
  8
0
 10
4446.6385291704727933
 20
495.8047850582912019
 30
0.0
 40
0.0104173731264348
 50
340.3860628148989917
 51
30.5768486704615796
  0
ARC
  5
1EAE9
  8
0
 10
4446.6008697408860826
 20
495.8318118407311204
 30
0.0
 40
0.0495328833945133
 50
203.7750164960077939
 51
217.4737495569252133
  0
ARC
  5
1EAEA
  8
0
 10
4446.5840271366296292
 20
495.8189003116153231
 30
0.0
 40
0.0283107039065992
 50
217.4737495569252133
 51
238.2831798249075064
  0
ARC
  5
1EAEB
  8
0
 10
4446.5746825532532966
 20
495.8065524635184147
 30
0.0
 40
0.0129763885468293
 50
244.7322397548450112
 51
313.1833138889684847
  0
ARC
  5
1EAEC
  8
0
 10
4446.5745436024899391
 20
495.8047576076453993
 30
0.0
 40
0.011837633255278
 50
319.6323738189199162
 51
36.7157313444365485
  0
ARC
  5
1EAED
  8
0
 10
4446.4952172624625746
 20
495.7955156786661064
 30
0.0
 40
0.0300022361162623
 50
20.5921565428219289
 51
32.9935497775652777
  0
ARC
  5
1EAEE
  8
0
 10
4446.5127848618458302
 20
495.8042719197779888
 30
0.0
 40
0.0106699563906732
 50
325.7872584581957085
 51
9.6900643425207633
  0
ARC
  5
1EAEF
  8
0
 10
4446.5124979845068083
 20
495.8044981378893112
 30
0.0
 40
0.011034416339437
 50
275.5579596670634146
 51
325.6534456029659168
  0
ARC
  5
1EAF0
  8
0
 10
4446.5141254756254057
 20
495.8044304646401201
 30
0.0
 40
0.0109291611327159
 50
223.4848881785677861
 51
267.069341969850484
  0
ARC
  5
1EAF1
  8
0
 10
4446.564863648814935
 20
495.8534200080246137
 30
0.0
 40
0.0814577693651961
 50
210.8588977186207956
 51
223.9269718653006862
  0
ARC
  5
1EAF2
  8
0
 10
4446.4956870156311197
 20
495.8434263052786264
 30
0.0
 40
0.0694364624729489
 50
207.010877726024404
 51
221.8038196140996092
  0
ARC
  5
1EAF3
  8
0
 10
4446.4551665369708644
 20
495.8071919549520885
 30
0.0
 40
0.0150780469840375
 50
221.8038196140996092
 51
237.3567012301618036
  0
ARC
  5
1EAF4
  8
0
 10
4446.4514814187623415
 20
495.8014392788088003
 30
0.0
 40
0.0082462551971837
 50
237.3567012301635089
 51
268.6730887582609739
  0
ARC
  5
1EAF5
  8
0
 10
4446.4514254940213505
 20
495.7990248906666011
 30
0.0
 40
0.005831219446354
 50
268.6730887582609739
 51
309.8474065540603988
  0
ARC
  5
1EAF6
  8
0
 10
4446.4482205010999678
 20
495.8050840244212054
 30
0.0
 40
0.0126170817405343
 50
303.3774729465849873
 51
327.6102727766871112
  0
ARC
  5
1EAF7
  8
0
 10
4446.4508117559107632
 20
495.8033791604200928
 30
0.0
 40
0.0095158499881732
 50
327.9207010626607826
 51
10.8843277945163397
  0
ARC
  5
1EAF8
  8
0
 10
4446.4157480000340001
 20
495.7910401115245804
 30
0.0
 40
0.0466039837603733
 50
17.6570891713475291
 51
26.6458631579095595
  0
ARC
  5
1EAF9
  8
0
 10
4446.4569662454678109
 20
495.8491439946719765
 30
0.0
 40
0.082419070609743
 50
206.9329917238304972
 51
213.7290806710761899
  0
ARC
  5
1EAFA
  8
0
 10
4446.4379841942500207
 20
495.8364706158944841
 30
0.0
 40
0.0595951183209884
 50
213.7290806710734898
 51
222.6511476355020989
  0
ARC
  5
1EAFB
  8
0
 10
4446.3994527544400626
 20
495.8009756069128002
 30
0.0
 40
0.0072064982169715
 50
222.6511476354997114
 51
306.2156900682722949
  0
ARC
  5
1EAFC
  8
0
 10
4446.3964164062426789
 20
495.8051218677784959
 30
0.0
 40
0.0123456508265494
 50
306.2156900682762171
 51
32.4288987538627325
  0
ARC
  5
1EAFD
  8
0
 10
4446.3078157431064028
 20
495.7693507320369122
 30
0.0
 40
0.1077136020349303
 50
23.1760549850145985
 51
24.72144014567683
  0
ARC
  5
1EAFE
  8
0
 10
4446.3820481395759998
 20
495.832591384953389
 30
0.0
 40
0.0534903397915883
 50
203.138462082833513
 51
214.0426352513040911
  0
ARC
  5
1EAFF
  8
0
 10
4446.3922390322877618
 20
495.8394816589780021
 30
0.0
 40
0.0657919719674979
 50
214.0465255786400007
 51
222.4190363349769086
  0
ARC
  5
1EB00
  8
0
 10
4446.3471801953446629
 20
495.7986478955306779
 30
0.0
 40
0.0049900536005208
 50
225.2858398269644908
 51
305.2929845947447802
  0
ARC
  5
1EB01
  8
0
 10
4446.3445910506497967
 20
495.8038479681297872
 30
0.0
 40
0.0107672317465755
 50
300.5457329730077163
 51
351.5922720313204195
  0
ARC
  5
1EB02
  8
0
 10
4446.3410690149030415
 20
495.8045612587015967
 30
0.0
 40
0.0143569754956526
 50
350.8314242225595194
 51
15.6633849399387604
  0
ARC
  5
1EB03
  8
0
 10
4446.3365293596598349
 20
495.8033258465166
 30
0.0
 40
0.0190616254455545
 50
15.5548594310120194
 51
25.9080965372646297
  0
ARC
  5
1EB04
  8
0
 10
4446.377705864231757
 20
495.8456999331148722
 30
0.0
 40
0.0939037963072292
 50
201.1429249727889896
 51
209.921675155299198
  0
ARC
  5
1EB05
  8
0
 10
4446.3137977590413357
 20
495.808918965012424
 30
0.0
 40
0.0201672007541216
 50
209.921675155299198
 51
223.7731070899353938
  0
ARC
  5
1EB06
  8
0
 10
4446.3024730411807468
 20
495.7980691501257979
 30
0.0
 40
0.0044838427701281
 50
223.7731070899353938
 51
297.1692264902862917
  0
ARC
  5
1EB07
  8
0
 10
4446.3006952190326047
 20
495.801532992763498
 30
0.0
 40
0.0083772805067668
 50
297.1692264902862917
 51
335.6757315642649928
  0
ARC
  5
1EB08
  8
0
 10
4446.2932655689182866
 20
495.8048913976372205
 30
0.0
 40
0.0165307205248989
 50
335.6757315642739172
 51
0.1808805646680498
  0
ARC
  5
1EB09
  8
0
 10
4446.2918077266440378
 20
495.8048867952701926
 30
0.0
 40
0.017988570063633
 50
0.1808805646680498
 51
22.5481227595088782
  0
ARC
  5
1EB0A
  8
0
 10
4446.3288190655639482
 20
495.8346139951004261
 30
0.0
 40
0.0781913319364246
 50
196.9506631972681134
 51
202.9502840076739005
  0
ARC
  5
1EB0B
  8
0
 10
4446.3642309970773567
 20
495.8496092179627226
 30
0.0
 40
0.1166473015931799
 50
202.9502840076739005
 51
206.5840788591524131
  0
ARC
  5
1EB0C
  8
0
 10
4446.2676747996802078
 20
495.8012910302334149
 30
0.0
 40
0.0086762567650413
 50
206.5840788591465014
 51
235.2893625102977069
  0
ARC
  5
1EB0D
  8
0
 10
4446.2644555399847377
 20
495.7971395644054269
 30
0.0
 40
0.0034420450272138
 50
239.9950532703032877
 51
315.3832905430123219
  0
ARC
  5
1EB0E
  8
0
 10
4446.2584900085939807
 20
495.8028490441110989
 30
0.0
 40
0.0116992276680391
 50
315.9995210655364986
 51
354.4138631620730848
  0
ARC
  5
1EB0F
  8
0
 10
4446.2501277397714148
 20
495.8045214344633109
 30
0.0
 40
0.0202024861310441
 50
352.0012170958809179
 51
14.8265186291429494
  0
ARC
  5
1EB10
  8
0
 10
4446.1992875985306455
 20
495.788548827915406
 30
0.0
 40
0.0734774201448965
 50
16.722614071142349
 51
18.1902795387861111
  0
ARC
  5
1EB11
  8
0
 10
4446.4373369187651406
 20
495.8869886128939015
 30
0.0
 40
0.2260723759198453
 50
199.6894400560071006
 51
203.6505179512082009
  0
ARC
  5
1EB12
  8
0
 10
4446.2358170480201807
 20
495.7987350692308155
 30
0.0
 40
0.0060747707644309
 50
203.6505179512232075
 51
228.7590988032532096
  0
ARC
  5
1EB13
  8
0
 10
4446.2335075752125704
 20
495.796428525076692
 30
0.0
 40
0.0028261830652816
 50
233.1436161595023862
 51
325.5485763400868109
  0
ARC
  5
1EB14
  8
0
 10
4446.2165574468335763
 20
495.8059914413626075
 30
0.0
 40
0.0222783729746529
 50
329.9330936963449972
 51
0.7892840868215093
  0
ARC
  5
1EB15
  8
0
 10
4446.9048893524586674
 20
495.9203638863504011
 30
0.0
 40
0.6757522292980251
 50
189.2208055959746105
 51
189.7179337294612935
  0
ARC
  5
1EB16
  8
0
 10
4446.317446263596139
 20
495.833309766925197
 30
0.0
 40
0.1179118733613796
 50
190.4736404813183981
 51
195.3653917464617109
  0
ARC
  5
1EB17
  8
0
 10
4446.271361177644394
 20
495.820645763054074
 30
0.0
 40
0.0701184413729382
 50
195.3653917464617109
 51
200.3169192449890943
  0
ARC
  5
1EB18
  8
0
 10
4446.2104356222998831
 20
495.7980882606565842
 30
0.0
 40
0.0051510325556554
 50
200.31691924498611
 51
231.1977453064534984
  0
ARC
  5
1EB19
  8
0
 10
4446.2076816772651
 20
495.7962831184055972
 30
0.0
 40
0.0022593782064359
 50
257.8932060111628743
 51
346.8338190940806953
  0
ARC
  5
1EB1A
  8
0
 10
4446.1911610356355595
 20
495.8048137871685981
 30
0.0
 40
0.0207913302942914
 50
334.2114233957709075
 51
1.700694575677437
  0
ARC
  5
1EB1B
  8
0
 10
4446.1827703242306598
 20
495.8058460632748847
 30
0.0
 40
0.0291758379560524
 50
359.1845527497076773
 51
11.9580179031585896
  0
ARC
  5
1EB1C
  8
0
 10
4448.4765308075038774
 20
496.1168541970673118
 30
0.0
 40
2.312606141206317
 50
187.578929701146194
 51
187.7604656109517123
  0
ARC
  5
1EB1D
  8
0
 10
4446.3124645957732355
 20
495.8219350931170197
 30
0.0
 40
0.1285365803564173
 50
187.7604656109517123
 51
190.9501994803314062
  0
ARC
  5
1EB1E
  8
0
 10
4446.1973211567101316
 20
495.7996573204629271
 30
0.0
 40
0.0112578068571839
 50
190.9501994803250113
 51
206.0790633340234876
  0
ARC
  5
1EB1F
  8
0
 10
4446.1887362431198198
 20
495.7954555039225966
 30
0.0
 40
0.0016997733986132
 50
206.0790633339971123
 51
294.2418337877596173
  0
ARC
  5
1EB20
  8
0
 10
4446.1857366566719065
 20
495.7975772742029221
 30
0.0
 40
0.005210810200936
 50
315.200875438838807
 51
343.870819265043508
  0
ARC
  5
1EB21
  8
0
 10
4446.1515982008586434
 20
495.8059005085693798
 30
0.0
 40
0.0403451845124941
 50
345.9847274529296897
 51
8.3108128426022123
  0
ARC
  5
1EB22
  8
0
 10
4446.1068592167448514
 20
495.8058556199198961
 30
0.0
 40
0.0720701382070045
 50
355.8611217672535076
 51
4.7475240839470763
  0
ARC
  5
1EB23
  8
0
 10
4446.120555857405634
 20
495.8048644904013145
 30
0.0
 40
0.0583376838320597
 50
350.813478497496078
 51
355.8611217672535076
  0
ARC
  5
1EB24
  8
0
 10
4446.1709187651049433
 20
495.7967196371831164
 30
0.0
 40
0.0073204210109728
 50
335.5122417151287095
 51
350.8134784974993181
  0
ARC
  5
1EB25
  8
0
 10
4446.1764670441134513
 20
495.7941925722603855
 30
0.0
 40
0.001223745105714
 50
308.5715939094584996
 51
335.512241715227276
  0
ARC
  5
1EB26
  8
0
 10
4446.1771497580402865
 20
495.7935622519900107
 30
0.0
 40
0.0003361668739122
 50
206.7807630643600874
 51
283.8165650904510926
  0
ARC
  5
1EB27
  8
0
 10
4446.2124018091426478
 20
495.8035677222517847
 30
0.0
 40
0.03697457891048
 50
182.022488377580288
 51
195.944173630888514
  0
ARC
  5
1EB28
  8
0
 10
4446.5674380595828552
 20
495.8330754164883274
 30
0.0
 40
0.3931969584339028
 50
183.2563106986480079
 51
184.4945499979546923
  0
ARC
  5
1EB29
  8
0
 10
4446.5218695822668451
 20
496.1190709370608829
 30
0.0
 40
0.3483092204702492
 50
178.8619622092359123
 51
181.8144525546447028
  0
ARC
  5
1EB2A
  8
0
 10
4446.2202602755596672
 20
496.1250624418059942
 30
0.0
 40
0.0466404086559984
 50
173.4730452311318913
 51
178.8619622092359123
  0
ARC
  5
1EB2B
  8
0
 10
4446.1780801145123405
 20
496.1298883664229038
 30
0.0
 40
0.0041850728979362
 50
151.2636673796345121
 51
173.4730452311189026
  0
ARC
  5
1EB2C
  8
0
 10
4445.6636968525926932
 20
496.0783285960649778
 30
0.0
 40
0.5135156697665197
 50
3.3171846065460371
 51
5.9882049405703253
  0
ARC
  5
1EB2D
  8
0
 10
4446.2387651216149607
 20
496.1140376334618054
 30
0.0
 40
0.0586543185472164
 50
162.6484063604277992
 51
186.1442728042972874
  0
ARC
  5
1EB2E
  8
0
 10
4446.1083161591513999
 20
496.1082096604486082
 30
0.0
 40
0.0780302524437355
 50
359.795535739538991
 51
17.3896011220690205
  0
ARC
  5
1EB2F
  8
0
 10
4446.2671207025641706
 20
496.1168812067414251
 30
0.0
 40
0.0748078328204812
 50
174.6036502697720891
 51
186.7870127097399973
  0
ARC
  5
1EB30
  8
0
 10
4446.2113152539459406
 20
496.1221527876983259
 30
0.0
 40
0.0187539510531145
 50
156.6801170930621083
 51
174.6036502697753008
  0
ARC
  5
1EB31
  8
0
 10
4446.1956094350125568
 20
496.1289232440710748
 30
0.0
 40
0.0016509738890638
 50
29.6584190545618718
 51
156.680117093100904
  0
ARC
  5
1EB32
  8
0
 10
4445.8817244207621115
 20
496.0681122880188809
 30
0.0
 40
0.3218465901826942
 50
7.1274711322025421
 51
10.2959248602175801
  0
ARC
  5
1EB33
  8
0
 10
4446.1828238556099677
 20
496.1228092066476165
 30
0.0
 40
0.0158194303204801
 50
10.29592486020797
 51
25.9847041695513283
  0
ARC
  5
1EB34
  8
0
 10
4446.2762551239329696
 20
496.1188769469096087
 30
0.0
 40
0.0650477020173142
 50
177.6548230641593875
 51
189.5900861150645085
  0
ARC
  5
1EB35
  8
0
 10
4446.2341564007328998
 20
496.1206010551725853
 30
0.0
 40
0.0229136891008837
 50
160.7732299101049875
 51
177.6548230641593875
  0
ARC
  5
1EB36
  8
0
 10
4446.2258929997160521
 20
496.1234830056504279
 30
0.0
 40
0.0141621500974086
 50
149.4635722736175012
 51
160.7732299101018896
  0
ARC
  5
1EB37
  8
0
 10
4446.2159575950809085
 20
496.1293439179490861
 30
0.0
 40
0.0026268755784854
 50
38.9975592269060627
 51
149.4635722735685874
  0
ARC
  5
1EB38
  8
0
 10
4446.1040418724060146
 20
496.0945665703187046
 30
0.0
 40
0.1202437846063625
 50
6.4348867567556702
 51
11.6414153774163598
  0
ARC
  5
1EB39
  8
0
 10
4446.0613625744881574
 20
496.0857736138769951
 30
0.0
 40
0.1638194493041207
 50
11.6414153774163598
 51
14.4371358375744503
  0
ARC
  5
1EB3A
  8
0
 10
4446.2068432355272307
 20
496.1232272239753911
 30
0.0
 40
0.0135949651288369
 50
14.4371358375618293
 51
34.8560770591524971
  0
ARC
  5
1EB3B
  8
0
 10
4446.1101053194497581
 20
496.0869710223514062
 30
0.0
 40
0.1451186042054257
 50
8.347722810569234
 51
12.8913851958037107
  0
ARC
  5
1EB3C
  8
0
 10
4446.1815260804023637
 20
496.1033172587484046
 30
0.0
 40
0.0718511179700352
 50
12.8913851958068797
 51
19.5297379873795514
  0
ARC
  5
1EB3D
  8
0
 10
4446.2419924756868568
 20
496.1247648579521865
 30
0.0
 40
0.0076936205872451
 50
19.5297379873734016
 51
47.1439496760971579
  0
ARC
  5
1EB3E
  8
0
 10
4446.2440921047164011
 20
496.1270278064167201
 30
0.0
 40
0.0046066515544682
 50
47.1439496760905072
 51
130.4321337273198935
  0
ARC
  5
1EB3F
  8
0
 10
4446.25477137559119
 20
496.1206331995365986
 30
0.0
 40
0.0168764754673141
 50
144.0783087043874957
 51
179.2632911659036097
  0
ARC
  5
1EB40
  8
0
 10
4446.2857005853447845
 20
496.1182782248957892
 30
0.0
 40
0.0478734286292117
 50
176.9203418452138123
 51
192.3472551559368071
  0
ARC
  5
1EB41
  8
0
 10
4446.3085198343542288
 20
496.1169493758242197
 30
0.0
 40
0.0401876864086137
 50
179.6262992876434907
 51
192.8361487865415995
  0
ARC
  5
1EB42
  8
0
 10
4446.2909566893358715
 20
496.1170639296871059
 30
0.0
 40
0.0226241678121115
 50
152.1223281386226063
 51
179.6262992876434907
  0
ARC
  5
1EB43
  8
0
 10
4446.2765517633051786
 20
496.1246837595838883
 30
0.0
 40
0.0063280424559802
 50
47.1223254838858097
 51
152.1223281386139945
  0
ARC
  5
1EB44
  8
0
 10
4446.2077164304837424
 20
496.0945454234064869
 30
0.0
 40
0.0812715394366622
 50
9.5596640634353047
 51
17.6732879602244317
  0
ARC
  5
1EB45
  8
0
 10
4446.2285294405983223
 20
496.1011118745140038
 30
0.0
 40
0.0594473692527434
 50
17.7331051111576201
 51
28.3282771841413208
  0
ARC
  5
1EB46
  8
0
 10
4446.3311534068307083
 20
496.1166722829519813
 30
0.0
 40
0.022529515916705
 50
153.7209109376989886
 51
195.5232903436539971
  0
ARC
  5
1EB47
  8
0
 10
4446.319443754430722
 20
496.1224542370911763
 30
0.0
 40
0.0094701532594123
 50
114.6242059094702057
 51
153.7209109376960043
  0
ARC
  5
1EB48
  8
0
 10
4446.3193609748495874
 20
496.1226348417479244
 30
0.0
 40
0.0092714814172542
 50
26.1247639919598988
 51
114.6242059094687988
  0
ARC
  5
1EB49
  8
0
 10
4446.268154703710934
 20
496.0975216989025967
 30
0.0
 40
0.0663043854945888
 50
9.1274226121178899
 51
26.1247639919598988
  0
ARC
  5
1EB4A
  8
0
 10
4446.3779819856472386
 20
496.1154982599575192
 30
0.0
 40
0.0229196481005157
 50
164.9482476194596074
 51
205.6553727279238046
  0
ARC
  5
1EB4B
  8
0
 10
4446.3759205584328811
 20
496.1160526138658042
 30
0.0
 40
0.0207849840954818
 50
141.0446646211254063
 51
164.9482476194658886
  0
ARC
  5
1EB4C
  8
0
 10
4446.3655184822373485
 20
496.1244626312637251
 30
0.0
 40
0.0074084530871676
 50
87.5531813481232462
 51
141.0446646211279926
  0
ARC
  5
1EB4D
  8
0
 10
4446.3654096217396727
 20
496.1219150558840738
 30
0.0
 40
0.0099583532660373
 50
57.3986325628404686
 51
87.5531813481232462
  0
ARC
  5
1EB4E
  8
0
 10
4446.3579083033710049
 20
496.1157728606573869
 30
0.0
 40
0.0194092478772936
 50
12.1350861076322705
 51
48.4770107347463224
  0
ARC
  5
1EB4F
  8
0
 10
4445.5617796490323599
 20
495.869806652941179
 30
0.0
 40
0.8525948844300666
 50
16.2257789286277792
 51
17.0542402467045697
  0
ARC
  5
1EB50
  8
0
 10
4446.4897373228595825
 20
496.117004371319581
 30
0.0
 40
0.0764172358516756
 50
175.5776037258322049
 51
187.7740461568346007
  0
ARC
  5
1EB51
  8
0
 10
4446.4231204379620976
 20
496.1221564560046886
 30
0.0
 40
0.009601419383648
 50
105.3512540316044976
 51
175.5776037258322049
  0
ARC
  5
1EB52
  8
0
 10
4446.4237189390642015
 20
496.1199763685650055
 30
0.0
 40
0.011862168112324
 50
33.5484483701147269
 51
105.3512540316044976
  0
ARC
  5
1EB53
  8
0
 10
4446.3604111917438786
 20
496.0864256749554215
 30
0.0
 40
0.0834617066321477
 50
15.7052993068148492
 51
28.7203132398382017
  0
ARC
  5
1EB54
  8
0
 10
4446.4901292031872799
 20
496.1176619198063236
 30
0.0
 40
0.0233754385057572
 50
155.6181710838220908
 51
206.1868824158283076
  0
ARC
  5
1EB55
  8
0
 10
4446.4786425889324164
 20
496.1191310959484895
 30
0.0
 40
0.0127687760484812
 50
25.9958950108666116
 51
140.1582164651694882
  0
ARC
  5
1EB56
  8
0
 10
4446.4080460806080737
 20
496.0815122400928772
 30
0.0
 40
0.092755720294201
 50
17.2432742417926796
 51
27.7689074749039904
  0
ARC
  5
1EB57
  8
0
 10
4446.5503245919562687
 20
496.1162198185380134
 30
0.0
 40
0.0235520554357308
 50
174.5146871606233105
 51
200.314818582187911
  0
ARC
  5
1EB58
  8
0
 10
4446.5418018717273299
 20
496.1170383811912075
 30
0.0
 40
0.0149901161172868
 50
125.9886703412139042
 51
174.515154929250798
  0
ARC
  5
1EB59
  8
0
 10
4446.5417165413846305
 20
496.1171558771820855
 30
0.0
 40
0.0148449039446154
 50
54.5539492423339922
 51
125.9886703412119999
  0
ARC
  5
1EB5A
  8
0
 10
4446.5249545225042311
 20
496.0995632594077733
 30
0.0
 40
0.0390507838195629
 50
12.54091061188673
 51
49.4813588239620472
  0
ARC
  5
1EB5B
  8
0
 10
4446.9981491562393785
 20
495.8183168455980763
 30
0.0
 40
0.0288431078845327
 50
315.518411780244378
 51
347.0072213172555848
  0
ARC
  5
1EB5C
  8
0
 10
4447.0073626531338959
 20
495.8092685854510933
 30
0.0
 40
0.0159295670556931
 50
214.8342783419861064
 51
315.5184117802421042
  0
ARC
  5
1EB5D
  8
0
 10
4447.006475091887296
 20
495.8063246979301084
 30
0.0
 40
0.0136536551320368
 50
157.3225383584396013
 51
206.795440478905391
  0
ARC
  5
1EB5E
  8
0
 10
4448.5694660342105635
 20
495.3315527423304161
 30
0.0
 40
1.6470930097937291
 50
151.8729146561240952
 51
163.0555502608447114
  0
ARC
  5
1EB5F
  8
0
 10
4447.155331047603795
 20
496.098201378613112
 30
0.0
 40
0.0396820903519601
 50
132.4598779753411009
 51
165.6447644216152923
  0
ARC
  5
1EB60
  8
0
 10
4447.1431418930069412
 20
496.1065149829566963
 30
0.0
 40
0.0255447849953464
 50
62.7507654240810808
 51
124.8558169797424
  0
ARC
  5
1EB61
  8
0
 10
4447.1464781899885566
 20
496.1153783340811856
 30
0.0
 40
0.0161744106444676
 50
335.9677661294277868
 51
58.8790306653260274
  0
ARC
  5
1EB62
  8
0
 10
4454.191748335389093
 20
492.733585107707313
 30
0.0
 40
7.7987124569847639
 50
154.3552370892398073
 51
156.751973744752604
  0
ARC
  5
1EB63
  8
0
 10
4451.7057644754686407
 20
493.8195996090851168
 30
0.0
 40
5.0485711611135597
 50
153.0453416350300131
 51
156.7581677741783039
  0
ARC
  5
1EB64
  8
0
 10
4438.3465804743991612
 20
500.0088150548164094
 30
0.0
 40
9.7088678949202087
 50
334.3874251546610026
 51
336.3108588365831793
  0
ARC
  5
1EB65
  8
0
 10
4447.0701390530657591
 20
495.8212876056164191
 30
0.0
 40
0.0326912628842132
 50
317.1983576575156007
 51
343.1837002416478981
  0
ARC
  5
1EB66
  8
0
 10
4447.0812959411150587
 20
495.8109556199539725
 30
0.0
 40
0.0174851431073783
 50
215.9082220556011862
 51
317.1983576575179882
  0
ARC
  5
1EB67
  8
0
 10
4447.0777150582480317
 20
495.8063342348741003
 30
0.0
 40
0.0119875155932448
 50
171.0114493045655024
 51
208.0306121107931006
  0
ARC
  5
1EB68
  8
0
 10
4446.9722942003945718
 20
495.8365787151826112
 30
0.0
 40
0.0977868445037143
 50
343.1338393597687855
 51
345.3401338641061784
  0
ARC
  5
1EB69
  8
0
 10
4447.3092697602751286
 20
496.0730456848183962
 30
0.0
 40
0.1093774953881486
 50
152.6686514562478862
 51
161.3393051630476123
  0
ARC
  5
1EB6A
  8
0
 10
4447.2266678898877217
 20
496.1157369395821775
 30
0.0
 40
0.0163957110178446
 50
105.1322010099721069
 51
152.6686514562478862
  0
ARC
  5
1EB6B
  8
0
 10
4447.2260249602895783
 20
496.1181144291606984
 30
0.0
 40
0.0139328234514594
 50
42.3533202667622888
 51
105.1322010099730022
  0
ARC
  5
1EB6C
  8
0
 10
4447.225755139267676
 20
496.1178684515297732
 30
0.0
 40
0.0142979376509964
 50
348.4546907049448237
 51
42.3533202667598871
  0
ARC
  5
1EB6D
  8
0
 10
4447.2119117298034325
 20
496.1206966125100735
 30
0.0
 40
0.0284272858351764
 50
333.5668792915125209
 51
348.4541275147047941
  0
ARC
  5
1EB6E
  8
0
 10
4443.6491378727678239
 20
497.6019213508449752
 30
0.0
 40
3.9579921765405799
 50
333.1101327242728871
 51
337.8234381708189744
  0
ARC
  5
1EB6F
  8
0
 10
4446.8517411548928067
 20
495.9778600630771166
 30
0.0
 40
0.3671367284467559
 50
331.200528002573094
 51
333.1101327242728871
  0
ARC
  5
1EB70
  8
0
 10
4447.1589429044988719
 20
495.810307924947324
 30
0.0
 40
0.0172543087633651
 50
224.2314083263840985
 51
327.3280459551825743
  0
ARC
  5
1EB71
  8
0
 10
4447.155568570043215
 20
495.8092884896514079
 30
0.0
 40
0.0142183612990548
 50
169.6709074131254056
 51
230.787281798967399
  0
ARC
  5
1EB72
  8
0
 10
4449.9221817510551773
 20
494.6244497315497028
 30
0.0
 40
3.0235133834544969
 50
153.8936008284015031
 51
156.8762725014937871
  0
ARC
  5
1EB73
  8
0
 10
4497.9690581181712332
 20
472.1720391444414986
 30
0.0
 40
56.0570988459779471
 50
154.7231044229033898
 51
154.8960644273566061
  0
ARC
  5
1EB74
  8
0
 10
4447.3554239729337496
 20
496.0828809536394033
 30
0.0
 40
0.080310359262791
 50
147.9485106627249138
 51
161.7415740287181904
  0
ARC
  5
1EB75
  8
0
 10
4447.3002043906144536
 20
496.1160638461706185
 30
0.0
 40
0.0159419426186122
 50
115.6683971179039929
 51
143.7068601054427859
  0
ARC
  5
1EB76
  8
0
 10
4447.3000358952403985
 20
496.1156018087609141
 30
0.0
 40
0.0162892023710532
 50
27.793228612564441
 51
114.4301566017928025
  0
ARC
  5
1EB77
  8
0
 10
4447.2962880858358403
 20
496.1156915491438895
 30
0.0
 40
0.0196479263491409
 50
336.7310568244232059
 51
22.4579857591029786
  0
ARC
  5
1EB78
  8
0
 10
4442.6303743061889691
 20
498.2521663394804818
 30
0.0
 40
5.1895755320360157
 50
331.9508781997760138
 51
335.5965195494978275
  0
ARC
  5
1EB79
  8
0
 10
4445.7532640450672261
 20
496.7570681303744777
 30
0.0
 40
1.761782379876756
 50
327.5543950398823085
 51
338.3835692595288265
  0
ARC
  5
1EB7A
  8
0
 10
4445.8546323100126756
 20
496.7337987654548215
 30
0.0
 40
1.7141653299477619
 50
327.4638933957712084
 51
338.5643360889256996
  0
ARC
  5
1EB7B
  8
0
 10
4445.5692123948965673
 20
496.8569445920630869
 30
0.0
 40
1.998749098934661
 50
328.4153484287231777
 51
338.0249716233523145
  0
ARC
  5
1EB7C
  8
0
 10
4445.8907151507200979
 20
496.7003299883069758
 30
0.0
 40
1.720320586306183
 50
328.9045029965849949
 51
339.8128202609166237
  0
ARC
  5
1EB7D
  8
0
 10
4445.7493250111510861
 20
496.7596048901202153
 30
0.0
 40
1.8476289199851259
 50
329.1384256779209068
 51
339.3829641380706903
  0
ARC
  5
1EB7E
  8
0
 10
4446.3202310699043664
 20
496.5027944499124146
 30
0.0
 40
1.2810710633034179
 50
327.3608757593431733
 51
342.0526464727786902
  0
ARC
  5
1EB7F
  8
0
 10
4446.5974993135987461
 20
496.3779801844029862
 30
0.0
 40
1.002285852932739
 50
325.5942138073157821
 51
344.2295536239536204
  0
ARC
  5
1EB80
  8
0
 10
4446.3196454584985986
 20
496.4634106679409911
 30
0.0
 40
1.315041462059517
 50
330.3039545513527173
 51
344.3217111353965265
  0
ARC
  5
1EB81
  8
0
 10
4446.6946440430438088
 20
496.3164370742504161
 30
0.0
 40
0.9381397924367936
 50
327.4649542643238078
 51
347.3283027094049089
  0
ARC
  5
1EB82
  8
0
 10
4446.4332922100957148
 20
496.4182710226535846
 30
0.0
 40
1.237736405248923
 50
330.7983005715357194
 51
345.4845069793021821
  0
ARC
  5
1EB83
  8
0
 10
4446.7873187788327414
 20
496.2703902676511234
 30
0.0
 40
0.8778704704398753
 50
328.5082837278775969
 51
349.3413182711097988
  0
ARC
  5
1EB84
  8
0
 10
4446.5917684052474215
 20
496.305281207471694
 30
0.0
 40
1.091887420334932
 50
333.1224150429038104
 51
349.5929850592996218
  0
ARC
  5
1EB85
  8
0
 10
4446.6863744262282125
 20
496.2598655362069735
 30
0.0
 40
1.005597632444037
 50
333.5255936467967786
 51
351.3163199786970949
  0
ARC
  5
1EB86
  8
0
 10
4446.5928171356081293
 20
496.2638263305665873
 30
0.0
 40
1.1139805594891561
 50
336.0593871689296748
 51
351.9611775647326795
  0
ARC
  5
1EB87
  8
0
 10
4446.6996432331843607
 20
496.2150188676938001
 30
0.0
 40
1.0132826513340849
 50
336.5527623393929275
 51
353.939622865508511
  0
ARC
  5
1EB88
  8
0
 10
4446.6402000230600606
 20
496.1992042261193774
 30
0.0
 40
1.081942392703759
 50
339.0008962472020926
 51
355.1668650404724872
  0
ARC
  5
1EB89
  8
0
 10
4446.5536236543393898
 20
496.1958865629754882
 30
0.0
 40
1.176203589152256
 50
340.9415321502916072
 51
355.7168132338899795
  0
ARC
  5
1EB8A
  8
0
 10
4446.5833970195908478
 20
496.1557328923674959
 30
0.0
 40
1.1506297446214391
 50
342.6226426805349092
 51
357.6246140787724812
  0
ARC
  5
1EB8B
  8
0
 10
4446.5448482923038682
 20
496.1331012003869887
 30
0.0
 40
1.194352157030274
 50
344.3453884506375857
 51
358.7842206543509747
  0
ARC
  5
1EB8C
  8
0
 10
4446.4058083641812118
 20
496.1157630105727208
 30
0.0
 40
1.337241108463429
 50
346.8654902569799106
 51
359.6691983174944767
  0
ARC
  5
1EB8D
  8
0
 10
4446.3790084111778924
 20
496.0867715426703057
 30
0.0
 40
1.366801371181469
 50
348.3973208378276922
 51
0.8917028982013373
  0
ARC
  5
1EB8E
  8
0
 10
4446.2597898222829826
 20
496.0564842985100995
 30
0.0
 40
1.488332133824311
 50
350.534872366857428
 51
357.9717786785246858
  0
ARC
  5
1EB8F
  8
0
 10
4446.2140663668760681
 20
496.0154939157483227
 30
0.0
 40
1.534756034676118
 50
352.3746685010748934
 51
357.3568882621224816
  0
ARC
  5
1EB90
  8
0
 10
4445.7843957894247069
 20
495.9845528811691793
 30
0.0
 40
1.9639123724084731
 50
354.9544457220645768
 51
358.0661800704854159
  0
ARC
  5
1EB91
  8
0
 10
4446.3204296719650301
 20
495.9008715953473825
 30
0.0
 40
1.4269230728942019
 50
356.3785312478127025
 51
359.1337332044242885
  0
ARC
  5
1EB92
  8
0
 10
4447.1984523576338688
 20
495.8320942401761044
 30
0.0
 40
0.046237458112685
 50
310.0519556776886247
 51
334.067740182203579
  0
ARC
  5
1EB93
  8
0
 10
4447.2197587385198858
 20
495.8067489948817865
 30
0.0
 40
0.0131263825412457
 50
224.807157391230902
 51
310.0519556776865215
  0
ARC
  5
1EB94
  8
0
 10
4447.2165685926784136
 20
495.8035802514792749
 30
0.0
 40
0.0086299433678759
 50
176.695536102422011
 51
224.8071573912285999
  0
ARC
  5
1EB95
  8
0
 10
4447.2246495705421694
 20
495.8031139545881274
 30
0.0
 40
0.0167243634203155
 50
148.3863619722191913
 51
176.6964973246811894
  0
ARC
  5
1EB96
  8
0
 10
4447.2410213098419263
 20
495.8413366417099155
 30
0.0
 40
0.0657200969405555
 50
325.1839848168685876
 51
333.3587095260546107
  0
ARC
  5
1EB97
  8
0
 10
4447.2544185613060108
 20
495.8320197546202053
 30
0.0
 40
0.0494016799891937
 50
313.8791807357694097
 51
325.1839848168712024
  0
ARC
  5
1EB98
  8
0
 10
4447.2818235962349718
 20
495.8035209908188108
 30
0.0
 40
0.0098641601160363
 50
249.4137634842763873
 51
313.8791807357694097
  0
ARC
  5
1EB99
  8
0
 10
4447.2828847275941371
 20
495.8063461454790968
 30
0.0
 40
0.0128820233694223
 50
203.1188717974150109
 51
249.4137634842763873
  0
ARC
  5
1EB9A
  8
0
 10
4447.2808501445661022
 20
495.8047850582912019
 30
0.0
 40
0.0104173731264348
 50
149.4231513295383991
 51
199.6139371851008946
  0
ARC
  5
1EB9B
  8
0
 10
4447.318509574150994
 20
495.8318118407311204
 30
0.0
 40
0.0495328833945133
 50
322.5262504430747867
 51
336.2249835039921777
  0
ARC
  5
1EB9C
  8
0
 10
4447.3353521784083568
 20
495.8189003116153231
 30
0.0
 40
0.0283107039065992
 50
301.7168201750926073
 51
322.5262504430747867
  0
ARC
  5
1EB9D
  8
0
 10
4447.3446967617846894
 20
495.8065524635184147
 30
0.0
 40
0.0129763885468293
 50
226.8166861110314869
 51
295.2677602451549888
  0
ARC
  5
1EB9E
  8
0
 10
4447.3448357125489565
 20
495.8047576076453993
 30
0.0
 40
0.011837633255278
 50
143.2842686555607941
 51
220.3676261810801122
  0
ARC
  5
1EB9F
  8
0
 10
4447.4241620525754115
 20
495.7955156786661064
 30
0.0
 40
0.0300022361162623
 50
147.0064502224346938
 51
159.4078434571781031
  0
ARC
  5
1EBA0
  8
0
 10
4447.4065944531912464
 20
495.8042719197779888
 30
0.0
 40
0.0106699563906732
 50
170.3099356574792012
 51
214.2127415418042915
  0
ARC
  5
1EBA1
  8
0
 10
4447.4068813305320873
 20
495.8044981378893112
 30
0.0
 40
0.011034416339437
 50
214.3465543970341116
 51
264.4420403329365854
  0
ARC
  5
1EBA2
  8
0
 10
4447.4052538394125804
 20
495.8044304646401201
 30
0.0
 40
0.0109291611327159
 50
272.930658030149516
 51
316.5151118214322992
  0
ARC
  5
1EBA3
  8
0
 10
4447.3545156662221416
 20
495.8534200080246137
 30
0.0
 40
0.0814577693651961
 50
316.0730281346993138
 51
329.141102281379176
  0
ARC
  5
1EBA4
  8
0
 10
4447.4236922994059569
 20
495.8434263052786264
 30
0.0
 40
0.0694364624729489
 50
318.1961803859003908
 51
332.9891222739756245
  0
ARC
  5
1EBA5
  8
0
 10
4447.4642127780671217
 20
495.8071919549520885
 30
0.0
 40
0.0150780469840375
 50
302.6432987698382249
 51
318.1961803859003908
  0
ARC
  5
1EBA6
  8
0
 10
4447.4678978962756446
 20
495.8014392788088003
 30
0.0
 40
0.0082462551971837
 50
271.3269112417389124
 51
302.6432987698364059
  0
ARC
  5
1EBA7
  8
0
 10
4447.4679538210166356
 20
495.7990248906666011
 30
0.0
 40
0.005831219446354
 50
230.1525934459394875
 51
271.3269112417389124
  0
ARC
  5
1EBA8
  8
0
 10
4447.4711588139380183
 20
495.8050840244212054
 30
0.0
 40
0.0126170817405343
 50
212.3897272233128888
 51
236.622527053415098
  0
ARC
  5
1EBA9
  8
0
 10
4447.4685675591263134
 20
495.8033791604200928
 30
0.0
 40
0.0095158499881732
 50
169.1156722054836052
 51
212.0792989373391038
  0
ARC
  5
1EBAA
  8
0
 10
4447.5036313150039859
 20
495.7910401115245804
 30
0.0
 40
0.0466039837603733
 50
153.3541368420904121
 51
162.342910828652407
  0
ARC
  5
1EBAB
  8
0
 10
4447.4624130695701751
 20
495.8491439946719765
 30
0.0
 40
0.082419070609743
 50
326.2709193289238101
 51
333.0670082761665753
  0
ARC
  5
1EBAC
  8
0
 10
4447.4813951207879654
 20
495.8364706158944841
 30
0.0
 40
0.0595951183209884
 50
317.3488523644978727
 51
326.2709193289265954
  0
ARC
  5
1EBAD
  8
0
 10
4447.519926560597014
 20
495.8009756069128002
 30
0.0
 40
0.0072064982169715
 50
233.7843099317277051
 51
317.348852364500317
  0
ARC
  5
1EBAE
  8
0
 10
4447.5229629087953072
 20
495.8051218677784959
 30
0.0
 40
0.0123456508265494
 50
147.5711012461372036
 51
233.7843099317238114
  0
ARC
  5
1EBAF
  8
0
 10
4447.6115635719306738
 20
495.7693507320369122
 30
0.0
 40
0.1077136020349303
 50
155.2785598543231913
 51
156.8239450149854122
  0
ARC
  5
1EBB0
  8
0
 10
4447.5373311754619863
 20
495.832591384953389
 30
0.0
 40
0.0534903397915883
 50
325.9573647486959089
 51
336.8615379171665154
  0
ARC
  5
1EBB1
  8
0
 10
4447.5271402827493148
 20
495.8394816589780021
 30
0.0
 40
0.0657919719674979
 50
317.5809636650230914
 51
325.9534744213599993
  0
ARC
  5
1EBB2
  8
0
 10
4447.5721991196942326
 20
495.7986478955306779
 30
0.0
 40
0.0049900536005208
 50
234.7070154052551914
 51
314.7141601730355092
  0
ARC
  5
1EBB3
  8
0
 10
4447.5747882643881894
 20
495.8038479681297872
 30
0.0
 40
0.0107672317465755
 50
188.4077279686796089
 51
239.4542670269923121
  0
ARC
  5
1EBB4
  8
0
 10
4447.578310300135854
 20
495.8045612587015967
 30
0.0
 40
0.0143569754956526
 50
164.3366150600612059
 51
189.168575777440509
  0
ARC
  5
1EBB5
  8
0
 10
4447.5828499553790607
 20
495.8033258465166
 30
0.0
 40
0.0190616254455545
 50
154.0919034627353028
 51
164.4451405689879948
  0
ARC
  5
1EBB6
  8
0
 10
4447.5416734508053196
 20
495.8456999331148722
 30
0.0
 40
0.0939037963072292
 50
330.0783248447007736
 51
338.8570750272111241
  0
ARC
  5
1EBB7
  8
0
 10
4447.6055815559966504
 20
495.808918965012424
 30
0.0
 40
0.0201672007541216
 50
316.2268929100645778
 51
330.0783248447007736
  0
ARC
  5
1EBB8
  8
0
 10
4447.6169062738563298
 20
495.7980691501257979
 30
0.0
 40
0.0044838427701281
 50
242.8307735097137083
 51
316.2268929100645778
  0
ARC
  5
1EBB9
  8
0
 10
4447.6186840960053814
 20
495.801532992763498
 30
0.0
 40
0.0083772805067668
 50
204.3242684357350925
 51
242.8307735097137083
  0
ARC
  5
1EBBA
  8
0
 10
4447.6261137461196995
 20
495.8048913976372205
 30
0.0
 40
0.0165307205248989
 50
179.8191194353319133
 51
204.3242684357261112
  0
ARC
  5
1EBBB
  8
0
 10
4447.6275715883939483
 20
495.8048867952701926
 30
0.0
 40
0.017988570063633
 50
157.4518772404910862
 51
179.8191194353319133
  0
ARC
  5
1EBBC
  8
0
 10
4447.5905602494749473
 20
495.8346139951004261
 30
0.0
 40
0.0781913319364246
 50
337.0497159923261279
 51
343.0493368027317729
  0
ARC
  5
1EBBD
  8
0
 10
4447.5551483179597199
 20
495.8496092179627226
 30
0.0
 40
0.1166473015931799
 50
333.4159211408476153
 51
337.0497159923261279
  0
ARC
  5
1EBBE
  8
0
 10
4447.6517045153568688
 20
495.8012910302334149
 30
0.0
 40
0.0086762567650413
 50
304.7106374897023215
 51
333.4159211408505143
  0
ARC
  5
1EBBF
  8
0
 10
4447.6549237750532484
 20
495.7971395644054269
 30
0.0
 40
0.0034420450272138
 50
224.6167094569854044
 51
300.0049467296967123
  0
ARC
  5
1EBC0
  8
0
 10
4447.6608893064440053
 20
495.8028490441110989
 30
0.0
 40
0.0116992276680391
 50
185.5861368379268015
 51
224.0004789344610003
  0
ARC
  5
1EBC1
  8
0
 10
4447.6692515752656618
 20
495.8045214344633109
 30
0.0
 40
0.0202024861310441
 50
165.1734813708569902
 51
187.9987829041158136
  0
ARC
  5
1EBC2
  8
0
 10
4447.7200917165073406
 20
495.788548827915406
 30
0.0
 40
0.0734774201448965
 50
161.8097204612139137
 51
163.2773859288575977
  0
ARC
  5
1EBC3
  8
0
 10
4447.4820423962728455
 20
495.8869886128939015
 30
0.0
 40
0.2260723759198453
 50
336.3494820487916854
 51
340.3105599439929279
  0
ARC
  5
1EBC4
  8
0
 10
4447.6835622670178054
 20
495.7987350692308155
 30
0.0
 40
0.0060747707644309
 50
311.2409011967467904
 51
336.3494820487767925
  0
ARC
  5
1EBC5
  8
0
 10
4447.6858717398254157
 20
495.796428525076692
 30
0.0
 40
0.0028261830652816
 50
214.4514236599104891
 51
306.8563838404975854
  0
ARC
  5
1EBC6
  8
0
 10
4447.7028218682053193
 20
495.8059914413626075
 30
0.0
 40
0.0222783729746529
 50
179.2107159131784897
 51
210.0669063036550028
  0
ARC
  5
1EBC7
  8
0
 10
4447.0144899625793187
 20
495.9203638863504011
 30
0.0
 40
0.6757522292980251
 50
350.2820662705386212
 51
350.779194404025418
  0
ARC
  5
1EBC8
  8
0
 10
4447.6019330514418471
 20
495.833309766925197
 30
0.0
 40
0.1179118733613796
 50
344.6346082535383175
 51
349.5263595186784187
  0
ARC
  5
1EBC9
  8
0
 10
4447.6480181373926825
 20
495.820645763054074
 30
0.0
 40
0.0701184413729382
 50
339.6830807550109057
 51
344.6346082535383175
  0
ARC
  5
1EBCA
  8
0
 10
4447.7089436927371935
 20
495.7980882606565842
 30
0.0
 40
0.0051510325556554
 50
308.8022546935463879
 51
339.6830807550139184
  0
ARC
  5
1EBCB
  8
0
 10
4447.7116976377728861
 20
495.7962831184055972
 30
0.0
 40
0.0022593782064359
 50
193.1661809059193047
 51
282.1067939888371257
  0
ARC
  5
1EBCC
  8
0
 10
4447.7282182794042455
 20
495.8048137871685981
 30
0.0
 40
0.0207913302942914
 50
178.299305424322597
 51
205.7885766042292062
  0
ARC
  5
1EBCD
  8
0
 10
4447.7366089908073263
 20
495.8058460632748847
 30
0.0
 40
0.0291758379560524
 50
168.0419820968413944
 51
180.8154472502922943
  0
ARC
  5
1EBCE
  8
0
 10
4445.4428485075350181
 20
496.1168541970673118
 30
0.0
 40
2.312606141206317
 50
352.2395343890482877
 51
352.4210702988539197
  0
ARC
  5
1EBCF
  8
0
 10
4447.6069147192656601
 20
495.8219350931170197
 30
0.0
 40
0.1285365803564173
 50
349.0498005196686222
 51
352.2395343890482877
  0
ARC
  5
1EBD0
  8
0
 10
4447.7220581583278545
 20
495.7996573204629271
 30
0.0
 40
0.0112578068571839
 50
333.920936665976626
 51
349.0498005196718054
  0
ARC
  5
1EBD1
  8
0
 10
4447.7306430719181662
 20
495.7954555039225966
 30
0.0
 40
0.0016997733986132
 50
245.7581662122404111
 51
333.9209366660028877
  0
ARC
  5
1EBD2
  8
0
 10
4447.7336426583660796
 20
495.7975772742029221
 30
0.0
 40
0.005210810200936
 50
196.129180734956492
 51
224.799124561161193
  0
ARC
  5
1EBD3
  8
0
 10
4447.7677811141802522
 20
495.8059005085693798
 30
0.0
 40
0.0403451845124941
 50
171.6891871573978108
 51
194.0152725470701967
  0
ARC
  5
1EBD4
  8
0
 10
4447.8125200982940441
 20
495.8058556199198961
 30
0.0
 40
0.0720701382070045
 50
175.2524759160529015
 51
184.1388782327464924
  0
ARC
  5
1EBD5
  8
0
 10
4447.7988234576314426
 20
495.8048644904013145
 30
0.0
 40
0.0583376838320597
 50
184.1388782327431954
 51
189.1865215025038935
  0
ARC
  5
1EBD6
  8
0
 10
4447.7484605499339523
 20
495.7967196371831164
 30
0.0
 40
0.0073204210109728
 50
189.1865215025005966
 51
204.4877582848712905
  0
ARC
  5
1EBD7
  8
0
 10
4447.7429122709236253
 20
495.7941925722603855
 30
0.0
 40
0.001223745105714
 50
204.4877582847726956
 51
231.4284060905415004
  0
ARC
  5
1EBD8
  8
0
 10
4447.7422295569976995
 20
495.7935622519900107
 30
0.0
 40
0.0003361668739122
 50
256.1834349095489074
 51
333.2192369356399126
  0
ARC
  5
1EBD9
  8
0
 10
4447.7069775058962477
 20
495.8035677222517847
 30
0.0
 40
0.03697457891048
 50
344.0558263691115144
 51
357.9775116224196267
  0
ARC
  5
1EBDA
  8
0
 10
4447.3519412554551309
 20
495.8330754164883274
 30
0.0
 40
0.3931969584339028
 50
355.5054500020452224
 51
356.7436893013518784
  0
ARC
  5
1EBDB
  8
0
 10
4447.397509732771141
 20
496.1190709370608829
 30
0.0
 40
0.3483092204702492
 50
358.1855474453553256
 51
1.1380377907640791
  0
ARC
  5
1EBDC
  8
0
 10
4447.6991190394783189
 20
496.1250624418059942
 30
0.0
 40
0.0466404086559984
 50
1.1380377907640791
 51
6.5269547688680989
  0
ARC
  5
1EBDD
  8
0
 10
4447.7412992005247361
 20
496.1298883664229038
 30
0.0
 40
0.0041850728979362
 50
6.5269547688810441
 51
28.7363326203654488
  0
ARC
  5
1EBDE
  8
0
 10
4448.2556824624452929
 20
496.0783285960649778
 30
0.0
 40
0.5135156697665197
 50
174.0117950594296019
 51
176.6828153934540069
  0
ARC
  5
1EBDF
  8
0
 10
4447.6806141934221159
 20
496.1140376334618054
 30
0.0
 40
0.0586543185472164
 50
353.855727195699501
 51
17.3515936395721191
  0
ARC
  5
1EBE0
  8
0
 10
4447.8110631558865862
 20
496.1082096604486082
 30
0.0
 40
0.0780302524437355
 50
162.6103988779310043
 51
180.204464260461009
  0
ARC
  5
1EBE1
  8
0
 10
4447.6522586124747249
 20
496.1168812067414251
 30
0.0
 40
0.0748078328204812
 50
353.2129872902598891
 51
5.3963497302311261
  0
ARC
  5
1EBE2
  8
0
 10
4447.7080640610920454
 20
496.1221527876983259
 30
0.0
 40
0.0187539510531145
 50
5.3963497302246406
 51
23.3198829069379201
  0
ARC
  5
1EBE3
  8
0
 10
4447.7237698800272483
 20
496.1289232440710748
 30
0.0
 40
0.0016509738890638
 50
23.3198829068990392
 51
150.3415809454380963
  0
ARC
  5
1EBE4
  8
0
 10
4448.037654894274965
 20
496.0681122880188809
 30
0.0
 40
0.3218465901826942
 50
169.7040751397823897
 51
172.8725288677973992
  0
ARC
  5
1EBE5
  8
0
 10
4447.7365554594271089
 20
496.1228092066476165
 30
0.0
 40
0.0158194303204801
 50
154.0152958304487072
 51
169.7040751397919962
  0
ARC
  5
1EBE6
  8
0
 10
4447.643124191104107
 20
496.1188769469096087
 30
0.0
 40
0.0650477020173142
 50
350.4099138849355199
 51
2.345176935840628
  0
ARC
  5
1EBE7
  8
0
 10
4447.6852229143041768
 20
496.1206010551725853
 30
0.0
 40
0.0229136891008837
 50
2.345176935840628
 51
19.2267700898949911
  0
ARC
  5
1EBE8
  8
0
 10
4447.6934863153219339
 20
496.1234830056504279
 30
0.0
 40
0.0141621500974086
 50
19.2267700898980713
 51
30.536427726382481
  0
ARC
  5
1EBE9
  8
0
 10
4447.7034217199570776
 20
496.1293439179490861
 30
0.0
 40
0.0026268755784854
 50
30.5364277264313984
 51
141.0024407730938947
  0
ARC
  5
1EBEA
  8
0
 10
4447.815337442631062
 20
496.0945665703187046
 30
0.0
 40
0.1202437846063625
 50
168.3585846225836065
 51
173.5651132432442978
  0
ARC
  5
1EBEB
  8
0
 10
4447.8580167405489192
 20
496.0857736138769951
 30
0.0
 40
0.1638194493041207
 50
165.5628641624255977
 51
168.3585846225836065
  0
ARC
  5
1EBEC
  8
0
 10
4447.7125360795098459
 20
496.1232272239753911
 30
0.0
 40
0.0135949651288369
 50
145.1439229408474887
 51
165.5628641624350053
  0
ARC
  5
1EBED
  8
0
 10
4447.8092739955873185
 20
496.0869710223514062
 30
0.0
 40
0.1451186042054257
 50
167.1086148041962929
 51
171.652277189430805
  0
ARC
  5
1EBEE
  8
0
 10
4447.7378532346347129
 20
496.1033172587484046
 30
0.0
 40
0.0718511179700352
 50
160.4702620126203954
 51
167.1086148041931096
  0
ARC
  5
1EBEF
  8
0
 10
4447.6773868393502198
 20
496.1247648579521865
 30
0.0
 40
0.0076936205872451
 50
132.8560503239027923
 51
160.4702620126265913
  0
ARC
  5
1EBF0
  8
0
 10
4447.675287210321585
 20
496.1270278064167201
 30
0.0
 40
0.0046066515544682
 50
49.5678662726800923
 51
132.8560503239094999
  0
ARC
  5
1EBF1
  8
0
 10
4447.6646079394467961
 20
496.1206331995365986
 30
0.0
 40
0.0168764754673141
 50
0.7367088340963398
 51
35.9216912956124332
  0
ARC
  5
1EBF2
  8
0
 10
4447.6336787296922921
 20
496.1182782248957892
 30
0.0
 40
0.0478734286292117
 50
347.6527448440631929
 51
3.0796581547861872
  0
ARC
  5
1EBF3
  8
0
 10
4447.6108594806837573
 20
496.1169493758242197
 30
0.0
 40
0.0401876864086137
 50
347.1638512134583152
 51
0.3737007123564463
  0
ARC
  5
1EBF4
  8
0
 10
4447.6284226257021146
 20
496.1170639296871059
 30
0.0
 40
0.0226241678121115
 50
0.3737007123564463
 51
27.8776718613773689
  0
ARC
  5
1EBF5
  8
0
 10
4447.6428275517328075
 20
496.1246837595838883
 30
0.0
 40
0.0063280424559802
 50
27.8776718613831207
 51
132.8776745161164001
  0
ARC
  5
1EBF6
  8
0
 10
4447.7116628845542436
 20
496.0945454234064869
 30
0.0
 40
0.0812715394366622
 50
162.3267120397723886
 51
170.4403359365647077
  0
ARC
  5
1EBF7
  8
0
 10
4447.6908498744387543
 20
496.1011118745140038
 30
0.0
 40
0.0594473692527434
 50
151.6717228158586863
 51
162.266894888842387
  0
ARC
  5
1EBF8
  8
0
 10
4447.5882259082081873
 20
496.1166722829519813
 30
0.0
 40
0.022529515916705
 50
344.4767096563459177
 51
26.2790890623010185
  0
ARC
  5
1EBF9
  8
0
 10
4447.5999355606081735
 20
496.1224542370911763
 30
0.0
 40
0.0094701532594123
 50
26.2790890623039317
 51
65.3757940905298227
  0
ARC
  5
1EBFA
  8
0
 10
4447.6000183401865797
 20
496.1226348417479244
 30
0.0
 40
0.0092714814172542
 50
65.375794090531187
 51
153.8752360080401047
  0
ARC
  5
1EBFB
  8
0
 10
4447.6512246113261426
 20
496.0975216989025967
 30
0.0
 40
0.0663043854945888
 50
153.8752360080401047
 51
170.872577387882103
  0
ARC
  5
1EBFC
  8
0
 10
4447.541397329389838
 20
496.1154982599575192
 30
0.0
 40
0.0229196481005157
 50
334.3446272720761954
 51
15.0517523805403393
  0
ARC
  5
1EBFD
  8
0
 10
4447.5434587566041955
 20
496.1160526138658042
 30
0.0
 40
0.0207849840954818
 50
15.0517523805340492
 51
38.9553353788745511
  0
ARC
  5
1EBFE
  8
0
 10
4447.5538608327997281
 20
496.1244626312637251
 30
0.0
 40
0.0074084530871676
 50
38.9553353788745511
 51
92.4468186518767681
  0
ARC
  5
1EBFF
  8
0
 10
4447.5539696932992229
 20
496.1219150558840738
 30
0.0
 40
0.0099583532660373
 50
92.4468186518767681
 51
122.6013674371594959
  0
ARC
  5
1EC00
  8
0
 10
4447.5614710116669812
 20
496.1157728606573869
 30
0.0
 40
0.0194092478772936
 50
131.5229892652536137
 51
167.8649138923676958
  0
ARC
  5
1EC01
  8
0
 10
4448.3575996660056262
 20
495.869806652941179
 30
0.0
 40
0.8525948844300666
 50
162.9457597532984892
 51
163.7742210713722102
  0
ARC
  5
1EC02
  8
0
 10
4447.4296419921784036
 20
496.117004371319581
 30
0.0
 40
0.0764172358516756
 50
352.2259538431654278
 51
4.4223962741710521
  0
ARC
  5
1EC03
  8
0
 10
4447.4962588770767979
 20
496.1221564560046886
 30
0.0
 40
0.009601419383648
 50
4.4223962741678049
 51
74.6487459683954881
  0
ARC
  5
1EC04
  8
0
 10
4447.495660375974694
 20
496.1199763685650055
 30
0.0
 40
0.011862168112324
 50
74.6487459683954881
 51
146.4515516298853015
  0
ARC
  5
1EC05
  8
0
 10
4447.5589681232941075
 20
496.0864256749554215
 30
0.0
 40
0.0834617066321477
 50
151.2796867601618089
 51
164.2947006931850922
  0
ARC
  5
1EC06
  8
0
 10
4447.4292501118497967
 20
496.1176619198063236
 30
0.0
 40
0.0233754385057572
 50
333.8131175841717209
 51
24.3818289161778914
  0
ARC
  5
1EC07
  8
0
 10
4447.4407367261055697
 20
496.1191310959484895
 30
0.0
 40
0.0127687760484812
 50
39.8417835348304692
 51
154.0041049891333955
  0
ARC
  5
1EC08
  8
0
 10
4447.5113332344290029
 20
496.0815122400928772
 30
0.0
 40
0.092755720294201
 50
152.2310925250959883
 51
162.7567257582072955
  0
ARC
  5
1EC09
  8
0
 10
4447.3690547230817174
 20
496.1162198185380134
 30
0.0
 40
0.0235520554357308
 50
339.685181417812089
 51
5.4853128393766983
  0
ARC
  5
1EC0A
  8
0
 10
4447.3775774433106562
 20
496.1170383811912075
 30
0.0
 40
0.0149901161172868
 50
5.4848450707491994
 51
54.0113296587860603
  0
ARC
  5
1EC0B
  8
0
 10
4447.3776627736533555
 20
496.1171558771820855
 30
0.0
 40
0.0148449039446154
 50
54.0113296587879574
 51
125.4460507576660007
  0
ARC
  5
1EC0C
  8
0
 10
4447.3944247925328455
 20
496.0995632594077733
 30
0.0
 40
0.0390507838195629
 50
130.5186411760379031
 51
167.459089388113199
  0
LINE
  5
1EC0D
  8
0
 10
4446.974832112855438
 20
496.0163490249548204
 30
0.0
 11
4446.9253312578703117
 21
496.1080421572231103
 31
0.0
  0
ARC
  5
1EC0E
  8
0
 10
4446.9474196437786304
 20
496.1199666488473099
 30
0.0
 40
0.0251015994027461
 50
172.8530543615671036
 51
208.3625454659861873
  0
ARC
  5
1EC0F
  8
0
 10
4446.9348138427440063
 20
496.1183440419756039
 30
0.0
 40
0.0131844487741859
 50
101.0773333982859015
 51
158.9034909432272116
  0
ARC
  5
1EC10
  8
0
 10
4446.9360377442317258
 20
496.1163592176866928
 30
0.0
 40
0.0153892944663063
 50
41.2944407798033666
 51
104.1307729325269946
  0
ARC
  5
1EC11
  8
0
 10
4446.878563236185073
 20
496.0835987161884759
 30
0.0
 40
0.0812890418445186
 50
17.4832649426066418
 51
31.8668747075863017
  0
ARC
  5
1EC12
  8
0
 10
4446.9705216316178849
 20
496.1135163231598995
 30
0.0
 40
0.015436148239799
 50
200.8583077529671925
 51
236.701425526235397
  0
ARC
  5
1EC13
  8
0
 10
4446.9532166554672585
 20
496.11364352859988
 30
0.0
 40
0.0157395741659859
 50
304.1276142511317175
 51
339.2319447153432748
  0
ARC
  5
1EC14
  8
0
 10
4447.0166823660747468
 20
496.0944869847450036
 30
0.0
 40
0.0506037933017548
 50
142.9152798355463858
 51
164.4386097366783872
  0
ARC
  5
1EC15
  8
0
 10
4446.9941397336669979
 20
496.107061453256506
 30
0.0
 40
0.0252902657710956
 50
81.1861623069724203
 51
134.8188163984445964
  0
ARC
  5
1EC16
  8
0
 10
4447.000186926976312
 20
496.1141874412264201
 30
0.0
 40
0.0179971932220548
 50
340.055210539956704
 51
96.9320020313755037
  0
ARC
  5
1EC17
  8
0
 10
4446.3797711736233396
 20
496.3462601183985043
 30
0.0
 40
0.6803960985889042
 50
330.9953284001995257
 51
339.5061092513622043
  0
LINE
  5
1EC19
  8
0
 10
4447.4331885470110137
 20
487.0477742494547897
 30
0.0
 11
4446.4875192557583432
 21
487.0477742494547897
 31
0.0
  0
ARC
  5
1EC1A
  8
0
 10
4446.5060140149389554
 20
487.0280121505920761
 30
0.0
 40
0.0198247669967729
 50
94.5569203420613746
 51
179.7763544841459122
  0
LINE
  5
1EC1B
  8
0
 10
4446.4861893989691453
 20
487.0280895334119009
 30
0.0
 11
4446.4861893989691453
 21
486.0162866738320986
 31
0.0
  0
ARC
  5
1EC1C
  8
0
 10
4446.9596893993693811
 20
486.0162785100675933
 30
0.0
 40
0.4735000004696253
 50
179.9990121451799041
 51
220.4871909613983121
  0
ARC
  5
1EC1D
  8
0
 10
4446.9596893989037198
 20
486.0162785096713947
 30
0.0
 40
0.4734999998594664
 50
220.4871909613983121
 51
270.0000312952021773
  0
ARC
  5
1EC1E
  8
0
 10
4446.9596893989037198
 20
486.0162785099641951
 30
0.0
 40
0.4735000001522383
 50
270.0000312952021773
 51
316.1134572910846146
  0
ARC
  5
1EC1F
  8
0
 10
4446.959689399130184
 20
486.0162785097471101
 30
0.0
 40
0.473499999839138
 50
316.1134572910846146
 51
0.0000000078425863
  0
LINE
  5
1EC20
  8
0
 10
4447.4331893989692617
 20
486.0162785098119116
 30
0.0
 11
4447.4331893988310185
 21
487.0280895334119009
 31
0.0
  0
ARC
  5
1EC21
  8
0
 10
4447.4135030390043539
 20
487.0280894806833771
 30
0.0
 40
0.019686359827023
 50
0.000153462845889
 51
89.2715486998752965
  0
LINE
  5
1EC22
  8
0
 10
4438.3363218495178444
 20
492.602268479986094
 30
0.0
 11
4438.1695892116213145
 21
492.557445369592017
 31
0.0
  0
LINE
  5
1EC23
  8
0
 10
4438.1542386501159854
 20
492.5595439412119276
 30
0.0
 11
4437.156839427379964
 21
493.1353926509676171
 31
0.0
  0
ARC
  5
1EC24
  8
0
 10
4438.1655358327443537
 20
492.5818616543360235
 30
0.0
 40
0.0250141290955225
 50
243.1515565307061877
 51
267.9913061963420091
  0
ARC
  5
1EC25
  8
0
 10
4438.1643068019102429
 20
492.581000504461997
 30
0.0
 40
0.0241401787711359
 50
270.8360982781688904
 51
282.6398710880725957
  0
ARC
  5
1EC26
  8
0
 10
4437.1661421389253519
 20
493.1532352190619122
 30
0.0
 40
0.0201220694327232
 50
195.0691300220815094
 51
242.463482413717486
  0
LINE
  5
1EC27
  8
0
 10
4437.1467120101888213
 20
493.1480037971098795
 30
0.0
 11
4437.104443927214561
 21
493.3175765161462891
 31
0.0
  0
ARC
  5
1EC28
  8
0
 10
4437.1266382272078772
 20
493.3235592565226284
 30
0.0
 40
0.0229865207156925
 50
149.9699208869085965
 51
195.0861833119340076
  0
LINE
  5
1EC29
  8
0
 10
4438.7460849220160526
 20
493.3002832119120171
 30
0.0
 11
4437.5014383420875674
 21
494.0188722415098823
 31
0.0
  0
LINE
  5
1EC2A
  8
0
 10
4437.1067373527939708
 20
493.3350629660175173
 30
0.0
 11
4437.5014383420875674
 21
494.0188722415098823
 31
0.0
  0
ARC
  5
1EC2B
  8
0
 10
4438.3311241128621987
 20
492.6216148278733726
 30
0.0
 40
0.0200324148051729
 50
285.0383969578996926
 51
329.961603042108095
  0
LINE
  5
1EC2C
  8
0
 10
4438.3484659766918412
 20
492.6115869965119032
 30
0.0
 11
4438.7460849220160526
 21
493.3002832119119034
 31
0.0
  0
ARC
  5
1EC2D
  8
0
 10
4437.484168272199895
 20
493.5022356104739174
 30
0.0
 40
0.5041866950978638
 50
293.4379668496029012
 51
310.4904225673316773
  0
ARC
  5
1EC2E
  8
0
 10
4437.4413356821787602
 20
493.6121117556214131
 30
0.0
 40
0.5852839209628763
 50
288.4568148015275142
 51
314.4246261687918036
  0
ARC
  5
1EC2F
  8
0
 10
4437.2707023203338395
 20
493.8843453098388068
 30
0.0
 40
0.8719027086682416
 50
293.0159715594456884
 51
316.2508201011855249
  0
ARC
  5
1EC30
  8
0
 10
4437.1905312300232254
 20
494.0747172319141782
 30
0.0
 40
1.042630587468321
 50
291.4799165316742915
 51
316.0321039263121747
  0
ARC
  5
1EC31
  8
0
 10
4437.1054046693607233
 20
494.2284601703490239
 30
0.0
 40
1.1838873402294221
 50
291.3185163872645944
 51
318.9678080963370235
  0
ARC
  5
1EC32
  8
0
 10
4436.9834639657219668
 20
494.4577736253154967
 30
0.0
 40
1.411219094522139
 50
291.551392320644311
 51
318.4353088945002241
  0
ARC
  5
1EC33
  8
0
 10
4436.7682506116016157
 20
494.7803341339787835
 30
0.0
 40
1.7614264812342979
 50
293.4386630634515996
 51
319.9316509913127788
  0
ARC
  5
1EC34
  8
0
 10
4436.6090388516067833
 20
495.0090538267477882
 30
0.0
 40
2.0032860600771678
 50
294.3447974816933765
 51
318.1515849978143819
  0
ARC
  5
1EC35
  8
0
 10
4436.3865219175077073
 20
495.3007164448619051
 30
0.0
 40
2.3329204056122919
 50
295.8665336351463111
 51
316.2968317166677252
  0
ARC
  5
1EC36
  8
0
 10
4436.3155657326551591
 20
495.3298816363270021
 30
0.0
 40
2.3594210916738159
 50
296.5995219254472772
 51
316.7088433465996786
  0
ARC
  5
1EC37
  8
0
 10
4436.0696788298173487
 20
495.6181134011213771
 30
0.0
 40
2.70117729735576
 50
298.1475066778783116
 51
315.6580902326759883
  0
ARC
  5
1EC38
  8
0
 10
4435.9087482307950268
 20
495.8340638720745801
 30
0.0
 40
2.9367352309573991
 50
298.5543308018471862
 51
314.6852198120122921
  0
ARC
  5
1EC39
  8
0
 10
4435.4622161154629794
 20
496.310156651361126
 30
0.0
 40
3.548285845192352
 50
300.9840685701477128
 51
314.2239894952580244
  0
ARC
  5
1EC3A
  8
0
 10
4433.4197671050906138
 20
498.8552017095997826
 30
0.0
 40
6.769306371564892
 50
304.596901368377587
 51
311.5034323862735732
  0
ARC
  5
1EC3B
  8
0
 10
4432.1486893665341995
 20
500.1922248216291109
 30
0.0
 40
8.5735538981990391
 50
306.4447191124729102
 51
311.8556723118085756
  0
ARC
  5
1EC3C
  8
0
 10
4429.0270221615055561
 20
503.8551071585227987
 30
0.0
 40
13.3565133540830097
 50
307.7818397029636799
 51
311.3047591894023753
  0
ARC
  5
1EC3D
  8
0
 10
4420.3369957307641016
 20
513.4391373854545009
 30
0.0
 40
26.2565550614603396
 50
309.9713683523659142
 51
311.7187052187811105
  0
ARC
  5
1EC3E
  8
0
 10
4468.0152921510361921
 20
459.2183795307382184
 30
0.0
 40
45.9737806046989519
 50
131.1138629886852129
 51
132.1072640076725122
  0
ARC
  5
1EC3F
  8
0
 10
4444.2447226850808875
 20
486.3598527905829769
 30
0.0
 40
9.9314362131355232
 50
130.8296551539808092
 51
135.3912414738356063
  0
ARC
  5
1EC40
  8
0
 10
4441.785502130794157
 20
489.2876529677220105
 30
0.0
 40
6.1475412961889271
 50
131.453992537346295
 51
138.7538531692123058
  0
ARC
  5
1EC41
  8
0
 10
4441.6127568808096839
 20
489.6778880492539088
 30
0.0
 40
5.7788576550683972
 50
132.853044928770089
 51
140.5647888238682128
  0
ARC
  5
1EC42
  8
0
 10
4441.0129824602563531
 20
490.4184633802535132
 30
0.0
 40
4.859993849425309
 50
133.7216813314763044
 51
142.8386062719002041
  0
ARC
  5
1EC43
  8
0
 10
4440.8774194400793931
 20
490.6874853187694043
 30
0.0
 40
4.599859054974452
 50
134.9155994952351136
 51
144.5025447203063038
  0
ARC
  5
1EC44
  8
0
 10
4440.552096594548857
 20
491.0966819124579956
 30
0.0
 40
4.1061420030661333
 50
135.8274232838384137
 51
146.52386998978821
  0
ARC
  5
1EC45
  8
0
 10
4439.9788257158143097
 20
491.6626284895186245
 30
0.0
 40
3.3227608194884048
 50
136.0351082583109132
 51
149.2156455590067878
  0
ARC
  5
1EC46
  8
0
 10
4440.7088614888416487
 20
491.227382166632708
 30
0.0
 40
4.1769613942883312
 50
138.765319423552512
 51
147.6295437573425886
  0
ARC
  5
1EC47
  8
0
 10
4440.7803848062376346
 20
491.3066430976221
 30
0.0
 40
4.2010481456394571
 50
140.2785007306968055
 51
147.104126448209513
  0
ARC
  5
1EC48
  8
0
 10
4440.6674663739831885
 20
491.5232525821584204
 30
0.0
 40
3.9919624678642549
 50
141.6711184118632048
 51
148.0386729505102892
  0
ARC
  5
1EC49
  8
0
 10
4440.1994398044244008
 20
491.9709755313855908
 30
0.0
 40
3.3606978424115428
 50
142.7429032543680876
 51
149.2979931509244977
  0
ARC
  5
1EC4A
  8
0
 10
4440.1238273792678228
 20
492.1457649196448187
 30
0.0
 40
3.2073812743614849
 50
144.4362894050796058
 51
148.4556750906446894
  0
ARC
  5
1EC4B
  8
0
 10
4440.4615022950156344
 20
492.0471684602225082
 30
0.0
 40
3.550080261898771
 50
146.325576807015608
 51
148.819005679560604
  0
ARC
  5
1EC4C
  8
0
 10
4440.8599612776688446
 20
491.6989199800465826
 30
0.0
 40
4.0685136447309977
 50
148.5161906705399986
 51
149.9055164932100865
  0
ARC
  5
1EC4D
  8
0
 10
4437.8876762204827173
 20
492.76242352727769
 30
0.0
 40
0.3002454851773905
 50
114.396484217822703
 51
122.5077816066234959
  0
ARC
  5
1EC4E
  8
0
 10
4437.7021950591652057
 20
493.045981094243416
 30
0.0
 40
0.0387742372197579
 50
252.2311586957640088
 51
308.4763254780506259
  0
ARC
  5
1EC4F
  8
0
 10
4437.6957500498083391
 20
493.0258696706824253
 30
0.0
 40
0.017655347493377
 50
128.6985163366024949
 51
252.2311586957640088
  0
ARC
  5
1EC50
  8
0
 10
4437.5352324243649491
 20
493.1865185261382862
 30
0.0
 40
0.0900112237058753
 50
273.2409328473397068
 51
294.3301926244263882
  0
ARC
  5
1EC51
  8
0
 10
4437.5394895148583601
 20
493.1113385908865894
 30
0.0
 40
0.014710855287655
 50
104.4861880957448932
 51
273.2409328473397068
  0
ARC
  5
1EC52
  8
0
 10
4437.4694574441264194
 20
493.2126391815797888
 30
0.0
 40
0.0748038649952389
 50
269.3021537238507221
 51
295.6644764429233874
  0
ARC
  5
1EC53
  8
0
 10
4437.4744114808081576
 20
493.1509713733801732
 30
0.0
 40
0.0143808795424243
 50
112.5864629705441047
 51
245.9307547436430923
  0
ARC
  5
1EC54
  8
0
 10
4437.3932048436035984
 20
493.2673643084795003
 30
0.0
 40
0.0932780409111294
 50
276.6388325660474834
 51
296.5149662068735097
  0
ARC
  5
1EC55
  8
0
 10
4437.4093785629029298
 20
493.188053818465221
 30
0.0
 40
0.0143896263747204
 50
110.582691178135704
 51
248.0027491397152062
  0
ARC
  5
1EC56
  8
0
 10
4437.3241922184952273
 20
493.309918375167797
 30
0.0
 40
0.1016731835653244
 50
281.8094878643422021
 51
298.0481838136880128
  0
ARC
  5
1EC57
  8
0
 10
4437.3485855451881434
 20
493.2235604539217775
 30
0.0
 40
0.0136426754851611
 50
109.9053010124731031
 51
254.7646598701628022
  0
ARC
  5
1EC58
  8
0
 10
4437.2689087150483829
 20
493.3381221755722095
 30
0.0
 40
0.0942585076695361
 50
286.0198346079570229
 51
297.535222430371789
  0
ARC
  5
1EC59
  8
0
 10
4437.2930832885631389
 20
493.2581965428020112
 30
0.0
 40
0.0108295660731523
 50
112.8804122810740012
 51
279.7713414801135059
  0
ARC
  5
1EC5A
  8
0
 10
4437.2378597724637075
 20
493.3071271534553262
 30
0.0
 40
0.0351625358513544
 50
279.1844660687027044
 51
316.5195602032594024
  0
ARC
  5
1EC5B
  8
0
 10
4437.2496057483858749
 20
493.2844194686866786
 30
0.0
 40
0.0134802751287763
 50
125.4741223800695025
 51
242.9349057659063078
  0
ARC
  5
1EC5C
  8
0
 10
4437.2226712762867464
 20
493.2939630965896072
 30
0.0
 40
0.029460114342951
 50
128.5029218173436902
 51
156.2448171092601115
  0
ARC
  5
1EC5D
  8
0
 10
4437.2036390771099832
 20
493.3039298930577843
 30
0.0
 40
0.008156437504519
 50
166.5251120210170939
 51
321.0011586729922897
  0
ARC
  5
1EC5E
  8
0
 10
4437.1728435407239886
 20
493.3205672367146803
 30
0.0
 40
0.0070809806075112
 50
156.791146520078911
 51
326.237496694204026
  0
ARC
  5
1EC5F
  8
0
 10
4437.0249130381962459
 20
493.4958939837297862
 30
0.0
 40
0.2362088489499023
 50
310.6315184121108928
 51
313.9743572175185022
  0
ARC
  5
1EC60
  8
0
 10
4437.2130304492311552
 20
493.2976456566640877
 30
0.0
 40
0.0533059167127814
 50
136.5253107617342891
 51
151.1610375730502085
  0
ARC
  5
1EC61
  8
0
 10
4437.1494462036343975
 20
493.3348896034120799
 30
0.0
 40
0.0067155408107438
 50
162.2659365344071034
 51
319.4590792660764009
  0
ARC
  5
1EC62
  8
0
 10
4437.1892411624357919
 20
493.3191509497336256
 30
0.0
 40
0.0494966822370221
 50
143.4189921717421043
 51
158.9427309051687018
  0
ARC
  5
1EC63
  8
0
 10
4436.9252607011912914
 20
493.53573613679049
 30
0.0
 40
0.3077096044161037
 50
318.1717364179152128
 51
320.6660637012407165
  0
ARC
  5
1EC64
  8
0
 10
4437.1290252526223412
 20
493.3455201411806001
 30
0.0
 40
0.0036450287988147
 50
147.1257995984940123
 51
338.1095889489877209
  0
ARC
  5
1EC65
  8
0
 10
4436.824176178705784
 20
493.5811238223334954
 30
0.0
 40
0.3887902186958818
 50
322.4475657367904091
 51
324.291577998338596
  0
ARC
  5
1EC66
  8
0
 10
4437.2136714860907887
 20
493.3028011969155955
 30
0.0
 40
0.0984402301591319
 50
145.5618537017207927
 51
152.9957387305668988
  0
ARC
  5
1EC67
  8
0
 10
4437.1193967169001553
 20
493.3521313487648854
 30
0.0
 40
0.0014072470270116
 50
146.5901635972768986
 51
332.9305989350144728
  0
ARC
  5
1EC68
  8
0
 10
4437.498623805182433
 20
493.1382976456030747
 30
0.0
 40
0.436763506745213
 50
149.0003749621866973
 51
150.5699224535649137
  0
ARC
  5
1EC69
  8
0
 10
4436.4183800757991776
 20
493.8072117003295034
 30
0.0
 40
0.8371763113383927
 50
327.0194321184355886
 51
327.8393435717272837
  0
ARC
  5
1EC6A
  8
0
 10
4438.307106836235107
 20
493.026986004133505
 30
0.0
 40
0.5039921347312463
 50
169.5042738835172997
 51
186.5631149614575008
  0
ARC
  5
1EC6B
  8
0
 10
4438.4239211234207687
 20
493.0448296610426269
 30
0.0
 40
0.5853315054778854
 50
165.5752999859059003
 51
191.3439259396986074
  0
ARC
  5
1EC6C
  8
0
 10
4438.7449515234693536
 20
493.0331774104245142
 30
0.0
 40
0.8719027086682416
 50
163.7486129586141033
 51
186.983461500380713
  0
ARC
  5
1EC6D
  8
0
 10
4438.9499042441511847
 20
493.058931142603285
 30
0.0
 40
1.042630587468321
 50
163.9673291334898124
 51
188.5195165281589027
  0
ARC
  5
1EC6E
  8
0
 10
4439.1256128459772299
 20
493.0620791091192814
 30
0.0
 40
1.1838873402294221
 50
161.0316249634628889
 51
188.6809166725348916
  0
ARC
  5
1EC6F
  8
0
 10
4439.3851745647925782
 20
493.0711295211395964
 30
0.0
 40
1.411219094522139
 50
161.5641241653028999
 51
188.4480407391862116
  0
ARC
  5
1EC70
  8
0
 10
4439.7718169970894451
 20
493.0460260520642919
 30
0.0
 40
1.7611189564428149
 50
160.064453249963691
 51
186.5619317146623928
  0
ARC
  5
1EC71
  8
0
 10
4440.0498092997531785
 20
493.0225013846728075
 30
0.0
 40
2.0032860600771678
 50
161.8478480619870084
 51
185.6546355781088948
  0
ARC
  5
1EC72
  8
0
 10
4440.413654539588606
 20
492.975623775785607
 30
0.0
 40
2.3329204056122919
 50
163.7026013431257923
 51
184.1328994246777881
  0
ARC
  5
1EC73
  8
0
 10
4440.4743899649756713
 20
492.9287559119042044
 30
0.0
 40
2.3594210916738159
 50
163.2905897132208111
 51
183.3999111343771915
  0
ARC
  5
1EC74
  8
0
 10
4440.8469487658121579
 20
492.8599238035221219
 30
0.0
 40
2.70117729735576
 50
164.3413428271290968
 51
181.8519263819275125
  0
ARC
  5
1EC75
  8
0
 10
4441.1144323484641063
 20
492.8285264052551042
 30
0.0
 40
2.9367352309573991
 50
165.3142132478047017
 51
181.4451022579551989
  0
ARC
  5
1EC76
  8
0
 10
4441.7500053765152188
 20
492.6798583504298108
 30
0.0
 40
3.548285845192352
 50
165.7754435645630906
 51
179.015364489686192
  0
ARC
  5
1EC77
  8
0
 10
4444.9752986449757373
 20
492.1835362364183766
 30
0.0
 40
6.769306371564892
 50
168.4960006735560967
 51
175.4025316914292034
  0
ARC
  5
1EC78
  8
0
 10
4446.7687292172913658
 20
491.7512444346904203
 30
0.0
 40
8.5735538981990391
 50
168.143760748001597
 51
173.5547139473314076
  0
ARC
  5
1EC79
  8
0
 10
4451.5017033459616869
 20
490.8791956687283005
 30
0.0
 40
13.3565133540830097
 50
168.6946738704066036
 51
172.2175933568487096
  0
ARC
  5
1EC7A
  8
0
 10
4464.1467031573083659
 20
488.1453020115484946
 30
0.0
 40
26.2565550614603396
 50
168.2807278410371055
 51
170.0280647074683031
  0
ARC
  5
1EC7B
  8
0
 10
4393.3511415490711443
 20
502.3262395141705952
 30
0.0
 40
45.9737806046989519
 50
347.8921690521261212
 51
348.8855700711321219
  0
ARC
  5
1EC7C
  8
0
 10
4428.7415622044563861
 20
495.3107089365561819
 30
0.0
 40
9.9314362131355232
 50
344.6081915859792844
 51
349.169777905833314
  0
ARC
  5
1EC7D
  8
0
 10
4432.506715223480569
 20
494.6448242954836019
 30
0.0
 40
6.1475412961889271
 50
341.2455798905928077
 51
348.5454405224571133
  0
ARC
  5
1EC7E
  8
0
 10
4432.9310417928836614
 20
494.6903358626822182
 30
0.0
 40
5.7788576550683972
 50
339.434644235957478
 51
347.1463881310428974
  0
ARC
  5
1EC7F
  8
0
 10
4433.8722845775182577
 20
494.541194329863572
 30
0.0
 40
4.859993849425309
 50
337.1608267879034884
 51
346.277751728351177
  0
ARC
  5
1EC80
  8
0
 10
4434.1730460898234014
 20
494.5583013038086051
 30
0.0
 40
4.599859054974452
 50
335.4968883394873842
 51
345.0838335645699999
  0
ARC
  5
1EC81
  8
0
 10
4434.690081394545814
 20
494.4811566359380777
 30
0.0
 40
4.1061420030661333
 50
333.475563070013493
 51
344.1720097759691157
  0
ARC
  5
1EC82
  8
0
 10
4435.4668388342788603
 20
494.2676550942301787
 30
0.0
 40
3.3227608194884048
 50
330.7837875008050901
 51
343.9643248014979804
  0
ARC
  5
1EC83
  8
0
 10
4434.7248906777977027
 20
494.6822687994779244
 30
0.0
 40
4.1769613942883312
 50
332.3698893024616723
 51
341.234113636279119
  0
ARC
  5
1EC84
  8
0
 10
4434.75777200390894
 20
494.7838399494457917
 30
0.0
 40
4.2010481456394571
 50
332.8953066116176274
 51
339.7209323291048122
  0
ARC
  5
1EC85
  8
0
 10
4435.0018206403738077
 20
494.7943520459709248
 30
0.0
 40
3.9919624678642549
 50
331.9607601093227913
 51
338.3283146479619177
  0
ARC
  5
1EC86
  8
0
 10
4435.6235715774555501
 20
494.6128844694832765
 30
0.0
 40
3.3606978424115428
 50
330.701439908886698
 51
337.2565298054444156
  0
ARC
  5
1EC87
  8
0
 10
4435.8127500573918951
 20
494.6347950106714961
 30
0.0
 40
3.2073812743614849
 50
331.5437579691715086
 51
335.5631436547477051
  0
ARC
  5
1EC88
  8
0
 10
4435.5585279667802752
 20
494.877934351750298
 30
0.0
 40
3.550080261898771
 50
331.1804273802637226
 51
333.6738562528025795
  0
ARC
  5
1EC89
  8
0
 10
4435.0577081363753678
 20
495.0488906686131827
 30
0.0
 40
4.0685136447309977
 50
330.093916566595226
 51
331.4832423892640918
  0
ARC
  5
1EC8A
  8
0
 10
4437.4652844226166053
 20
493.0065406261854264
 30
0.0
 40
0.2998128638628143
 50
357.4887241361412862
 51
5.6120130729773567
  0
ARC
  5
1EC8B
  8
0
 10
4437.803159995563874
 20
492.9876882950035224
 30
0.0
 40
0.0387742372197579
 50
171.5231075817580972
 51
227.7682743640139051
  0
ARC
  5
1EC8C
  8
0
 10
4437.7889653418033049
 20
492.9720511818464956
 30
0.0
 40
0.017655347493377
 50
227.7682743640160936
 51
351.3009167232277719
  0
ARC
  5
1EC8D
  8
0
 10
4438.0083495637127271
 20
492.9133610973814825
 30
0.0
 40
0.0900112237058753
 50
185.6692404353881898
 51
206.7585002124986033
  0
ARC
  5
1EC8E
  8
0
 10
4437.9411129492136752
 20
492.8794585435720137
 30
0.0
 40
0.014710855287655
 50
206.7585002124928053
 51
15.5132449640484804
  0
ARC
  5
1EC8F
  8
0
 10
4438.0638577705913121
 20
492.8694580720280101
 30
0.0
 40
0.0748038649952389
 50
184.3349566168886895
 51
210.6972793359448985
  0
ARC
  5
1EC90
  8
0
 10
4438.0079746011078896
 20
492.8429150425067178
 30
0.0
 40
0.0143808795424243
 50
234.0686783161860092
 51
7.4129700892757588
  0
ARC
  5
1EC91
  8
0
 10
4438.1493770382885486
 20
492.8307831001076806
 30
0.0
 40
0.0932780409111294
 50
183.4844668529306091
 51
203.3606004937676914
  0
ARC
  5
1EC92
  8
0
 10
4438.072605025712619
 20
492.8051354665437884
 30
0.0
 40
0.0143896263747204
 50
231.9966839200995139
 51
9.4167418816579751
  0
ARC
  5
1EC93
  8
0
 10
4438.2207358727719111
 20
492.7922927408300779
 30
0.0
 40
0.1016731835653244
 50
181.9512492461286115
 51
198.1899451954876099
  0
ARC
  5
1EC94
  8
0
 10
4438.1337508375918333
 20
492.7702398815195011
 30
0.0
 40
0.0136426754851611
 50
225.2347731896504968
 51
10.0941320473256795
  0
ARC
  5
1EC95
  8
0
 10
4438.2728024979242036
 20
492.7585172074375919
 30
0.0
 40
0.0942585076695361
 50
182.4642106294492976
 51
193.9795984518273997
  0
ARC
  5
1EC96
  8
0
 10
4438.1914973945049496
 20
492.7394909903529197
 30
0.0
 40
0.0108295660731523
 50
200.2280915796879128
 51
7.1190207787540087
  0
ARC
  5
1EC97
  8
0
 10
4438.2614840732567245
 20
492.7161306353339114
 30
0.0
 40
0.0351625358513544
 50
163.4798728565488091
 51
200.8149669911219064
  0
ARC
  5
1EC98
  8
0
 10
4438.2359456417361798
 20
492.7149493591920191
 30
0.0
 40
0.0134802751287763
 50
237.0645272939044901
 51
354.525310679763777
  0
ARC
  5
1EC99
  8
0
 10
4438.2576777183985541
 20
492.6963950210295025
 30
0.0
 40
0.029460114342951
 50
323.754615950549919
 51
351.4965112424795279
  0
ARC
  5
1EC9A
  8
0
 10
4438.2758252031408119
 20
492.6848958717175151
 30
0.0
 40
0.008156437504519
 50
158.9982743868303032
 51
313.474321038798621
  0
ARC
  5
1EC9B
  8
0
 10
4438.3056311520067538
 20
492.6665445317826197
 30
0.0
 40
0.0070809806075112
 50
153.7619363656264966
 51
323.2082865397218256
  0
ARC
  5
1EC9C
  8
0
 10
4438.5314334199056248
 20
492.626094097795999
 30
0.0
 40
0.2362088489499023
 50
166.0250758422916988
 51
169.3679146477228983
  0
ARC
  5
1EC9D
  8
0
 10
4438.2656872581073912
 20
492.6898870206683227
 30
0.0
 40
0.0533059167127814
 50
328.8383954867665011
 51
343.4741222980845237
  0
ARC
  5
1EC9E
  8
0
 10
4438.3297332243137134
 20
492.6534427883404987
 30
0.0
 40
0.0067155408107438
 50
160.5403537937237957
 51
317.7334965254145231
  0
ARC
  5
1EC9F
  8
0
 10
4438.2962059341571148
 20
492.6800372385196169
 30
0.0
 40
0.0494966822370221
 50
321.0567021546359001
 51
336.5804408880691767
  0
ARC
  5
1ECA0
  8
0
 10
4438.6157632482636473
 20
492.5597128844892154
 30
0.0
 40
0.3077096044161037
 50
159.333369358572611
 51
161.8276966419078065
  0
ARC
  5
1ECA1
  8
0
 10
4438.3491498931844035
 20
492.6410728027502159
 30
0.0
 40
0.0036450287988147
 50
141.8898441108366058
 51
332.873633461316615
  0
ARC
  5
1ECA2
  8
0
 10
4438.7056117565307432
 20
492.4948640738084009
 30
0.0
 40
0.3887902186958818
 50
155.7078550614826042
 51
157.5518673230212983
  0
ARC
  5
1ECA3
  8
0
 10
4438.2698315995039593
 20
492.6930199039924787
 30
0.0
 40
0.0984402301591319
 50
327.0036943292528804
 51
334.4375793580849745
  0
ARC
  5
1ECA4
  8
0
 10
4438.3596895849623252
 20
492.6360397457154932
 30
0.0
 40
0.0014072470270116
 50
147.0688341247928861
 51
333.4092694625347235
  0
ARC
  5
1ECA5
  8
0
 10
4437.9848928134861126
 20
492.8575468950051004
 30
0.0
 40
0.436763506745213
 50
329.4295106062492096
 51
330.9990580976091792
  0
ARC
  5
1ECA6
  8
0
 10
4439.1043052949780758
 20
492.2564743338592166
 30
0.0
 40
0.8371763113383927
 50
152.160089488110799
 51
152.9800009413897044
  0
ARC
  5
1ECA7
  8
0
 10
4437.852118213839276
 20
493.1890690480294097
 30
0.0
 40
0.005168051149003
 50
17.6973696859429914
 51
102.3020633738396015
  0
ARC
  5
1ECA8
  8
0
 10
4437.9040287377247296
 20
493.2789796855469149
 30
0.0
 40
0.0042571105540092
 50
335.0118339296058139
 51
144.9875991302102989
  0
ARC
  5
1ECA9
  8
0
 10
4437.9436821980261811
 20
493.3476607087524144
 30
0.0
 40
0.0042161777144672
 50
349.4744942887330126
 51
130.5249387710533995
  0
ARC
  5
1ECAA
  8
0
 10
4438.001829869978792
 20
493.4483742801882045
 30
0.0
 40
0.0044360610346877
 50
340.5509282459228757
 51
139.4485048138685102
  0
ARC
  5
1ECAB
  8
0
 10
4438.0423332452046452
 20
493.5185273824041019
 30
0.0
 40
0.0041978417795708
 50
344.673941881604776
 51
135.3254911781866952
  0
ARC
  5
1ECAC
  8
0
 10
4437.6127920540220657
 20
493.0683564929245222
 30
0.0
 40
0.0135452048939595
 50
95.0252566055243761
 51
218.196039675509212
  0
ARC
  5
1ECAD
  8
0
 10
4437.6164378479561492
 20
493.0749201390599978
 30
0.0
 40
0.0206740594471869
 50
226.2707770399412084
 51
299.5393488835970857
  0
ARC
  5
1ECAE
  8
0
 10
4437.8668059698211437
 20
492.9228009385313953
 30
0.0
 40
0.013440819176748
 50
248.4875477033789082
 51
18.9646705024060509
  0
ARC
  5
1ECAF
  8
0
 10
4437.8834109887866362
 20
492.9367735322514932
 30
0.0
 40
0.0341283136569639
 50
191.9685246792423072
 51
230.8785546470433019
  0
LINE
  5
1ECB0
  8
0
 10
4437.1090765370054214
 20
493.3391155422826273
 30
0.0
 11
4438.3535798681277811
 21
492.6206012075253966
 31
0.0
  0
ARC
  5
1ECB1
  8
0
 10
4446.9596893989692035
 20
486.0162785098119116
 30
0.0
 40
0.6373552593000014
 50
137.9802193578657068
 51
42.0197806499859396
  0
ARC
  5
1ECB2
  8
0
 10
4446.9596896520697555
 20
486.0275610009189222
 30
0.0
 40
0.7053686374011779
 50
132.1659760408319073
 51
47.834079441478579
  0
ARC
  5
1ECB3
  8
0
 10
4446.9596893989692035
 20
486.0162785098119116
 30
0.0
 40
0.8252103402999998
 50
125.0151560511444018
 51
54.9848439566876195
  0
ARC
  5
1ECB4
  8
0
 10
4446.9596893989692035
 20
486.0162785098119116
 30
0.0
 40
0.9055118109999865
 50
121.5303887257981046
 51
152.926606438049788
  0
ARC
  5
1ECB5
  8
0
 10
4446.9594968382889419
 20
486.0159125958194863
 30
0.0
 40
0.9059045053743841
 50
27.0220627053860483
 51
58.4733843874809835
  0
ARC
  5
1ECB6
  8
0
 10
4446.9596904727086439
 20
486.0162752690289949
 30
0.0
 40
0.9055084163674173
 50
269.9999484199091739
 51
294.441529898314684
  0
ARC
  5
1ECB7
  8
0
 10
4446.9596893989692035
 20
486.0162785098119116
 30
0.0
 40
0.9055118109999823
 50
294.4415069041078823
 51
322.5059142373223722
  0
ARC
  5
1ECB8
  8
0
 10
4446.9596893989692035
 20
486.0162785098119116
 30
0.0
 40
0.9055118109999876
 50
322.5059142373223722
 51
332.9168505634825124
  0
ARC
  5
1ECB9
  8
0
 10
4446.9596834739713813
 20
486.0161771735254206
 30
0.0
 40
0.9054103208846054
 50
265.5382715125521145
 51
270.0003913054000009
  0
ARC
  5
1ECBA
  8
0
 10
4446.9596893989692035
 20
486.0162785098116842
 30
0.0
 40
0.9055118109997856
 50
253.9043397768469958
 51
265.5383965573432761
  0
ARC
  5
1ECBB
  8
0
 10
4446.9596893989692035
 20
486.0162785098120821
 30
0.0
 40
0.9055118110001636
 50
242.2766883097611981
 51
253.9043397768469958
  0
ARC
  5
1ECBC
  8
0
 10
4446.9596893989692035
 20
486.0162785098119116
 30
0.0
 40
0.9055118109999414
 50
221.8420300019718923
 51
242.2766883097611981
  0
ARC
  5
1ECBD
  8
0
 10
4446.9596893989692035
 20
486.0162785098120821
 30
0.0
 40
0.9055118110002185
 50
210.225997419306907
 51
221.8420300019718923
  0
ARC
  5
1ECBE
  8
0
 10
4446.9596894333189994
 20
486.016278529825172
 30
0.0
 40
0.9055118507552091
 50
206.765502434541105
 51
210.225997419306907
  0
ARC
  5
1ECBF
  8
0
 10
4446.7846893989690216
 20
485.1277666988120245
 30
0.0
 40
0.0149999999995961
 50
168.1156218559922024
 51
180.0000000001074909
  0
LINE
  5
1ECC0
  8
0
 10
4446.7696893989686941
 20
485.1277666988119108
 30
0.0
 11
4446.7696893989686941
 21
485.1245552693119976
 31
0.0
  0
ARC
  5
1ECC1
  8
0
 10
4446.7846893989380987
 20
485.1245552693121112
 30
0.0
 40
0.0149999999702502
 50
180.0000000001236913
 51
252.5937346091394886
  0
ARC
  5
1ECC2
  8
0
 10
4446.9596894976193653
 20
485.6827673432603092
 30
0.0
 40
0.6000006444482411
 50
252.5937346091394886
 51
269.9999905795687027
  0
ARC
  5
1ECC3
  8
0
 10
4446.9596894976193653
 20
485.6827660548211725
 30
0.0
 40
0.5999993560092537
 50
269.9999905795687027
 51
287.4062844574646078
  0
ARC
  5
1ECC4
  8
0
 10
4447.1346893956160784
 20
485.124555271774625
 30
0.0
 40
0.0150000033529304
 50
287.4062844574646078
 51
359.9999902112406858
  0
LINE
  5
1ECC5
  8
0
 10
4447.1496893989678938
 20
485.12455526921201
 30
0.0
 11
4447.1496893995181381
 21
485.1277666988120245
 31
0.0
  0
ARC
  5
1ECC6
  8
0
 10
4447.1346894491907733
 20
485.1277667013745827
 30
0.0
 40
0.0149999503271909
 50
359.9999902112505197
 51
11.8838420105252602
  0
LINE
  5
1ECC7
  8
0
 10
4446.7696893989686941
 20
485.12455526921201
 30
0.0
 11
4446.8022686187841828
 21
485.12455526921201
 31
0.0
  0
LINE
  5
1ECC8
  8
0
 10
4447.1171101791560432
 20
485.12455526921201
 30
0.0
 11
4447.1496893989678938
 21
485.12455526921201
 31
0.0
  0
LINE
  5
1ECC9
  8
0
 10
4446.4004932462694342
 20
495.5173127867118978
 30
0.0
 11
4447.5189026006801214
 21
495.5173127867118978
 31
0.0
  0
LINE
  5
1ECCA
  8
0
 10
4446.4875192557583432
 20
487.0477742494547897
 30
0.0
 11
4446.4920861234186305
 21
489.2172083631388091
 31
0.0
  0
LINE
  5
1ECCB
  8
0
 10
4447.4286216333302946
 20
489.2172083631388091
 30
0.0
 11
4447.4331885470110137
 21
487.0477742494547897
 31
0.0
  0
ARC
  5
1ECCC
  8
0
 10
4445.1447045537461236
 20
487.363522959637578
 30
0.0
 40
2.2958192915297788
 50
352.0949389133347722
 51
355.3345641921935112
  0
ARC
  5
1ECCD
  8
0
 10
4445.584976021537841
 20
487.4165197746874014
 30
0.0
 40
1.8515710157691201
 50
348.5125793880134211
 51
356.2889494018326104
  0
ARC
  5
1ECCE
  8
0
 10
4446.871637946892406
 20
487.2685371608893092
 30
0.0
 40
0.545051669852713
 50
336.1069200454163024
 51
353.0153936229460214
  0
ARC
  5
1ECCF
  8
0
 10
4444.66772086504443
 20
487.5582276700873763
 30
0.0
 40
2.7679092721255021
 50
352.6109435620181216
 51
357.229803186506615
  0
ARC
  5
1ECD0
  8
0
 10
4446.6382732137235507
 20
487.3860531825047815
 30
0.0
 40
0.7769271694395061
 50
334.188853997585511
 51
355.1572295795156151
  0
ARC
  5
1ECD1
  8
0
 10
4442.9046871865402863
 20
487.715045554196081
 30
0.0
 40
4.5249764284261449
 50
354.9974046137991763
 51
358.4915837007541199
  0
ARC
  5
1ECD2
  8
0
 10
4441.011966098101766
 20
487.9050803896404886
 30
0.0
 40
6.4235730504234896
 50
357.2414419990172973
 51
358.0561009375751951
  0
ARC
  5
1ECD3
  8
0
 10
4446.4816173538465591
 20
487.4593681612494152
 30
0.0
 40
0.9268108762648765
 50
333.6344216852525051
 51
352.8335057774892789
  0
ARC
  5
1ECD4
  8
0
 10
4443.2344321201271669
 20
487.8832601055423197
 30
0.0
 40
4.2015388701486218
 50
352.6223494191182795
 51
356.36193185389061
  0
ARC
  5
1ECD5
  8
0
 10
4442.813609090690079
 20
487.8560896709082044
 30
0.0
 40
4.6201032595944147
 50
357.0293710690730222
 51
358.3381135769474213
  0
ARC
  5
1ECD6
  8
0
 10
4446.2853258651339274
 20
487.5981277073357774
 30
0.0
 40
1.121158627424413
 50
330.601614310809282
 51
354.0920454241651214
  0
ARC
  5
1ECD7
  8
0
 10
4437.562763313610958
 20
488.4163663014198846
 30
0.0
 40
9.8819698177586055
 50
354.5786572178324718
 51
357.0220172993422239
  0
ARC
  5
1ECD8
  8
0
 10
4446.1671911715930037
 20
487.6935159809523839
 30
0.0
 40
1.2379983471152229
 50
328.5602650518029009
 51
354.743799578062692
  0
ARC
  5
1ECD9
  8
0
 10
4441.9283390591381249
 20
488.2147312104863204
 30
0.0
 40
5.5083253160079053
 50
353.3841227108765111
 51
357.4584901666808037
  0
ARC
  5
1ECDA
  8
0
 10
4446.0859368582860043
 20
487.7713490787053274
 30
0.0
 40
1.306037649222924
 50
326.3565557606376046
 51
353.4586079569576782
  0
ARC
  5
1ECDB
  8
0
 10
4441.6516411461470852
 20
488.3973409935788936
 30
0.0
 40
5.783957457750037
 50
352.3019333304064844
 51
357.6760012963804911
  0
ARC
  5
1ECDC
  8
0
 10
4445.4666543043849742
 20
487.9923751151412716
 30
0.0
 40
1.931733082358895
 50
330.7256891955706237
 51
349.1135411930241048
  0
ARC
  5
1ECDD
  8
0
 10
4444.1954901695153239
 20
488.2458203088535242
 30
0.0
 40
3.2278990820904792
 50
348.9572027280731277
 51
356.6608819103511223
  0
ARC
  5
1ECDE
  8
0
 10
4310.7928362166503575
 20
497.7950461528039909
 30
0.0
 40
136.971618762675206
 50
355.9234360785803233
 51
355.9992953968534835
  0
ARC
  5
1ECDF
  8
0
 10
4444.9923008931064032
 20
488.2144289940907242
 30
0.0
 40
2.4113893280684908
 50
331.0654509052504864
 51
347.705397854592718
  0
ARC
  5
1ECE0
  8
0
 10
4444.6448466162064506
 20
488.2978046095414015
 30
0.0
 40
2.7686389248956478
 50
347.5506620628240171
 51
355.127867316817003
  0
ARC
  5
1ECE1
  8
0
 10
4431.0289209219872646
 20
489.2697695243087992
 30
0.0
 40
16.4189938499918107
 50
355.7838543345662856
 51
357.3322035388825952
  0
ARC
  5
1ECE2
  8
0
 10
4444.8181292053268407
 20
488.3245392596689953
 30
0.0
 40
2.58444599844599
 50
330.3949277743273001
 51
348.0273706354071237
  0
ARC
  5
1ECE3
  8
0
 10
4443.0477003098103523
 20
488.613722997693003
 30
0.0
 40
4.3771652053768859
 50
349.1318495956908237
 51
356.7995974674154809
  0
ARC
  5
1ECE4
  8
0
 10
4456.5099518194228949
 20
488.0577413610017743
 30
0.0
 40
9.0972514740198882
 50
176.4776520813169896
 51
178.0370458690341877
  0
ARC
  5
1ECE5
  8
0
 10
4444.3152695995868271
 20
488.5699313417151757
 30
0.0
 40
3.095207123970638
 50
330.5424391169564728
 51
356.632651492595528
  0
ARC
  5
1ECE6
  8
0
 10
4375.1251509361836725
 20
492.3667067171733152
 30
0.0
 40
72.3893974843985433
 50
356.8493898962515232
 51
357.2204251698188955
  0
ARC
  5
1ECE7
  8
0
 10
4443.9361277787857034
 20
488.7407190201769822
 30
0.0
 40
3.4756209276553292
 50
330.8504191808066821
 51
354.1500970441363165
  0
ARC
  5
1ECE8
  8
0
 10
4437.8776182439469267
 20
489.1706424760765231
 30
0.0
 40
9.5482855486829745
 50
355.2891858502529203
 51
0.279426014286037
  0
ARC
  5
1ECE9
  8
0
 10
4450.0224216317237733
 20
486.0138154791271745
 30
0.0
 40
3.246588728363065
 50
154.6354907219451889
 51
160.025675904814392
  0
ARC
  5
1ECEA
  8
0
 10
4444.0896197796773777
 20
488.8017416598268028
 30
0.0
 40
3.308650240222057
 50
335.0215681102740746
 51
349.2740266056508744
  0
ARC
  5
1ECEB
  8
0
 10
4441.1202245398171726
 20
489.201158736018499
 30
0.0
 40
6.3025384780459106
 50
350.7305603042963185
 51
0.1459057955533363
  0
ARC
  5
1ECEC
  8
0
 10
4448.7697121628543755
 20
486.6079780721665884
 30
0.0
 40
1.9001515281160759
 50
154.5159669541814935
 51
160.9511633203769918
  0
ARC
  5
1ECED
  8
0
 10
4443.9519215302507291
 20
488.9042984927147018
 30
0.0
 40
3.4369070300624762
 50
334.5159669541815219
 51
353.1568619146041215
  0
ARC
  5
1ECEE
  8
0
 10
4439.8994068880856503
 20
489.4450845832515142
 30
0.0
 40
7.5251816343423652
 50
352.7451746196110207
 51
358.2647140570512079
  0
ARC
  5
1ECEF
  8
0
 10
4443.2350044727791101
 20
489.1615359329185253
 30
0.0
 40
4.1666501072609288
 50
334.0329625575168961
 51
347.2395996287881985
  0
ARC
  5
1ECF0
  8
0
 10
4441.1406906141846775
 20
489.4528788475764145
 30
0.0
 40
6.2761263042385647
 50
348.868763793789185
 51
357.8480198263054035
  0
ARC
  5
1ECF1
  8
0
 10
4443.2883361498743398
 20
489.1881667593208931
 30
0.0
 40
4.0939827105392848
 50
334.6931117790404073
 51
345.2459817594827882
  0
ARC
  5
1ECF2
  8
0
 10
4442.4433944027177859
 20
489.3636458382088108
 30
0.0
 40
4.9559630811558231
 50
345.7718740010029137
 51
358.3067931492494154
  0
ARC
  5
1ECF3
  8
0
 10
4442.5428235568333548
 20
489.4246432419639063
 30
0.0
 40
4.843206308589429
 50
336.7970255612065102
 51
346.9640490128081751
  0
ARC
  5
1ECF4
  8
0
 10
4441.7167589814980602
 20
489.5586087924478988
 30
0.0
 40
5.6784740617774121
 50
347.5272414255227886
 51
356.5531924730966011
  0
ARC
  5
1ECF5
  8
0
 10
4440.7504218176181894
 20
489.9972859208564842
 30
0.0
 40
6.695862486026904
 50
338.8598019492516755
 51
345.413088924402075
  0
ARC
  5
1ECF6
  8
0
 10
4442.7040507323936254
 20
489.4372197023693047
 30
0.0
 40
4.6644216494420681
 50
346.0272225501075809
 51
357.29647080470221
  0
ARC
  5
1ECF7
  8
0
 10
4441.4519874760990206
 20
489.7587618151962943
 30
0.0
 40
5.9214143262028633
 50
339.5765606151592237
 51
354.752580226299699
  0
ARC
  5
1ECF8
  8
0
 10
4441.5011812660459327
 20
489.7137125171988146
 30
0.0
 40
5.8412487318805448
 50
340.3379796307028187
 51
355.1239947026340928
  0
ARC
  5
1ECF9
  8
0
 10
4441.473346855024829
 20
489.8120301719504823
 30
0.0
 40
5.8624777081878099
 50
340.6580862722519214
 51
354.1766044347097022
  0
ARC
  5
1ECFA
  8
0
 10
4449.4998155040766505
 20
487.3833060508518997
 30
0.0
 40
2.5581095589851222
 50
162.2792645602368111
 51
167.2723874711842882
  0
ARC
  5
1ECFB
  8
0
 10
4442.0267827557663622
 20
489.710195363111211
 30
0.0
 40
5.2689124633163669
 50
342.9115499469385782
 51
354.6312543601180778
  0
ARC
  5
1ECFC
  8
0
 10
4440.8671855327365847
 20
490.0194276968103964
 30
0.0
 40
6.4339937436050123
 50
342.8324188299968114
 51
352.8374632085900089
  0
ARC
  5
1ECFD
  8
0
 10
4440.2456778282021332
 20
490.0851090602010913
 30
0.0
 40
7.021931350760874
 50
344.5502557880755035
 51
352.9001676378820207
  0
ARC
  5
1ECFE
  8
0
 10
4439.8068813314948784
 20
490.228893265750628
 30
0.0
 40
7.4444604203812927
 50
345.5470074694939058
 51
352.1894684134854856
  0
ARC
  5
1ECFF
  8
0
 10
4437.207445234655097
 20
490.4698680256075818
 30
0.0
 40
10.0088176700475593
 50
348.2512107355303215
 51
352.8102579579635858
  0
ARC
  5
1ED00
  8
0
 10
4439.3874421669452204
 20
490.2556036959554717
 30
0.0
 40
7.7891181844142299
 50
347.5858519547779792
 51
352.3388855551992265
  0
ARC
  5
1ED01
  8
0
 10
4443.0589258904783492
 20
489.4815043407193116
 30
0.0
 40
4.0133345790044608
 50
348.2482555142487968
 51
356.2240848371258153
  0
ARC
  5
1ED02
  8
0
 10
4440.3964396623441644
 20
489.9060201746419239
 30
0.0
 40
6.6702176645122684
 50
350.7519146864614186
 51
354.0726832543912224
  0
ARC
  5
1ED03
  8
0
 10
4442.389843607768853
 20
489.651888760821123
 30
0.0
 40
4.6284844757546404
 50
351.5702001478269949
 51
352.4048307020257198
  0
ARC
  5
1ED04
  8
0
 10
4445.8514537839428158
 20
489.190308397596084
 30
0.0
 40
1.136235709771428
 50
352.4048307020257198
 51
1.356583403932357
  0
ARC
  5
1ED05
  8
0
 10
4448.7760033117447165
 20
487.3635237600896062
 30
0.0
 40
2.2958194636273022
 50
184.6654680294165018
 51
187.9050806584909026
  0
ARC
  5
1ED06
  8
0
 10
4448.3357318006173955
 20
487.4165201069782256
 30
0.0
 40
1.851571100828644
 50
183.7110788000103128
 51
191.4874305698128865
  0
ARC
  5
1ED07
  8
0
 10
4447.0490698731018711
 20
487.2685373263711881
 30
0.0
 40
0.5450517525196951
 50
186.9846228379344097
 51
203.893095130888895
  0
ARC
  5
1ED08
  8
0
 10
4449.2529868919391447
 20
487.5582276700873763
 30
0.0
 40
2.7679092721255021
 50
182.770212326719502
 51
187.3890564379819068
  0
ARC
  5
1ED09
  8
0
 10
4447.2824345983653984
 20
487.3860533153459755
 30
0.0
 40
0.7769272355642391
 50
184.8427798390272869
 51
205.8111545261427864
  0
ARC
  5
1ED0A
  8
0
 10
4451.0160205704432883
 20
487.715045554196081
 30
0.0
 40
4.5249764284261449
 50
181.5084162992426116
 51
185.0025953862007952
  0
ARC
  5
1ED0B
  8
0
 10
4452.9087416588799897
 20
487.9050803896404886
 30
0.0
 40
6.4235730504234896
 50
181.9439070406021131
 51
182.7585580009827027
  0
ARC
  5
1ED0C
  8
0
 10
4447.4390904641031739
 20
487.4593683084086138
 30
0.0
 40
0.9268109551137499
 50
187.1665027786812061
 51
206.3655860523248009
  0
ARC
  5
1ED0D
  8
0
 10
4450.6862756368564078
 20
487.8832601055423197
 30
0.0
 40
4.2015388701486218
 50
183.63806814610939
 51
187.3776505808816921
  0
ARC
  5
1ED0E
  8
0
 10
4451.1070986662944051
 20
487.8560896709082044
 30
0.0
 40
4.6201032595944147
 50
181.6618989744810904
 51
182.9706289309268925
  0
ARC
  5
1ED0F
  8
0
 10
4447.6353819473843032
 20
487.5981278280967217
 30
0.0
 40
1.121158695093909
 50
185.9079604223047113
 51
209.398390824253994
  0
ARC
  5
1ED10
  8
0
 10
4456.3579444433717072
 20
488.4163663014198846
 30
0.0
 40
9.8819698177586055
 50
182.977985665921608
 51
185.4213427821674998
  0
ARC
  5
1ED11
  8
0
 10
4447.7535166386178389
 20
487.6935160896871935
 30
0.0
 40
1.2379984100796071
 50
185.2562052074642907
 51
211.4397390649604915
  0
ARC
  5
1ED12
  8
0
 10
4451.9923686978436308
 20
488.2147312104863204
 30
0.0
 40
5.5083253160079053
 50
182.5415157037568008
 51
186.6158772891234037
  0
ARC
  5
1ED13
  8
0
 10
4447.8347709532517911
 20
487.7713491854934205
 30
0.0
 40
1.3060377155880241
 50
186.541396424682091
 51
213.6434479291824005
  0
ARC
  5
1ED14
  8
0
 10
4452.2690666108373989
 20
488.3973409935788936
 30
0.0
 40
5.783957457750037
 50
182.3240038438815986
 51
187.6980666696005073
  0
ARC
  5
1ED15
  8
0
 10
4448.4540535218720834
 20
487.9923752738795883
 30
0.0
 40
1.9317331803663971
 50
190.886463042403193
 51
209.2743145724057001
  0
ARC
  5
1ED16
  8
0
 10
4449.7252175874691602
 20
488.2458203088535242
 30
0.0
 40
3.2278990820904792
 50
183.3391180896489061
 51
191.0427972719267871
  0
ARC
  5
1ED17
  8
0
 10
4583.1278715403332171
 20
497.7950461528039909
 30
0.0
 40
136.971618762675206
 50
184.0007047226006875
 51
184.0765639214197051
  0
ARC
  5
1ED18
  8
0
 10
4448.9284069390987497
 20
488.2144291706993044
 30
0.0
 40
2.4113894391716868
 50
192.2946058648907126
 51
208.9345524302011086
  0
ARC
  5
1ED19
  8
0
 10
4449.2758611407771241
 20
488.2978046095412878
 30
0.0
 40
2.7686389248956478
 50
184.8721326831798137
 51
192.4493379371760113
  0
ARC
  5
1ED1A
  8
0
 10
4462.8917868349972196
 20
489.2697695243087992
 30
0.0
 40
16.4189938499918107
 50
182.6677975272249057
 51
184.2161456654336007
  0
ARC
  5
1ED1B
  8
0
 10
4449.1025786242971662
 20
488.3245394265168215
 30
0.0
 40
2.584446104119849
 50
191.9726326489812038
 51
209.6050751488722028
  0
ARC
  5
1ED1C
  8
0
 10
4450.8730074471741318
 20
488.613722997693003
 30
0.0
 40
4.3771652053768859
 50
183.2004025325811938
 51
190.86815040430929
  0
ARC
  5
1ED1D
  8
0
 10
4437.4107559375588608
 20
488.0577413610017743
 30
0.0
 40
9.0972514740198882
 50
1.962954130965809
 51
3.5223466791193392
  0
ARC
  5
1ED1E
  8
0
 10
4449.6054382079082643
 20
488.5699314488928167
 30
0.0
 40
3.0952071806907808
 50
183.3673504330340052
 51
209.457562568586809
  0
ARC
  5
1ED1F
  8
0
 10
4518.7955568207980832
 20
492.3667067171729741
 30
0.0
 40
72.3893974843979606
 50
182.7795749462887898
 51
183.1506101037452083
  0
ARC
  5
1ED20
  8
0
 10
4449.9845800337461696
 20
488.7407191417759122
 30
0.0
 40
3.4756209953083661
 50
185.8499048566573038
 51
209.1495824924284079
  0
ARC
  5
1ED21
  8
0
 10
4455.2089277892837345
 20
489.1680731557020749
 30
0.0
 40
8.7169801477550148
 50
179.6770378190522877
 51
185.1442758622862925
  0
ARC
  5
1ED22
  8
0
 10
4443.8982859746147369
 20
486.0138149190382251
 30
0.0
 40
3.246589104412291
 50
19.97433220015796
 51
25.3645170707772998
  0
ARC
  5
1ED23
  8
0
 10
4449.8310879773071065
 20
488.8017416598268028
 30
0.0
 40
3.308650240222057
 50
190.7259733943490119
 51
204.978431889725897
  0
ARC
  5
1ED24
  8
0
 10
4452.800483217166402
 20
489.201158736018499
 30
0.0
 40
6.3025384780459097
 50
179.8540942044467101
 51
189.26943969570371
  0
ARC
  5
1ED25
  8
0
 10
4445.1509955941282897
 20
486.6079780721665884
 30
0.0
 40
1.9001515281160759
 50
19.0488366796229514
 51
25.4840330458185207
  0
ARC
  5
1ED26
  8
0
 10
4449.968786226731936
 20
488.9042984927147018
 30
0.0
 40
3.4369070300624762
 50
186.843138085395907
 51
205.4840330458185065
  0
ARC
  5
1ED27
  8
0
 10
4454.0213008688970149
 20
489.4450845832515142
 30
0.0
 40
7.5251816343423581
 50
181.7352859429454952
 51
187.254825380388894
  0
ARC
  5
1ED28
  8
0
 10
4450.6857032842035551
 20
489.1615359329185253
 30
0.0
 40
4.1666501072609288
 50
192.7604003712118015
 51
205.9670374424831039
  0
ARC
  5
1ED29
  8
0
 10
4452.7800171427979876
 20
489.4528788475764145
 30
0.0
 40
6.27612630423857
 50
182.1519801736912996
 51
191.1312362062107013
  0
ARC
  5
1ED2A
  8
0
 10
4450.6323716071092349
 20
489.1881667593208931
 30
0.0
 40
4.0939827105392848
 50
194.7540182405172118
 51
205.3068882209597064
  0
ARC
  5
1ED2B
  8
0
 10
4451.4773133542657888
 20
489.3636458382088108
 30
0.0
 40
4.9559630811558231
 50
181.6932068507506131
 51
194.2281259989970863
  0
ARC
  5
1ED2C
  8
0
 10
4451.3778842001502198
 20
489.4246432419639063
 30
0.0
 40
4.843206308589429
 50
193.0359509871917965
 51
203.2029744387934045
  0
ARC
  5
1ED2D
  8
0
 10
4452.2039487754836955
 20
489.5586087924478988
 30
0.0
 40
5.6784740617774077
 50
183.4468075268999883
 51
192.4727585744770977
  0
ARC
  5
1ED2E
  8
0
 10
4453.1702859393653853
 20
489.9972859208564842
 30
0.0
 40
6.695862486026904
 50
194.5869110755978113
 51
201.1401980507482108
  0
ARC
  5
1ED2F
  8
0
 10
4451.2166570245890398
 20
489.4372197023693047
 30
0.0
 40
4.6644216494420387
 50
182.70352919529779
 51
193.9727774498923907
  0
ARC
  5
1ED30
  8
0
 10
4452.4687202808827351
 20
489.7587618151962943
 30
0.0
 40
5.9214143262028491
 50
185.2474197737001873
 51
200.4234393848408047
  0
ARC
  5
1ED31
  8
0
 10
4452.4195264909367324
 20
489.7137125171988146
 30
0.0
 40
5.8412487318805431
 50
184.8760052973657935
 51
199.6620203692972098
  0
ARC
  5
1ED32
  8
0
 10
4452.4473609019578362
 20
489.8120301719504823
 30
0.0
 40
5.8624777081878134
 50
185.8233955652902978
 51
199.341913727748107
  0
ARC
  5
1ED33
  8
0
 10
4444.4208922529060146
 20
487.3833060508518997
 30
0.0
 40
2.5581095589851222
 50
12.7276125288156603
 51
17.7207354397631711
  0
ARC
  5
1ED34
  8
0
 10
4451.8939250012172124
 20
489.710195363111211
 30
0.0
 40
5.2689124633163393
 50
185.3687456398818938
 51
197.0884500530644061
  0
ARC
  5
1ED35
  8
0
 10
4453.0535222242469899
 20
490.0194276968103964
 30
0.0
 40
6.433993743605007
 50
187.1625367914099911
 51
197.1675811700031034
  0
ARC
  5
1ED36
  8
0
 10
4453.6750299287814414
 20
490.0851090602010913
 30
0.0
 40
7.0219313507608714
 50
187.0998323621180077
 51
195.4497442119244965
  0
ARC
  5
1ED37
  8
0
 10
4454.1138264254868773
 20
490.228893265750628
 30
0.0
 40
7.4444604203813007
 50
187.8105315865144007
 51
194.4529925305060942
  0
ARC
  5
1ED38
  8
0
 10
4456.7132625223293871
 20
490.4698680256075818
 30
0.0
 40
10.0088176700475593
 50
187.1897420420363005
 51
191.7487892644697069
  0
ARC
  5
1ED39
  8
0
 10
4454.5332655900383543
 20
490.2556036959554717
 30
0.0
 40
7.7891181844142396
 50
187.6611144447975903
 51
192.4141480452219071
  0
ARC
  5
1ED3A
  8
0
 10
4450.861781866506135
 20
489.4815043407193116
 30
0.0
 40
4.0133345790044013
 50
183.7759151628740995
 51
191.7517444857512032
  0
ARC
  5
1ED3B
  8
0
 10
4453.5242680946394103
 20
489.9060201746418102
 30
0.0
 40
6.6702176645122613
 50
185.9273167456088061
 51
189.2480853135386099
  0
ARC
  5
1ED3C
  8
0
 10
4451.5308641492147217
 20
489.651888760821123
 30
0.0
 40
4.6284844757546404
 50
187.5951692979743086
 51
188.4297998521730051
  0
ARC
  5
1ED3D
  8
0
 10
4448.0692539730398494
 20
489.190308397596084
 30
0.0
 40
1.136235709771428
 50
178.6434165960675955
 51
187.5951692979743086
  0
ARC
  5
1ED3E
  8
0
 10
4446.9603539014433409
 20
487.1297174922955833
 30
0.0
 40
0.0127790478871379
 50
212.523155535299594
 51
327.4768444647003207
  0
ARC
  5
1ED3F
  8
0
 10
4446.9603538784922421
 20
487.2337602474249252
 30
0.0
 40
0.0144005142280592
 50
202.9804166235662137
 51
337.0195833764337863
  0
ARC
  5
1ED40
  8
0
 10
4446.9603538784922421
 20
487.3618822736581251
 30
0.0
 40
0.0322256122350664
 50
230.123185156112612
 51
309.8768148438874164
  0
ARC
  5
1ED41
  8
0
 10
4446.9603538784922421
 20
487.4525861098128985
 30
0.0
 40
0.0324679925972347
 50
206.4465207386207055
 51
333.5534792613792092
  0
ARC
  5
1ED42
  8
0
 10
4446.9603538784922421
 20
487.5458179209110199
 30
0.0
 40
0.0448633074553124
 50
220.8558762555614976
 51
319.1441237444385024
  0
ARC
  5
1ED43
  8
0
 10
4446.9603538784922421
 20
487.597299364360083
 30
0.0
 40
0.0383133701087776
 50
202.861197857578901
 51
337.1388021424181147
  0
ARC
  5
1ED44
  8
0
 10
4446.9603538784922421
 20
487.7116909762000887
 30
0.0
 40
0.045130001769396
 50
205.2330775189506085
 51
334.7669224810493915
  0
ARC
  5
1ED45
  8
0
 10
4446.9603538784922421
 20
487.7570209031018749
 30
0.0
 40
0.0424013380575236
 50
191.8675633860337086
 51
348.1324366139630797
  0
ARC
  5
1ED46
  8
0
 10
4446.9603538784922421
 20
487.8766719819445825
 30
0.0
 40
0.0450320896246743
 50
188.0705096419864901
 51
351.9294903580134815
  0
ARC
  5
1ED47
  8
0
 10
4446.9603538784922421
 20
487.9566914901997734
 30
0.0
 40
0.0452801955507642
 50
192.4892854280197128
 51
347.5107145719770756
  0
ARC
  5
1ED48
  8
0
 10
4446.9603538784922421
 20
488.1272997230843202
 30
0.0
 40
0.054609820035773
 50
187.3410906734052048
 51
352.6589093265981205
  0
ARC
  5
1ED49
  8
0
 10
4446.9603538784922421
 20
488.2296462844668099
 30
0.0
 40
0.0556121676499436
 50
195.7880137926495934
 51
344.2119862073503782
  0
ARC
  5
1ED4A
  8
0
 10
4446.9603538784922421
 20
488.3915631616064843
 30
0.0
 40
0.0591326125259362
 50
200.4911762847247019
 51
339.5088237152751844
  0
ARC
  5
1ED4B
  8
0
 10
4446.9603538784922421
 20
488.4389801001614728
 30
0.0
 40
0.0467669333737369
 50
188.7547343286719013
 51
351.2452656713343799
  0
ARC
  5
1ED4C
  8
0
 10
4446.9603538784922421
 20
488.5902683115896252
 30
0.0
 40
0.0352953276443903
 50
195.0114321256266976
 51
344.9885678743764856
  0
ARC
  5
1ED4D
  8
0
 10
4446.9603538784922421
 20
488.6674072760370109
 30
0.0
 40
0.027980060107421
 50
186.7837084078743999
 51
353.2162915921255717
  0
ARC
  5
1ED4E
  8
0
 10
4446.9603538784922421
 20
488.8387879703003023
 30
0.0
 40
0.0201661443529152
 50
193.5818239283267985
 51
346.4181760716700751
  0
ARC
  5
1ED4F
  8
0
 10
4446.9603538784922421
 20
488.9745174490316231
 30
0.0
 40
0.0080520727382366
 50
188.2333854130395991
 51
351.766614586973219
  0
LINE
  5
1ED50
  8
0
 10
4447.4286216333302946
 20
489.2172083631388091
 30
0.0
 11
4446.4920861234186305
 21
489.2172083631388091
 31
0.0
  0
ARC
  5
1ED51
  8
0
 10
4447.4110460235742721
 20
489.2172083631388091
 30
0.0
 40
0.0175756097561014
 50
0.0000000000065138
 51
44.9999999999930935
  0
ARC
  5
1ED52
  8
0
 10
4446.5096617331755624
 20
489.2172083631388091
 30
0.0
 40
0.0175756097561066
 50
135.0000000000092086
 51
179.9999999951733116
  0
LINE
  5
1ED53
  8
0
 10
4446.4972339003334127
 20
489.2296361959807882
 30
0.0
 11
4446.5775909292251526
 21
489.3099932249477888
 31
0.0
  0
ARC
  5
1ED54
  8
0
 10
4446.5939004211795691
 20
489.293683733008379
 30
0.0
 40
0.0230651047069596
 50
89.9999999916623636
 51
135.0000000269054965
  0
LINE
  5
1ED55
  8
0
 10
4446.5939004211832071
 20
489.3167488377152949
 30
0.0
 11
4447.3268073354493026
 21
489.3167488376085998
 31
0.0
  0
ARC
  5
1ED56
  8
0
 10
4447.3268073354447552
 20
489.2936837326408863
 30
0.0
 40
0.0230651049676677
 50
45.0000008639237521
 51
89.9999999916623636
  0
LINE
  5
1ED57
  8
0
 10
4447.343116827331869
 20
489.3099932250182746
 30
0.0
 11
4447.4234738564164218
 21
489.2296361959807882
 31
0.0
  0
ENDSEC
  0
EOF
