  0
SECTION
  2
HEADER
  9
$ACADVER
  1
AC1009
  9
$INSBASE
 10
4768.9365403836691257
 20
202.4882211308724038
 30
0.0
  9
$EXTMIN
 10
4764.9995325096679153
 20
202.4882211308724038
 30
0.0
  9
$EXTMAX
 10
4774.4415364466685787
 20
239.7561606142728863
 30
0.0
  9
$LIMMIN
 10
0.0
 20
0.0
  9
$LIMMAX
 10
11.6929133858000007
 20
8.2677165353999982
  9
$ORTHOMODE
 70
     0
  9
$REGENMODE
 70
     1
  9
$FILLMODE
 70
     1
  9
$QTEXTMODE
 70
     0
  9
$MIRRTEXT
 70
     0
  9
$DRAGMODE
 70
     2
  9
$LTSCALE
 40
0.6431102362
  9
$OSMODE
 70
  4095
  9
$ATTMODE
 70
     1
  9
$TEXTSIZE
 40
0.2
  9
$TRACEWID
 40
0.05
  9
$TEXTSTYLE
  7
STANDARD
  9
$CLAYER
  8
0
  9
$CELTYPE
  6
BYLAYER
  9
$CECOLOR
 62
   256
  9
$DIMSCALE
 40
1.0
  9
$DIMASZ
 40
0.1875
  9
$DIMEXO
 40
0.0625
  9
$DIMDLI
 40
0.4443307087
  9
$DIMRND
 40
0.0
  9
$DIMDLE
 40
0.0
  9
$DIMEXE
 40
0.125
  9
$DIMTP
 40
0.01
  9
$DIMTM
 40
0.01
  9
$DIMTXT
 40
2.0
  9
$DIMCEN
 40
0.1052362205
  9
$DIMTSZ
 40
0.0
  9
$DIMTOL
 70
     1
  9
$DIMLIM
 70
     0
  9
$DIMTIH
 70
     1
  9
$DIMTOH
 70
     1
  9
$DIMSE1
 70
     0
  9
$DIMSE2
 70
     0
  9
$DIMTAD
 70
     0
  9
$DIMZIN
 70
     0
  9
$DIMBLK
  1

  9
$DIMASO
 70
     1
  9
$DIMSHO
 70
     1
  9
$DIMPOST
  1
\X
  9
$DIMAPOST
  1

  9
$DIMALT
 70
     1
  9
$DIMALTD
 70
     2
  9
$DIMALTF
 40
25.3999999999999986
  9
$DIMLFAC
 40
1.0
  9
$DIMTOFL
 70
     0
  9
$DIMTVP
 40
0.0
  9
$DIMTIX
 70
     0
  9
$DIMSOXD
 70
     0
  9
$DIMSAH
 70
     0
  9
$DIMBLK1
  1

  9
$DIMBLK2
  1

  9
$DIMSTYLE
  2
STANDARD
  9
$DIMCLRD
 70
     0
  9
$DIMCLRE
 70
     0
  9
$DIMCLRT
 70
     0
  9
$DIMTFAC
 40
1.0
  9
$DIMGAP
 40
0.09
  9
$LUNITS
 70
     2
  9
$LUPREC
 70
     4
  9
$SKETCHINC
 40
0.1
  9
$FILLETRAD
 40
0.0
  9
$AUNITS
 70
     0
  9
$AUPREC
 70
     0
  9
$MENU
  1
.
  9
$ELEVATION
 40
0.0
  9
$PELEVATION
 40
0.0
  9
$THICKNESS
 40
0.0
  9
$LIMCHECK
 70
     0
  9
$BLIPMODE
 70
     0
  9
$CHAMFERA
 40
0.0
  9
$CHAMFERB
 40
0.0
  9
$SKPOLY
 70
     0
  9
$TDCREATE
 40
2458060.468368056230247
  9
$TDUPDATE
 40
2459760.692534722853452
  9
$TDINDWG
 40
0.4721366898
  9
$TDUSRTIMER
 40
0.4721366898
  9
$USRTIMER
 70
     1
  9
$ANGBASE
 50
0.0
  9
$ANGDIR
 70
     0
  9
$PDMODE
 70
     0
  9
$PDSIZE
 40
0.3125
  9
$PLINEWID
 40
0.0
  9
$COORDS
 70
     1
  9
$SPLFRAME
 70
     0
  9
$SPLINETYPE
 70
     6
  9
$SPLINESEGS
 70
     8
  9
$ATTDIA
 70
     1
  9
$ATTREQ
 70
     1
  9
$HANDLING
 70
     1
  9
$HANDSEED
  5
F9D5
  9
$SURFTAB1
 70
     6
  9
$SURFTAB2
 70
     6
  9
$SURFTYPE
 70
     6
  9
$SURFU
 70
     6
  9
$SURFV
 70
     6
  9
$UCSNAME
  2

  9
$UCSORG
 10
0.0
 20
0.0
 30
0.0
  9
$UCSXDIR
 10
1.0
 20
0.0
 30
0.0
  9
$UCSYDIR
 10
0.0
 20
1.0
 30
0.0
  9
$PUCSNAME
  2

  9
$PUCSORG
 10
0.0
 20
0.0
 30
0.0
  9
$PUCSXDIR
 10
1.0
 20
0.0
 30
0.0
  9
$PUCSYDIR
 10
0.0
 20
1.0
 30
0.0
  9
$USERI1
 70
     0
  9
$USERI2
 70
     0
  9
$USERI3
 70
     0
  9
$USERI4
 70
     0
  9
$USERI5
 70
     0
  9
$USERR1
 40
0.0
  9
$USERR2
 40
0.0
  9
$USERR3
 40
0.0
  9
$USERR4
 40
0.0
  9
$USERR5
 40
0.0
  9
$WORLDVIEW
 70
     1
  9
$SHADEDGE
 70
     3
  9
$SHADEDIF
 70
    70
  9
$TILEMODE
 70
     1
  9
$MAXACTVP
 70
    64
  9
$PLIMCHECK
 70
     0
  9
$PEXTMIN
 10
1.0000000000000000E+20
 20
1.0000000000000000E+20
 30
1.0000000000000000E+20
  9
$PEXTMAX
 10
-1.0000000000000000E+20
 20
-1.0000000000000000E+20
 30
-1.0000000000000000E+20
  9
$PLIMMIN
 10
0.0
 20
0.0
  9
$PLIMMAX
 10
12.0
 20
9.0
  9
$UNITMODE
 70
     0
  9
$VISRETAIN
 70
     1
  9
$PLINEGEN
 70
     0
  9
$PSLTSCALE
 70
     1
  0
ENDSEC
  0
SECTION
  2
TABLES
  0
TABLE
  2
VPORT
 70
     1
  0
VPORT
  2
*ACTIVE
 70
     0
 10
0.0
 20
0.0
 11
1.0
 21
1.0
 12
964.8091109269780645
 22
76.7220464195369658
 13
0.0
 23
0.0
 14
1.0
 24
1.0
 15
0.0
 25
0.0
 16
0.0
 26
0.0
 36
17.1152628219792007
 17
3803.5440673828129547
 27
125.9952621967499056
 37
0.0
 40
4.097793466870205
 41
2.000833333333333
 42
50.0
 43
0.0
 44
0.0
 50
0.0
 51
0.0
 71
     0
 72
   100
 73
     1
 74
     1
 75
     0
 76
     0
 77
     0
 78
     0
  0
ENDTAB
  0
TABLE
  2
LTYPE
 70
     2
  0
LTYPE
  2
CONTINUOUS
 70
     0
  3
Solid line
 72
    65
 73
     0
 40
0.0
  0
LTYPE
  2
PHANTOM2
 70
     0
  3
___ _ _ ___ _ _ ___ _ _ ___ _ _
 72
    65
 73
     6
 40
1.25
 49
0.625
 49
-0.125
 49
0.125
 49
-0.125
 49
0.125
 49
-0.125
  0
ENDTAB
  0
TABLE
  2
LAYER
 70
     2
  0
LAYER
  2
0
 70
     0
 62
   255
  6
CONTINUOUS
  0
LAYER
  2
DEFPOINTS
 70
     0
 62
     7
  6
CONTINUOUS
  0
ENDTAB
  0
TABLE
  2
STYLE
 70
     1
  0
STYLE
  2
STANDARD
 70
     0
 40
0.0
 41
0.8
 50
0.0
 71
     0
 42
0.2
  3
txt
  4

  0
ENDTAB
  0
TABLE
  2
VIEW
 70
     0
  0
ENDTAB
  0
TABLE
  2
UCS
 70
     0
  0
ENDTAB
  0
TABLE
  2
APPID
 70
     9
  0
APPID
  2
ACAD
 70
     0
  0
APPID
  2
ACAD_MLEADERVER
 70
     0
  0
APPID
  2
ACAD_EXEMPT_FROM_CAD_STANDARDS
 70
     0
  0
APPID
  2
ACAD_NAV_VCDISPLAY
 70
     0
  0
APPID
  2
ACAECLAYERSTANDARD
 70
     0
  0
APPID
  2
ACCMTRANSPARENCY
 70
     0
  0
APPID
  2
ACAD_DSTYLE_DIMJAG
 70
     0
  0
APPID
  2
ACAD_DSTYLE_DIMTALN
 70
     0
  0
APPID
  2
ACDBATTR
 70
     0
  0
ENDTAB
  0
TABLE
  2
DIMSTYLE
 70
     1
  0
DIMSTYLE
  2
STANDARD
 70
     0
  3

  4

  5

  6

  7

 40
1.0
 41
0.1875
 42
0.0625
 43
0.38
 44
0.125
 45
0.0
 46
0.0
 47
0.01
 48
0.01
140
0.15625
141
0.09
142
0.0
143
25.3999999999999986
144
1.0
145
0.0
146
1.0
147
0.09
 71
     1
 72
     0
 73
     1
 74
     1
 75
     0
 76
     0
 77
     0
 78
     4
170
     0
171
     2
172
     0
173
     0
174
     0
175
     0
176
     0
177
     0
178
     0
  0
ENDTAB
  0
ENDSEC
  0
SECTION
  2
BLOCKS
  0
BLOCK
  8
0
  2
$MODEL_SPACE
 70
     0
 10
0.0
 20
0.0
 30
0.0
  3
$MODEL_SPACE
  1

  0
ENDBLK
  5
21
  8
0
  0
BLOCK
 67
     1
  8
0
  2
$PAPER_SPACE
 70
     0
 10
0.0
 20
0.0
 30
0.0
  3
$PAPER_SPACE
  1

  0
ENDBLK
  5
1D
 67
     1
  8
0
  0
ENDSEC
  0
SECTION
  2
ENTITIES
  0
ATTDEF
  5
3930
  8
DEFPOINTS
 10
4768.9200331968122555
 20
202.4983415972513114
 30
0.0
 40
0.001
  1
P24978-00
  3

  2
MODELNUMBER
 70
     0
1001
ACDBATTR
1070
     0
1070
     1
  0
ATTDEF
  5
3931
  8
DEFPOINTS
 10
4768.9200331968122555
 20
202.4966749305845894
 30
0.0
 40
0.001
  1
PURE PALETTA
  3

  2
TRADENAME
 70
     0
1001
ACDBATTR
1070
     0
1070
     1
  0
ATTDEF
  5
3932
  8
DEFPOINTS
 10
4768.9200331968122555
 20
202.4950082639180096
 30
0.0
 40
0.001
  1
BATH FILLER
  3

  2
PRODUCT
 70
     0
1001
ACDBATTR
1070
     0
1070
     1
  0
LINE
  5
F4EB
  8
0
 10
4766.5843356592704367
 20
202.4882211308724038
 30
0.0
 11
4771.2887451080678147
 21
202.4882211308724038
 31
0.0
  0
LINE
  5
F4EC
  8
0
 10
4766.594335659268836
 20
203.2756227056723901
 30
0.0
 11
4771.2787451080694154
 21
203.2756227056723901
 31
0.0
  0
LINE
  5
F4ED
  8
0
 10
4771.2987451080689425
 20
202.4982211308723947
 30
0.0
 11
4771.2987451080689425
 21
203.2556227056724083
 31
0.0
  0
LINE
  5
F4EE
  8
0
 10
4766.574335659269309
 20
203.2556227056724083
 30
0.0
 11
4766.574335659269309
 21
202.4982211308723947
 31
0.0
  0
ARC
  5
F4EF
  8
0
 10
4766.594335659268836
 20
203.2556227056724083
 30
0.0
 40
0.02
 50
90.0
 51
180.0000000000098055
  0
ARC
  5
F4F0
  8
0
 10
4766.5843356592704367
 20
202.4982211308723947
 30
0.0
 40
0.01
 50
180.0
 51
270.0
  0
ARC
  5
F4F1
  8
0
 10
4771.2887451080678147
 20
202.4982211308723947
 30
0.0
 40
0.01
 50
270.0
 51
0.0
  0
ARC
  5
F4F2
  8
0
 10
4771.2787451080694154
 20
203.2556227056724083
 30
0.0
 40
0.02
 50
359.9999999999902229
 51
90.0
  0
LINE
  5
F4F3
  8
0
 10
4765.9606306393861814
 20
230.4034209087724037
 30
0.0
 11
4767.9521388088678577
 21
230.4033916263724109
 31
0.0
  0
LINE
  5
F4F4
  8
0
 10
4767.9521388088678577
 20
228.5923972866723943
 30
0.0
 11
4767.292385477310745
 21
228.5923972866723943
 31
0.0
  0
LINE
  5
F4F5
  8
0
 10
4766.2503782994090216
 20
228.5923972866723943
 30
0.0
 11
4765.8971112519329836
 21
228.5923972866723943
 31
0.0
  0
ARC
  5
F4F6
  8
0
 10
4767.9521388088678577
 20
230.6003916263724136
 30
0.0
 40
0.197
 50
270.0
 51
0.0
  0
ARC
  5
F4F7
  8
0
 10
4767.9521388088005551
 20
228.3953972844273039
 30
0.0
 40
0.1970000022450482
 50
0.008517161540404
 51
89.9999999800939037
  0
LINE
  5
F4F8
  8
0
 10
4764.9995325096679153
 20
230.2977778634723904
 30
0.0
 11
4764.9995325096679153
 21
228.6980403318723916
 31
0.0
  0
LINE
  5
F4F9
  8
0
 10
4765.0395325096687884
 20
230.3377778634724109
 30
0.0
 11
4765.1663857959702
 21
230.3377778634724109
 31
0.0
  0
ARC
  5
F4FA
  8
0
 10
4765.0395325096687884
 20
230.2977778634723904
 30
0.0
 40
0.04
 50
90.0
 51
180.0
  0
ARC
  5
F4FB
  8
0
 10
4765.1663973924969468
 20
230.3182376766044115
 30
0.0
 40
0.019540190309138
 50
69.6390375093166796
 51
90.0340033616279385
  0
ARC
  5
F4FC
  8
0
 10
4765.5294608917984078
 20
231.2349138477877943
 30
0.0
 40
0.966421066489852
 50
248.3680191510287045
 51
260.5773955648780884
  0
ARC
  5
F4FD
  8
0
 10
4765.491720527794314
 20
231.0380370565202952
 30
0.0
 40
0.766038249948389
 50
260.9513309749278847
 51
275.3340836019070821
  0
ARC
  5
F4FE
  8
0
 10
4765.4628516557850162
 20
231.212591145293402
 30
0.0
 40
0.942603287894337
 50
276.0949350580914938
 51
293.353497595891497
  0
ARC
  5
F4FF
  8
0
 10
4765.2454833748442979
 20
231.7579673531695903
 30
0.0
 40
1.529556253352597
 50
292.7306170900743041
 51
297.5517866695598741
  0
ARC
  5
F500
  8
0
 10
4765.9607966320190826
 20
230.3829151585482009
 30
0.0
 40
0.0205064220626254
 50
90.4637952480670151
 51
112.4072434109820051
  0
ARC
  5
F501
  8
0
 10
4771.1038559378266655
 20
233.1332517333044052
 30
0.0
 40
3.8917520005065471
 50
220.6040380176019085
 51
231.4068157554382026
  0
ARC
  5
F502
  8
0
 10
4768.9392432642061976
 20
230.3989590193098138
 30
0.0
 40
0.40462114569686
 50
229.4572006921542027
 51
269.6172597485011124
  0
LINE
  5
F503
  8
0
 10
4765.0395325096687884
 20
228.6580403318723995
 30
0.0
 11
4765.255823557668009
 21
228.658040331672396
 31
0.0
  0
ARC
  5
F504
  8
0
 10
4765.0395325096687884
 20
228.6980403318723916
 30
0.0
 40
0.04
 50
180.0
 51
270.0
  0
ARC
  5
F505
  8
0
 10
4765.2556869940117394
 20
228.6792522399485961
 30
0.0
 40
0.0212123478745924
 50
270.368868890571207
 51
288.6092074292811276
  0
ARC
  5
F506
  8
0
 10
4765.511493590961436
 20
227.8097023005618098
 30
0.0
 40
0.8852001215283483
 50
98.8756874489400843
 51
106.3398785679343064
  0
ARC
  5
F507
  8
0
 10
4765.4921201949173337
 20
227.9337626125154941
 30
0.0
 40
0.7596362354930624
 50
77.6628558478624029
 51
98.8756874489400843
  0
ARC
  5
F508
  8
0
 10
4765.4262345014940365
 20
227.6325219337965962
 30
0.0
 40
1.067997826993937
 50
64.1390464564876339
 51
77.6628558478624029
  0
ARC
  5
F509
  8
0
 10
4765.8972934059747786
 20
228.6045877778929025
 30
0.0
 40
0.0121918520451911
 50
244.6995198719233997
 51
269.1439326785049957
  0
LINE
  5
F50A
  8
0
 10
4772.9767811511173932
 20
230.4034365583023032
 30
0.0
 11
4772.1176427458685794
 21
230.4034239258488128
 31
0.0
  0
LINE
  5
F50B
  8
0
 10
4772.0861466828691846
 20
230.4034234627422961
 30
0.0
 11
4769.9209419584703937
 21
230.4033916263724109
 31
0.0
  0
LINE
  5
F50C
  8
0
 10
4769.9209419584703937
 20
228.5923972866723943
 30
0.0
 11
4772.0861466828691846
 21
228.5923972866723943
 31
0.0
  0
LINE
  5
F50D
  8
0
 10
4772.1176427458685794
 20
228.5923972866723943
 30
0.0
 11
4772.4960679215018899
 21
228.5923972866723943
 31
0.0
  0
LINE
  5
F50E
  8
0
 10
4772.8578789876355586
 20
228.5923972866723943
 30
0.0
 11
4772.976935001169295
 21
228.5923972866723943
 31
0.0
  0
ARC
  5
F50F
  8
0
 10
4769.9209419584703937
 20
230.6003916263724136
 30
0.0
 40
0.197
 50
180.0
 51
270.0
  0
ARC
  5
F510
  8
0
 10
4769.9209419971830357
 20
228.3953971910785015
 30
0.0
 40
0.1970000955938309
 50
90.0000112596610649
 51
179.9564604905343117
  0
LINE
  5
F511
  8
0
 10
4772.0861466828691846
 20
228.5923972866723943
 30
0.0
 11
4772.0861466828691846
 21
230.4034234627422961
 31
0.0
  0
LINE
  5
F512
  8
0
 10
4772.1176427458685794
 20
228.5923972866723943
 30
0.0
 11
4772.1176427458685794
 21
230.4034239258488128
 31
0.0
  0
LINE
  5
F513
  8
0
 10
4772.0861466828691846
 20
230.3935783890723883
 30
0.0
 11
4772.1176427458685794
 21
230.3935783890723883
 31
0.0
  0
LINE
  5
F514
  8
0
 10
4772.0861466828691846
 20
228.6022398063724097
 30
0.0
 11
4772.1176427458685794
 21
228.6022398063724097
 31
0.0
  0
LINE
  5
F515
  8
0
 10
4773.2200049505690913
 20
230.1212144713202861
 30
0.0
 11
4773.2200049505690913
 21
228.8746037240244959
 31
0.0
  0
ARC
  5
F516
  8
0
 10
4772.676085488859826
 20
229.1579935714611906
 30
0.0
 40
0.5935532679756085
 50
252.3448061426078937
 51
266.4355116316187946
  0
ARC
  5
F517
  8
0
 10
4772.6767049154386768
 20
229.167937419344014
 30
0.0
 40
0.6035163899764344
 50
266.4355116316187946
 51
282.2402926751228165
  0
ARC
  5
F518
  8
0
 10
4772.6831697562811314
 20
229.1381378191389047
 30
0.0
 40
0.5730235983777208
 50
282.2402926751228165
 51
287.7515531436669107
  0
LINE
  5
F519
  8
0
 10
4772.99158024665212
 20
230.3968900141915128
 30
0.0
 11
4773.0585624982295485
 21
230.323209537526111
 31
0.0
  0
ARC
  5
F51A
  8
0
 10
4772.9767814451906816
 20
230.3834365583045098
 30
0.0
 40
0.02
 50
42.273689033678238
 51
90.0008424559865716
  0
LINE
  5
F51B
  8
0
 10
4773.0637636967685467
 20
230.3097560816391081
 30
0.0
 11
4773.0637636967685467
 21
228.6860621137057024
 31
0.0
  0
ARC
  5
F51C
  8
0
 10
4773.0437636967690196
 20
230.3097560816391081
 30
0.0
 40
0.02
 50
0.0
 51
42.273689033678238
  0
LINE
  5
F51D
  8
0
 10
4773.1632740635686787
 20
230.1862296294723933
 30
0.0
 11
4773.1632740635686787
 21
228.8095891636417036
 31
0.0
  0
LINE
  5
F51E
  8
0
 10
4773.1633663135407915
 20
230.1861373795960901
 30
0.0
 11
4773.2141470861915877
 21
230.1353566069439864
 31
0.0
  0
ARC
  5
F51F
  8
0
 10
4773.149224177916949
 20
230.1719952439723897
 30
0.0
 40
0.02
 50
44.9999999999953886
 51
90.0
  0
LINE
  5
F520
  8
0
 10
4773.0837636967689832
 20
230.1919952439724
 30
0.0
 11
4773.149224177916949
 21
230.1919952439724
 31
0.0
  0
ARC
  5
F521
  8
0
 10
4773.0837636967689832
 20
230.2119952439724102
 30
0.0
 40
0.02
 50
180.0
 51
270.0
  0
ARC
  5
F522
  8
0
 10
4773.2000049505686547
 20
230.1212144713202861
 30
0.0
 40
0.02
 50
359.9999999999902229
 51
44.9999999999965397
  0
LINE
  5
F523
  8
0
 10
4772.9915802466557579
 20
228.5989281811582998
 30
0.0
 11
4772.9915802466557579
 21
230.3968900141863969
 31
0.0
  0
LINE
  5
F524
  8
0
 10
4772.99158024665212
 20
228.5989281811532123
 30
0.0
 11
4773.0585624982295485
 21
228.6726086578186994
 31
0.0
  0
ARC
  5
F525
  8
0
 10
4772.9767814451906816
 20
228.6123816370403006
 30
0.0
 40
0.02
 50
269.9991575440134284
 51
317.7263109663218188
  0
ARC
  5
F526
  8
0
 10
4773.0437636967690196
 20
228.6860621137057024
 30
0.0
 40
0.02
 50
317.7263109663218188
 51
0.0
  0
LINE
  5
F527
  8
0
 10
4773.1633663135407915
 20
228.8096808157486919
 30
0.0
 11
4773.2141470861915877
 21
228.8604615884007956
 31
0.0
  0
ARC
  5
F528
  8
0
 10
4773.149224177916949
 20
228.8238229513723923
 30
0.0
 40
0.02
 50
270.0
 51
315.0000000000046043
  0
LINE
  5
F529
  8
0
 10
4773.0837636967689832
 20
228.8038229513724104
 30
0.0
 11
4773.149224177916949
 21
228.8038229513724104
 31
0.0
  0
ARC
  5
F52A
  8
0
 10
4773.0837636967689832
 20
228.7838229513724002
 30
0.0
 40
0.02
 50
90.0
 51
180.0
  0
ARC
  5
F52B
  8
0
 10
4773.2000049505686547
 20
228.8746037240244959
 30
0.0
 40
0.02
 50
315.0000000000034106
 51
0.0000000000097707
  0
ARC
  5
F52C
  8
0
 10
4766.9048591173568639
 20
227.5162149529035105
 30
0.0
 40
1.259568797874056
 50
104.2143045051333985
 51
121.3058963797923013
  0
ARC
  5
F52D
  8
0
 10
4766.7725545251578296
 20
227.9784249265821074
 30
0.0
 40
0.7791622830135362
 50
70.6357348888681713
 51
103.1289660127378056
  0
ARC
  5
F52E
  8
0
 10
4766.5711227747769954
 20
227.378016107700887
 30
0.0
 40
1.412423992258371
 50
59.2924684904592283
 51
71.0025532260666239
  0
LINE
  5
F530
  8
0
 10
4766.2672490170325545
 20
228.602477774021196
 30
0.0
 11
4766.2672489328688243
 21
228.5254682047724089
 31
0.0
  0
LINE
  5
F531
  8
0
 10
4766.2672489328688243
 20
228.5254682047724089
 30
0.0
 11
4766.2869340265679057
 21
228.505783113472404
 31
0.0
  0
LINE
  5
F532
  8
0
 10
4766.2869340265679057
 20
228.505783113472404
 30
0.0
 11
4767.2554380793690143
 21
228.505783113472404
 31
0.0
  0
LINE
  5
F533
  8
0
 10
4767.2554380793690143
 20
228.505783113472404
 30
0.0
 11
4767.2751230608682818
 21
228.525468092572396
 31
0.0
  0
LINE
  5
F534
  8
0
 10
4767.2751230608682818
 20
228.525468092572396
 30
0.0
 11
4767.2751230608682818
 21
228.6024854340176091
 31
0.0
  0
LINE
  5
F535
  8
0
 10
4766.3322096749689081
 20
228.505783113472404
 30
0.0
 11
4766.3322096749689081
 21
228.4500063591723915
 31
0.0
  0
LINE
  5
F536
  8
0
 10
4767.2101624309689214
 20
228.505783113472404
 30
0.0
 11
4767.2101624309689214
 21
228.4500063591723915
 31
0.0
  0
LINE
  5
F537
  8
0
 10
4766.2672490450686382
 20
228.4500063591723915
 30
0.0
 11
4767.2751230608682818
 21
228.4500063591723915
 31
0.0
  0
LINE
  5
F538
  8
0
 10
4767.2751230608682818
 20
228.4500063591723915
 30
0.0
 11
4767.2751230608682818
 21
228.1079115613630961
 31
0.0
  0
LINE
  5
F539
  8
0
 10
4767.3001387971053191
 20
228.0708242071916061
 30
0.0
 11
4767.3819970884333088
 21
228.0377513106222125
 31
0.0
  0
ARC
  5
F53A
  8
0
 10
4767.3151230608691549
 20
228.1079115613630961
 30
0.0
 40
0.04
 50
180.0
 51
247.9999999574189076
  0
LINE
  5
F53B
  8
0
 10
4767.4070128246676177
 20
228.0006639564269904
 30
0.0
 11
4767.4070128245693923
 21
227.8325260442487092
 31
0.0
  0
ARC
  5
F53C
  8
0
 10
4767.3670128246676541
 20
228.0006639564506088
 30
0.0
 40
0.04
 50
359.9999999661349079
 51
67.9999999574188507
  0
LINE
  5
F53D
  8
0
 10
4766.1753592813684008
 20
227.7925260442723925
 30
0.0
 11
4767.3670128245694286
 21
227.7925260442723925
 31
0.0
  0
ARC
  5
F53E
  8
0
 10
4767.3670128245694286
 20
227.8325260442724129
 30
0.0
 40
0.04
 50
270.0
 51
359.9999999661349079
  0
ARC
  5
F53F
  8
0
 10
4766.1753592813684008
 20
227.8325260442724129
 30
0.0
 40
0.04
 50
180.0000000338635004
 51
270.0
  0
LINE
  5
F540
  8
0
 10
4766.2672490450686382
 20
228.4500063591723915
 30
0.0
 11
4766.2672490450686382
 21
228.1079115614533919
 31
0.0
  0
ARC
  5
F541
  8
0
 10
4766.2272490450677651
 20
228.1079115614533919
 30
0.0
 40
0.04
 50
292.000000096650183
 51
0.0
  0
LINE
  5
F542
  8
0
 10
4766.2422333088679807
 20
228.070824207295999
 30
0.0
 11
4766.1603750174690504
 21
228.0377513106085132
 31
0.0
  0
LINE
  5
F543
  8
0
 10
4766.1353592812693023
 20
228.0006639564273883
 30
0.0
 11
4766.1353592813684372
 21
227.8325260442487092
 31
0.0
  0
ARC
  5
F544
  8
0
 10
4766.1753592812692659
 20
228.000663956451092
 30
0.0
 40
0.04
 50
112.000000096650794
 51
180.0000000338635004
  0
LINE
  5
F545
  8
0
 10
4766.242627257469394
 20
228.070983372772389
 30
0.0
 11
4767.2997507192321791
 21
228.070983372772389
 31
0.0
  0
LINE
  5
F546
  8
0
 10
4766.159981068968591
 20
228.0375921451723968
 30
0.0
 11
4767.3823910369692385
 21
228.0375921451723968
 31
0.0
  0
LINE
  5
F547
  8
0
 10
4766.2761860529681144
 20
227.7925260442723925
 30
0.0
 11
4766.2761860529681144
 21
226.447526044172406
 31
0.0
  0
LINE
  5
F548
  8
0
 10
4767.2661860529678961
 20
227.7925260441724049
 30
0.0
 11
4767.2661860529678961
 21
226.447526044172406
 31
0.0
  0
LINE
  5
F549
  8
0
 10
4766.6014804254691626
 20
227.7925260441724049
 30
0.0
 11
4766.6014804254691626
 21
226.447526044172406
 31
0.0
  0
LINE
  5
F54A
  8
0
 10
4766.9408916804686669
 20
227.7925260441724049
 30
0.0
 11
4766.9407662468693161
 21
226.4458851251723956
 31
0.0
  0
ARC
  5
F54B
  8
0
 10
4766.6183951644698027
 20
226.4495969061192113
 30
0.0
 40
0.0170410347303046
 50
186.9799541497764039
 51
240.003953967300788
  0
ARC
  5
F54C
  8
0
 10
4766.6529085493502862
 20
226.5049388791530873
 30
0.0
 40
0.082255172421758
 50
238.4553233824144911
 51
260.0200969507582727
  0
ARC
  5
F54D
  8
0
 10
4766.6916028337018361
 20
226.6877055519966007
 30
0.0
 40
0.2690391195679751
 50
258.6495778925255991
 51
266.6468496125485217
  0
ARC
  5
F54E
  8
0
 10
4766.7301010846322242
 20
227.3242391697206131
 30
0.0
 40
0.9067355469860542
 50
266.5709330894741811
 51
269.5970696935431192
  0
ARC
  5
F54F
  8
0
 10
4766.9239641682679576
 20
226.4495969061192113
 30
0.0
 40
0.0170410347303046
 50
299.996046032699212
 51
353.0200458502234824
  0
ARC
  5
F550
  8
0
 10
4766.8894507833865646
 20
226.5049388791530873
 30
0.0
 40
0.082255172421758
 50
279.9799030492417273
 51
301.5446766175854805
  0
ARC
  5
F551
  8
0
 10
4766.8507564990350147
 20
226.6877055519966007
 30
0.0
 40
0.2690391195679751
 50
273.353150387451592
 51
281.3504221074744009
  0
ARC
  5
F552
  8
0
 10
4766.812258248107355
 20
227.3242391697206131
 30
0.0
 40
0.9067355469860684
 50
270.4029303064568808
 51
273.4290669105258189
  0
LINE
  5
F553
  8
0
 10
4766.3061860529678597
 20
226.4175260441724049
 30
0.0
 11
4767.2361860529690603
 21
226.4175260441724049
 31
0.0
  0
ARC
  5
F554
  8
0
 10
4767.2361860529690603
 20
226.447526044172406
 30
0.0
 40
0.03
 50
270.0
 51
0.0
  0
ARC
  5
F555
  8
0
 10
4766.3061860529678597
 20
226.447526044172406
 30
0.0
 40
0.03
 50
180.0
 51
270.0
  0
LINE
  5
F556
  8
0
 10
4766.4111860529692422
 20
226.4175260441724049
 30
0.0
 11
4766.4111860529692422
 21
226.3300341678084919
 31
0.0
  0
LINE
  5
F557
  8
0
 10
4766.4111860529692422
 20
226.3300341678084919
 30
0.0
 11
4766.3898912530694361
 21
226.308670982372405
 31
0.0
  0
LINE
  5
F558
  8
0
 10
4766.3898912530694361
 20
226.308670982372405
 30
0.0
 11
4766.4126519200690382
 21
226.2953795726724024
 31
0.0
  0
LINE
  5
F559
  8
0
 10
4766.4126519200690382
 20
226.2953795726724024
 30
0.0
 11
4766.3586860529703699
 21
226.2638731798724052
 31
0.0
  0
LINE
  5
F55A
  8
0
 10
4766.3586860529703699
 20
226.2638731798724052
 30
0.0
 11
4766.3586860529703699
 21
226.2554200088723917
 31
0.0
  0
LINE
  5
F55B
  8
0
 10
4766.3586860529703699
 20
226.2554200088723917
 30
0.0
 11
4766.4126583835677593
 21
226.2239559869724133
 31
0.0
  0
LINE
  5
F55C
  8
0
 10
4766.4126583835677593
 20
226.2239559869724133
 30
0.0
 11
4766.3586860529703699
 21
226.1924142141724019
 31
0.0
  0
LINE
  5
F55D
  8
0
 10
4766.3586860529703699
 20
226.1924142141724019
 30
0.0
 11
4766.3586860529703699
 21
226.1839914307724086
 31
0.0
  0
LINE
  5
F55E
  8
0
 10
4766.3586860529703699
 20
226.1839914307724086
 30
0.0
 11
4766.4126501555692812
 21
226.1525258056724113
 31
0.0
  0
LINE
  5
F55F
  8
0
 10
4766.4126501555692812
 20
226.1525258056724113
 30
0.0
 11
4766.3586860529703699
 21
226.1210597354723859
 31
0.0
  0
LINE
  5
F560
  8
0
 10
4766.3586860529703699
 20
226.1210597354723859
 30
0.0
 11
4766.3586860529703699
 21
226.1175259424724118
 31
0.0
  0
LINE
  5
F561
  8
0
 10
4766.3586860529703699
 20
226.1175259424724118
 30
0.0
 11
4766.3704291924686913
 21
226.1057828058723942
 31
0.0
  0
LINE
  5
F562
  8
0
 10
4766.3704278981686002
 20
226.1057841001724
 30
0.0
 11
4766.4126587555692822
 21
226.0811037350723893
 31
0.0
  0
LINE
  5
F563
  8
0
 10
4766.4126587555692822
 20
226.0811037350723893
 30
0.0
 11
4766.4016991848702673
 21
226.0747260149724127
 31
0.0
  0
LINE
  5
F564
  8
0
 10
4766.4016991848702673
 20
226.0747260149724127
 30
0.0
 11
4766.4017311446677923
 21
226.0744808613723933
 31
0.0
  0
LINE
  5
F565
  8
0
 10
4766.4017311446677923
 20
226.0744808613723933
 30
0.0
 11
4766.4186859660685514
 21
226.0575260441723913
 31
0.0
  0
LINE
  5
F566
  8
0
 10
4766.4186859660685514
 20
226.0575260441723913
 30
0.0
 11
4767.12368606426935
 21
226.0575259685724063
 31
0.0
  0
LINE
  5
F567
  8
0
 10
4767.12368606426935
 20
226.0575259685724063
 30
0.0
 11
4767.1632483171688364
 21
226.0970882116723999
 31
0.0
  0
LINE
  5
F568
  8
0
 10
4767.1632483171688364
 20
226.0970882116723999
 30
0.0
 11
4767.1297190437690006
 21
226.1168078737723874
 31
0.0
  0
LINE
  5
F569
  8
0
 10
4767.1297190437690006
 20
226.1168078737723874
 30
0.0
 11
4767.1836860529692785
 21
226.1483303841723966
 31
0.0
  0
LINE
  5
F56A
  8
0
 10
4767.1836860529692785
 20
226.1483303841723966
 30
0.0
 11
4767.1836860529692785
 21
226.1567176894724014
 31
0.0
  0
LINE
  5
F56B
  8
0
 10
4767.1836860529692785
 20
226.1567176894724014
 30
0.0
 11
4767.1297190946479532
 21
226.1882437081488035
 31
0.0
  0
LINE
  5
F56C
  8
0
 10
4767.1297190946479532
 20
226.1882437081488035
 30
0.0
 11
4767.1836860529692785
 21
226.2197069012723887
 31
0.0
  0
LINE
  5
F56D
  8
0
 10
4767.1836860529692785
 20
226.2197069012723887
 30
0.0
 11
4767.1836860529692785
 21
226.2281971174724049
 31
0.0
  0
LINE
  5
F56E
  8
0
 10
4767.1836860529692785
 20
226.2281971174724049
 30
0.0
 11
4767.1297145097687462
 21
226.2596662993724124
 31
0.0
  0
LINE
  5
F56F
  8
0
 10
4767.1297145097687462
 20
226.2596662993724124
 30
0.0
 11
4767.1750572391692913
 21
226.2861549636724021
 31
0.0
  0
LINE
  5
F570
  8
0
 10
4767.1750572391692913
 20
226.2861549636724021
 30
0.0
 11
4767.1311860529704063
 21
226.3300261384196972
 31
0.0
  0
LINE
  5
F571
  8
0
 10
4767.1311860529704063
 20
226.4175260441724049
 30
0.0
 11
4767.1311860529704063
 21
226.3299425389724036
 31
0.0
  0
LINE
  5
F572
  8
0
 10
4766.4124426168582431
 20
226.2952573771158882
 30
0.0
 11
4767.1311860529704063
 21
226.3299422632723861
 31
0.0
  0
LINE
  5
F573
  8
0
 10
4766.4126583835677593
 20
226.2239559869724133
 30
0.0
 11
4767.1297760370152901
 21
226.2597022428319065
 31
0.0
  0
LINE
  5
F574
  8
0
 10
4766.4126501555692812
 20
226.1525258056724113
 30
0.0
 11
4767.1297190946479532
 21
226.1882437081488888
 31
0.0
  0
LINE
  5
F575
  8
0
 10
4766.4126587555692822
 20
226.0811037350723893
 30
0.0
 11
4767.1299421418061684
 21
226.1169381869077029
 31
0.0
  0
LINE
  5
F576
  8
0
 10
4766.4086859580693272
 20
226.3275260441724015
 30
0.0
 11
4767.0816045986694007
 21
226.3275260441724015
 31
0.0
  0
ARC
  5
F577
  8
0
 10
4766.769224829509767
 20
233.1332517333044052
 30
0.0
 40
3.8917520005065471
 50
308.5931842445618258
 51
319.3959619823980915
  0
ARC
  5
F578
  8
0
 10
4768.9338375031320538
 20
230.3989590193098138
 30
0.0
 40
0.40462114569686
 50
270.3827402514987739
 51
310.5427993078458826
  0
ARC
  5
F579
  8
0
 10
4771.1038559378266655
 20
225.8625664620404052
 30
0.0
 40
3.8917520005065471
 50
128.5931842445617121
 51
139.3959619823980063
  0
ARC
  5
F57A
  8
0
 10
4768.9392432642061976
 20
228.5968591760349113
 30
0.0
 40
0.40462114569686
 50
90.3827402514988734
 51
130.5427993078457973
  0
ARC
  5
F57B
  8
0
 10
4766.769224829509767
 20
225.8625664620404052
 30
0.0
 40
3.8917520005065471
 50
40.6040380176019369
 51
51.406815755438231
  0
ARC
  5
F57C
  8
0
 10
4768.9338375031320538
 20
228.5968591760349113
 30
0.0
 40
0.40462114569686
 50
49.45720069215416
 51
89.6172597485011266
  0
LINE
  5
F57D
  8
0
 10
4773.2200049505690913
 20
229.9714090977724084
 30
0.0
 11
4773.3479364466693369
 21
229.9714090977724084
 31
0.0
  0
ARC
  5
F57E
  8
0
 10
4774.4215364466690517
 20
232.6991208894723968
 30
0.0
 40
0.02
 50
0.0
 51
44.9999999638733499
  0
LINE
  5
F57F
  8
0
 10
4774.2949364466694533
 20
229.0244090977724056
 30
0.0
 11
4773.2200049505690913
 21
229.0244090977724056
 31
0.0
  0
ARC
  5
F580
  8
0
 10
4774.2949364466694533
 20
229.1710090977724121
 30
0.0
 40
0.1466
 50
270.0
 51
359.9999999999984084
  0
ARC
  5
F581
  8
0
 10
4773.3479364466693369
 20
230.1180090977723864
 30
0.0
 40
0.1466
 50
270.0
 51
0.0
  0
LINE
  5
F582
  8
0
 10
4773.4945364466693718
 20
230.5294051607723986
 30
0.0
 11
4774.4415364466685787
 21
230.5294051607723986
 31
0.0
  0
ARC
  5
F583
  8
0
 10
4773.5145364466679894
 20
230.5094051607723884
 30
0.0
 40
0.02
 50
90.0
 51
179.9999999999901945
  0
ARC
  5
F584
  8
0
 10
4774.4215364466690517
 20
230.5094051607723884
 30
0.0
 40
0.02
 50
0.0000000000097707
 51
90.0
  0
LINE
  5
F585
  8
0
 10
4773.5003943110368709
 20
232.7132630250397085
 30
0.0
 11
4773.579678582284032
 21
232.7925472963871982
 31
0.0
  0
ARC
  5
F586
  8
0
 10
4773.5145364466679894
 20
232.6991208894249041
 30
0.0
 40
0.02
 50
135.0000000361266075
 51
180.0
  0
LINE
  5
F587
  8
0
 10
4774.3563943111021217
 20
232.7925472963871982
 30
0.0
 11
4774.4356785823019891
 21
232.7132630250872012
 31
0.0
  0
ARC
  5
F588
  8
0
 10
4774.3422521754691843
 20
232.7784051607723939
 30
0.0
 40
0.02
 50
44.9999999638733499
 51
90.0
  0
LINE
  5
F589
  8
0
 10
4773.5938207179160599
 20
232.7984051607724041
 30
0.0
 11
4774.3422521754691843
 21
232.7984051607724041
 31
0.0
  0
ARC
  5
F58A
  8
0
 10
4773.5938207179160599
 20
232.7784051607723939
 30
0.0
 40
0.02
 50
90.0
 51
135.0000000361266075
  0
LINE
  5
F58B
  8
0
 10
4773.5003943110687032
 20
232.7132630250723935
 30
0.0
 11
4774.4356785823156315
 21
232.7132630250723935
 31
0.0
  0
LINE
  5
F58C
  8
0
 10
4773.5796785823458777
 20
232.7925472963962079
 30
0.0
 11
4774.3563943111166736
 21
232.7925472963723905
 31
0.0
  0
ARC
  5
F58D
  8
0
 10
4768.4227642441201169
 20
236.4484024197755048
 30
0.0
 40
0.2047676341695315
 50
157.3877640336712886
 51
178.8697987351303027
  0
ARC
  5
F58E
  8
0
 10
4768.4711709530383814
 20
236.4282405216935103
 30
0.0
 40
0.257205326743427
 50
127.583313512829605
 51
157.3877640336712886
  0
ARC
  5
F58F
  8
0
 10
4768.7105969903859659
 20
236.1501633246195979
 30
0.0
 40
0.6239267461662634
 50
111.2589664640923957
 51
129.4325606083596938
  0
ARC
  5
F590
  8
0
 10
4768.8735264703000212
 20
235.7470237405497073
 30
0.0
 40
1.0587239298122431
 50
102.5043329898495017
 51
111.5658371559598976
  0
ARC
  5
F591
  8
0
 10
4768.9264806748087722
 20
235.494330428291704
 30
0.0
 40
1.316892009735936
 50
93.1951350964663163
 51
102.3732253694395951
  0
ARC
  5
F592
  8
0
 10
4768.9363023660171166
 20
235.386344054653307
 30
0.0
 40
1.4252629803040531
 50
89.9904316556279866
 51
93.3473979985464268
  0
ARC
  5
F593
  8
0
 10
4768.4328318806456082
 20
236.4557381070210056
 30
0.0
 40
0.214820732395851
 50
180.879327153528493
 51
208.2792758110209945
  0
ARC
  5
F594
  8
0
 10
4768.5111801851362543
 20
236.4978877745008106
 30
0.0
 40
0.3037873063722424
 50
208.2792758110209945
 51
229.4219585941814046
  0
ARC
  5
F595
  8
0
 10
4769.1118975908839275
 20
237.20441128063581
 30
0.0
 40
1.2311675624503271
 50
229.5766677634057089
 51
239.1246814792870055
  0
ARC
  5
F596
  8
0
 10
4768.934875356784687
 20
235.4164422899362989
 30
0.0
 40
1.3802851992164591
 50
89.9308845473367739
 51
99.1888434311030807
  0
ARC
  5
F597
  8
0
 10
4768.8925488272216171
 20
235.6780969869261071
 30
0.0
 40
1.1152291380488559
 50
99.1888434311030807
 51
110.5164986599745021
  0
ARC
  5
F598
  8
0
 10
4768.7337576692016228
 20
236.1024306959199066
 30
0.0
 40
0.6621576994721142
 50
110.5164986599745021
 51
127.7253905353031058
  0
ARC
  5
F599
  8
0
 10
4768.513707142408748
 20
236.386882197864395
 30
0.0
 40
0.3025260944927781
 50
127.7253905353041006
 51
154.2756579034254116
  0
ARC
  5
F59A
  8
0
 10
4768.41028508956515
 20
236.4386188031716074
 30
0.0
 40
0.1869059801536996
 50
154.8028153415473867
 51
206.9321439106475111
  0
ARC
  5
F59B
  8
0
 10
4768.932524112054125
 20
235.5190541297725986
 30
0.0
 40
1.110306045043723
 50
89.7927455085310839
 51
101.9362126736555041
  0
ARC
  5
F59C
  8
0
 10
4768.8657003754851758
 20
235.8351651703177936
 30
0.0
 40
0.7872091528836322
 50
101.9362126736555041
 51
119.0004976320750956
  0
ARC
  5
F59D
  8
0
 10
4768.6337640785823169
 20
236.2535807556292013
 30
0.0
 40
0.3088096881553915
 50
119.0004976320750956
 51
153.0307970247282867
  0
ARC
  5
F59E
  8
0
 10
4768.5017445364683226
 20
236.333736615674411
 30
0.0
 40
0.1552271447326188
 50
157.3040830743096876
 51
210.7928200516768129
  0
ARC
  5
F59F
  8
0
 10
4768.7147115863226645
 20
236.4973558231017137
 30
0.0
 40
0.4231096506361266
 50
215.0661061012459072
 51
231.4125861384054019
  0
ARC
  5
F5A0
  8
0
 10
4768.8072702322051555
 20
236.6864354234575956
 30
0.0
 40
0.6302850437366438
 50
235.559752422122898
 51
254.5744092787255966
  0
ARC
  5
F5A1
  8
0
 10
4768.9253343279806359
 20
237.0831149056249956
 30
0.0
 40
1.0441112874500409
 50
254.1189640849273985
 51
266.9375739722963772
  0
ARC
  5
F5A2
  8
0
 10
4768.9514806330644205
 20
237.6826475386365018
 30
0.0
 40
1.644195238577175
 50
267.1438861072514896
 51
269.4793653482402078
  0
ARC
  5
F5A3
  8
0
 10
4768.9416454817146587
 20
235.5920351427423896
 30
0.0
 40
0.9795507980381469
 50
90.2986081954043414
 51
102.1029905463971943
  0
ARC
  5
F5A4
  8
0
 10
4768.8637633831585845
 20
235.9552301837082098
 30
0.0
 40
0.608099241226822
 50
102.1029905463971943
 51
118.6225320833414969
  0
ARC
  5
F5A5
  8
0
 10
4768.7155669255807879
 20
236.2267875639637111
 30
0.0
 40
0.2987360229709487
 50
118.6225320833414969
 51
141.8487419185545093
  0
ARC
  5
F5A6
  8
0
 10
4768.5850013416720685
 20
236.3293528126847889
 30
0.0
 40
0.1327028878835159
 50
141.8487419185545093
 51
192.2586191896633068
  0
ARC
  5
F5A7
  8
0
 10
4768.6600643903302625
 20
236.3680976652902075
 30
0.0
 40
0.2153995443655413
 50
198.1003887424523953
 51
241.2840154768873902
  0
ARC
  5
F5A8
  8
0
 10
4768.8792798986942216
 20
236.7329281889074082
 30
0.0
 40
0.6409110039136156
 50
239.7671930141522125
 51
262.7525675306166022
  0
ARC
  5
F5A9
  8
0
 10
4768.9364094017446405
 20
237.0466803017083919
 30
0.0
 40
0.9595158117650425
 50
261.7319055060764867
 51
270.0078213526022068
  0
ARC
  5
F5AA
  8
0
 10
4769.450316523217225
 20
236.4484024197755048
 30
0.0
 40
0.2047676341695315
 50
1.130201264869612
 51
22.6122359663287291
  0
ARC
  5
F5AB
  8
0
 10
4769.40190981429987
 20
236.4282405216935103
 30
0.0
 40
0.257205326743427
 50
22.6122359663287291
 51
52.4166864871704092
  0
ARC
  5
F5AC
  8
0
 10
4769.1624837769522856
 20
236.1501633246195979
 30
0.0
 40
0.6239267461662634
 50
50.5674393916402707
 51
68.741033535907647
  0
ARC
  5
F5AD
  8
0
 10
4768.9995542970382303
 20
235.7470237405497073
 30
0.0
 40
1.0587239298122431
 50
68.4341628440401166
 51
77.4956670101504557
  0
ARC
  5
F5AE
  8
0
 10
4768.9466000925285698
 20
235.494330428291704
 30
0.0
 40
1.316892009735936
 50
77.6267746305603765
 51
86.8048649035337263
  0
ARC
  5
F5AF
  8
0
 10
4768.9367784013211349
 20
235.386344054653307
 30
0.0
 40
1.4252629803040531
 50
86.652602001453559
 51
90.0095683443720134
  0
ARC
  5
F5B0
  8
0
 10
4769.4402488866917338
 20
236.4557381070210056
 30
0.0
 40
0.214820732395851
 50
331.7207241889789771
 51
359.120672846471507
  0
ARC
  5
F5B1
  8
0
 10
4769.3619005822019972
 20
236.4978877745008106
 30
0.0
 40
0.3037873063722424
 50
310.5780414058186807
 51
331.7207241889789771
  0
ARC
  5
F5B2
  8
0
 10
4768.761183176454324
 20
237.20441128063581
 30
0.0
 40
1.2311675624503271
 50
300.8753185207129945
 51
310.4233322365943195
  0
ARC
  5
F5B3
  8
0
 10
4768.9382054105517454
 20
235.4164422899362989
 30
0.0
 40
1.3802851992164591
 50
80.8111565688969051
 51
90.0691154526632118
  0
ARC
  5
F5B4
  8
0
 10
4768.9805319401148154
 20
235.6780969869261071
 30
0.0
 40
1.1152291380488559
 50
69.4835013400254837
 51
80.8111565688969051
  0
ARC
  5
F5B5
  8
0
 10
4769.1393230981357192
 20
236.1024306959199066
 30
0.0
 40
0.6621576994721142
 50
52.2746094646968302
 51
69.4835013400254837
  0
ARC
  5
F5B6
  8
0
 10
4769.3593736249276844
 20
236.386882197864395
 30
0.0
 40
0.3025260944927781
 50
25.7243420965745884
 51
52.2746094646958284
  0
ARC
  5
F5B7
  8
0
 10
4769.4627956777731015
 20
236.4386188031716074
 30
0.0
 40
0.1869059801536996
 50
333.0678560893525173
 51
25.1971846584525316
  0
ARC
  5
F5B8
  8
0
 10
4768.9405566552841265
 20
235.5190541297725986
 30
0.0
 40
1.110306045043723
 50
78.0637873263444817
 51
90.2072544914689161
  0
ARC
  5
F5B9
  8
0
 10
4769.0073803918530757
 20
235.8351651703177936
 30
0.0
 40
0.7872091528836322
 50
60.9995023679248618
 51
78.0637873263444817
  0
ARC
  5
F5BA
  8
0
 10
4769.2393166887550251
 20
236.2535807556292013
 30
0.0
 40
0.3088096881553915
 50
26.9692029752716707
 51
60.9995023679248618
  0
ARC
  5
F5BB
  8
0
 10
4769.3713362308699288
 20
236.333736615674411
 30
0.0
 40
0.1552271447326188
 50
329.2071799483231871
 51
22.6959169256903088
  0
ARC
  5
F5BC
  8
0
 10
4769.158369181013768
 20
236.4973558231017137
 30
0.0
 40
0.4231096506361266
 50
308.5874138615944844
 51
324.9338938987539791
  0
ARC
  5
F5BD
  8
0
 10
4769.065810535133096
 20
236.6864354234575956
 30
0.0
 40
0.6302850437366438
 50
285.425590721274375
 51
304.4402475778770167
  0
ARC
  5
F5BE
  8
0
 10
4768.9477464393567061
 20
237.0831149056249956
 30
0.0
 40
1.0441112874500409
 50
273.0624260277036228
 51
285.8810359150726867
  0
ARC
  5
F5BF
  8
0
 10
4768.9216001342729214
 20
237.6826475386363882
 30
0.0
 40
1.6441952385770691
 50
270.5206346517599059
 51
272.8561138927485104
  0
ARC
  5
F5C0
  8
0
 10
4768.9314352856226833
 20
235.5920351427423896
 30
0.0
 40
0.9795507980381469
 50
77.8970094536027347
 51
89.7013918045956586
  0
ARC
  5
F5C1
  8
0
 10
4769.009317384177848
 20
235.9552301837082098
 30
0.0
 40
0.608099241226822
 50
61.377467916658432
 51
77.8970094536027347
  0
ARC
  5
F5C2
  8
0
 10
4769.157513841756554
 20
236.2267875639637111
 30
0.0
 40
0.2987360229709487
 50
38.1512580814454267
 51
61.377467916658432
  0
ARC
  5
F5C3
  8
0
 10
4769.2880794256661829
 20
236.3293528126847889
 30
0.0
 40
0.1327028878835159
 50
347.7413808103365795
 51
38.1512580814454267
  0
ARC
  5
F5C4
  8
0
 10
4769.2130163770070794
 20
236.3680976652902075
 30
0.0
 40
0.2153995443655413
 50
298.7159845231125814
 51
341.8996112575475763
  0
ARC
  5
F5C5
  8
0
 10
4768.9938008686440298
 20
236.7329281889074082
 30
0.0
 40
0.6409110039136156
 50
277.2474324693833978
 51
300.2328069858476738
  0
ARC
  5
F5C6
  8
0
 10
4768.9366713655927015
 20
237.0466803017083919
 30
0.0
 40
0.9595158117650425
 50
269.9921786473976795
 51
278.2680944939233996
  0
LINE
  5
F5C7
  8
0
 10
4768.943159878984261
 20
236.5715157703444049
 30
0.0
 11
4768.9421716118686163
 21
236.5305214639724056
 31
0.0
  0
ARC
  5
F5C8
  8
0
 10
4768.9348261600225669
 20
235.7741112533981038
 30
0.0
 40
0.7564458753549105
 50
89.4436224771219486
 51
102.8849674793570017
  0
ARC
  5
F5C9
  8
0
 10
4768.760586267688268
 20
236.5496118591022139
 30
0.0
 40
0.0243236377177805
 50
179.5267275164621026
 51
183.4035322467603919
  0
ARC
  5
F5CA
  8
0
 10
4768.7548968635901474
 20
236.5492734942293112
 30
0.0
 40
0.0186241807474072
 50
183.4035322467522064
 51
214.8632473075799965
  0
ARC
  5
F5CB
  8
0
 10
4769.1010278394696797
 20
236.8656386899737925
 30
0.0
 40
0.4873964071940087
 50
222.1392435045364948
 51
226.5998606140352933
  0
ARC
  5
F5CC
  8
0
 10
4768.8216104542952962
 20
236.1976669598759031
 30
0.0
 40
0.3630947253481224
 50
106.7841063220062949
 51
128.4452683457683122
  0
LINE
  5
F5CD
  8
0
 10
4768.5958502203702665
 20
236.4820436402723942
 30
0.0
 11
4768.5724612887679541
 21
236.4890164489723929
 31
0.0
  0
LINE
  5
F5CE
  8
0
 10
4768.5958502203702665
 20
236.4820436402723942
 30
0.0
 11
4768.5958502203702665
 21
236.4376084952893962
 31
0.0
  0
ARC
  5
F5CF
  8
0
 10
4768.5908502203692478
 20
236.4376084952893962
 30
0.0
 40
0.005
 50
253.3994029379923916
 51
0.0
  0
LINE
  5
F5D0
  8
0
 10
4768.5392094243688916
 20
236.4477864050724065
 30
0.0
 11
4768.5894217286004277
 21
236.4328168973027005
 31
0.0
  0
LINE
  5
F5D1
  8
0
 10
4768.5324463438682869
 20
236.4628173586372952
 30
0.0
 11
4768.5324463438682869
 21
236.4566217412723859
 31
0.0
  0
ARC
  5
F5D2
  8
0
 10
4768.54234052870288
 20
236.4571892303476943
 30
0.0
 40
0.0099104458884825
 50
183.2826516150018108
 51
251.5824398858954112
  0
ARC
  5
F5D3
  8
0
 10
4768.638815076847095
 20
236.3171273417509894
 30
0.0
 40
0.1754223328226213
 50
127.3266251880809961
 51
167.2448930544742893
  0
ARC
  5
F5D4
  8
0
 10
4768.6466400202680234
 20
236.3088010503344094
 30
0.0
 40
0.1756651979385248
 50
127.7027114145032982
 51
166.868806483373703
  0
ARC
  5
F5D5
  8
0
 10
4768.6806015925640168
 20
236.312939387787992
 30
0.0
 40
0.1508954524462509
 50
127.3351201224079006
 51
167.2363982415475903
  0
ARC
  5
F5D6
  8
0
 10
4768.6830611934328772
 20
236.317623209808005
 30
0.0
 40
0.1463292472279415
 50
127.4660292419731036
 51
167.4622544775982078
  0
LINE
  5
F5D7
  8
0
 10
4768.4677217031703549
 20
236.3847465768724021
 30
0.0
 11
4768.4677217031703549
 21
236.35585785087261
 31
0.0
  0
LINE
  5
F5D8
  8
0
 10
4768.4755680408634362
 20
236.3487089396460874
 30
0.0
 11
4768.5334347817679372
 21
236.3462765647724098
 31
0.0
  0
ARC
  5
F5D9
  8
0
 10
4768.4755332774757335
 20
236.3565511419942879
 30
0.0
 40
0.0078422793712505
 50
185.0718135692665953
 51
270.2539811010062749
  0
ARC
  5
F5DA
  8
0
 10
4768.5339892919200793
 20
236.3540231523903969
 30
0.0
 40
0.0077664085146502
 50
265.9056819000427936
 51
323.3644889602023227
  0
ARC
  5
F5DB
  8
0
 10
4768.6065327498017723
 20
236.3345997495842141
 30
0.0
 40
0.1475913647695391
 50
149.1756329325718866
 51
175.2686777382436958
  0
ARC
  5
F5DC
  8
0
 10
4768.5650702849634399
 20
236.3380314055083886
 30
0.0
 40
0.1059871311753626
 50
175.2686777382436958
 51
198.019830175012487
  0
ARC
  5
F5DD
  8
0
 10
4768.6367212263539841
 20
236.3618922333043031
 30
0.0
 40
0.1815055742966938
 50
198.1857148808680051
 51
232.0430650960148
  0
ARC
  5
F5DE
  8
0
 10
4768.7886438849936894
 20
236.53095514020319
 30
0.0
 40
0.4085557697739982
 50
229.8264987397535037
 51
246.6209845537744059
  0
ARC
  5
F5DF
  8
0
 10
4768.8579245917835578
 20
236.6779708271440086
 30
0.0
 40
0.5710170522750393
 50
246.0936697922452083
 51
250.7748776239870949
  0
ARC
  5
F5E0
  8
0
 10
4768.6363718494058048
 20
236.3991658111935124
 30
0.0
 40
0.173272127487281
 50
196.107448146800607
 51
230.3608204765313019
  0
LINE
  5
F5E1
  8
0
 10
4768.5258327697692948
 20
236.2657328990723897
 30
0.0
 11
4768.5258327697692948
 21
236.2211780216653096
 31
0.0
  0
LINE
  5
F5E2
  8
0
 10
4768.5258327697692948
 20
236.2657328990723897
 30
0.0
 11
4768.5902743409687901
 21
236.2837364649724066
 31
0.0
  0
LINE
  5
F5E3
  8
0
 10
4768.5902743409687901
 20
236.2837364649724066
 30
0.0
 11
4768.5902743409687901
 21
236.2394123301723994
 31
0.0
  0
ARC
  5
F5E4
  8
0
 10
4768.6847581717902358
 20
236.3972611386568019
 30
0.0
 40
0.147699173395885
 50
195.4442365983825027
 51
230.2302091627844902
  0
LINE
  5
F5E5
  8
0
 10
4768.5321781422353524
 20
236.2163624248250926
 30
0.0
 11
4768.5834005734077437
 21
236.2306728521392074
 31
0.0
  0
ARC
  5
F5E6
  8
0
 10
4768.530832769769404
 20
236.2211780216653096
 30
0.0
 40
0.005
 50
179.9999999999934914
 51
285.6092012380298115
  0
ARC
  5
F5E7
  8
0
 10
4768.5805771915602236
 20
236.2399664104837029
 30
0.0
 40
0.0097129661615279
 50
286.8987733842934063
 51
356.7297624428036897
  0
ARC
  5
F5E8
  8
0
 10
4768.8253913149601431
 20
236.5239987798393884
 30
0.0
 40
0.3691469073209805
 50
230.4374817525275034
 51
251.8065343398951939
  0
ARC
  5
F5E9
  8
0
 10
4768.8183414939849172
 20
236.5121269046863972
 30
0.0
 40
0.3666246307288635
 50
230.1469011402305966
 51
252.0971144384886884
  0
LINE
  5
F5EA
  8
0
 10
4768.6724930495693116
 20
236.1394137867723941
 30
0.0
 11
4768.7056394172432192
 21
236.1632546332818947
 31
0.0
  0
ARC
  5
F5EB
  8
0
 10
4768.6706143245619387
 20
236.1415580921197943
 30
0.0
 40
0.0028509039041285
 50
255.4830859986703899
 51
311.2230994101631723
  0
ARC
  5
F5EC
  8
0
 10
4768.6962070498057074
 20
236.1735027793291977
 30
0.0
 40
0.0139281748045914
 50
312.6263873028555054
 51
359.192086331759981
  0
LINE
  5
F5ED
  8
0
 10
4768.7101338399688757
 20
236.1733063880724046
 30
0.0
 11
4768.7101338399688757
 21
236.2176305229723994
 31
0.0
  0
ARC
  5
F5EE
  8
0
 10
4768.9300575345632751
 20
236.8818338162797943
 30
0.0
 40
0.6996659533553778
 50
251.6798275414994919
 51
270.0742719444198769
  0
LINE
  5
F5EF
  8
0
 10
4768.9309645042703778
 20
236.1821684507723944
 30
0.0
 11
4768.9299821574686575
 21
236.0970013116723862
 31
0.0
  0
ARC
  5
F5F0
  8
0
 10
4768.9297553081250953
 20
236.9545153682011005
 30
0.0
 40
0.8533366292243574
 50
252.5702340323558985
 51
270.0115151613450166
  0
ARC
  5
F5F1
  8
0
 10
4768.9312992189352371
 20
237.0045078170008139
 30
0.0
 40
0.8591693620812252
 50
255.0831089317109104
 51
269.9493495374478016
  0
ARC
  5
F5F2
  8
0
 10
4768.9384551264938636
 20
236.8835775762551918
 30
0.0
 40
0.745808879787489
 50
269.3852260271011119
 51
282.9343693708922274
  0
ARC
  5
F5F3
  8
0
 10
4768.9377438649362375
 20
236.8946214095034009
 30
0.0
 40
0.7676005923080335
 50
269.4465128603480935
 51
282.8719928350608939
  0
ARC
  5
F5F4
  8
0
 10
4768.9375211448696064
 20
236.9849096492260969
 30
0.0
 40
0.8879403426897431
 50
269.5135283255373224
 51
282.8908635145198218
  0
LINE
  5
F5F5
  8
0
 10
4769.105393104068753
 20
236.2010161652723923
 30
0.0
 11
4769.1053931040441967
 21
236.1566920303669121
 31
0.0
  0
LINE
  5
F5F6
  8
0
 10
4769.1087450193681434
 20
236.1463104617724014
 30
0.0
 11
4769.1334653925541716
 21
236.1200372407691077
 31
0.0
  0
LINE
  5
F5F7
  8
0
 10
4769.1368173076689345
 20
236.1676180025723966
 30
0.0
 11
4769.1368173076689345
 21
236.1232938676724018
 31
0.0
  0
ARC
  5
F5F8
  8
0
 10
4769.123147889304164
 20
236.156692645394287
 30
0.0
 40
0.0177547852461411
 50
180.0019863268103961
 51
215.7856208190663097
  0
ARC
  5
F5F9
  8
0
 10
4769.1315851939816639
 20
236.1227312856846936
 30
0.0
 40
0.0052622725245445
 50
319.9928754220105134
 51
6.1371381466225756
  0
ARC
  5
F5FA
  8
0
 10
4769.1354094856196753
 20
236.1217198500193888
 30
0.0
 40
0.0025711226613353
 50
220.8761326411433004
 51
259.375271083351322
  0
LINE
  5
F5FB
  8
0
 10
4769.105393104068753
 20
236.2010161652723923
 30
0.0
 11
4769.1368173076689345
 21
236.1676180025723966
 31
0.0
  0
ARC
  5
F5FC
  8
0
 10
4769.0153104991395594
 20
236.6282409516396967
 30
0.0
 40
0.4366187052764343
 50
281.9067055590267046
 51
306.8615036806272087
  0
ARC
  5
F5FD
  8
0
 10
4769.001803955973628
 20
236.7585866550575986
 30
0.0
 40
0.6061951446161029
 50
282.8689942178510819
 51
298.2168204529999116
  0
ARC
  5
F5FE
  8
0
 10
4769.0313213384188202
 20
236.642270327010209
 30
0.0
 40
0.5296732567590822
 50
281.4894423229878271
 51
305.0458359917424218
  0
ARC
  5
F5FF
  8
0
 10
4769.2195003066899517
 20
236.3739799722027044
 30
0.0
 40
0.2019675372753834
 50
305.0458359917413986
 51
337.2447530978100758
  0
ARC
  5
F600
  8
0
 10
4769.3025509558874546
 20
236.339145001569392
 30
0.0
 40
0.1119070825189908
 50
337.2447530978116106
 51
15.0663038572678207
  0
ARC
  5
F601
  8
0
 10
4769.2369082390123367
 20
236.3212454807780887
 30
0.0
 40
0.1799462526354723
 50
15.1367631051194795
 51
29.5923109503977102
  0
LINE
  5
F602
  8
0
 10
4769.277230546967985
 20
236.2789076117724107
 30
0.0
 11
4769.277230546967985
 21
236.2345834768723876
 31
0.0
  0
ARC
  5
F603
  8
0
 10
4769.2872176299497369
 20
236.2352220754625876
 30
0.0
 40
0.0100074789354685
 50
183.6586518478792982
 51
251.2064366036132981
  0
LINE
  5
F604
  8
0
 10
4769.2839936270747785
 20
236.2257481406886939
 30
0.0
 11
4769.3338713432704026
 21
236.2108783818723907
 31
0.0
  0
ARC
  5
F605
  8
0
 10
4769.3356525424824213
 20
236.2160946265400128
 30
0.0
 40
0.0055119759643229
 50
251.1464240074936924
 51
306.4195336379802939
  0
ARC
  5
F606
  8
0
 10
4769.2366088282678902
 20
236.3501642172128925
 30
0.0
 40
0.1721982445223827
 50
306.4539434993588998
 51
348.3932713423188261
  0
ARC
  5
F607
  8
0
 10
4769.2298715273636844
 20
236.3476600097764901
 30
0.0
 40
0.1718289132836443
 50
307.2469872019648847
 51
347.3245311053144064
  0
ARC
  5
F608
  8
0
 10
4769.1930491021657872
 20
236.3453593132545052
 30
0.0
 40
0.1502589072584573
 50
307.2469877801942744
 51
347.3244911512404087
  0
ARC
  5
F609
  8
0
 10
4769.1875514673811267
 20
236.3521906807748962
 30
0.0
 40
0.147897909807732
 50
307.326625383896328
 51
347.2448928327963813
  0
LINE
  5
F60A
  8
0
 10
4769.3396459636996951
 20
236.3123881228177936
 30
0.0
 11
4769.3975127264711773
 21
236.3099558472827937
 31
0.0
  0
LINE
  5
F60B
  8
0
 10
4769.3317996478690475
 20
236.3195371334724086
 30
0.0
 11
4769.3317996478690475
 21
236.3638612682723874
 31
0.0
  0
LINE
  5
F60C
  8
0
 10
4769.40528589916903
 20
236.3155191429723914
 30
0.0
 11
4769.405359064267941
 21
236.3607692662723991
 31
0.0
  0
ARC
  5
F60D
  8
0
 10
4769.3981284515921288
 20
236.3173070106327884
 30
0.0
 40
0.0073773658299788
 50
265.1274823738297073
 51
345.9750148996686789
  0
ARC
  5
F60E
  8
0
 10
4769.3396363811179981
 20
236.3202579285631089
 30
0.0
 40
0.0078698115793294
 50
185.2550819275190861
 51
270.0697655454411006
  0
ARC
  5
F60F
  8
0
 10
4769.2284074991694069
 20
236.380350316862291
 30
0.0
 40
0.1046987351221396
 50
350.9387384209964011
 51
31.916155184939889
  0
LINE
  5
F610
  8
0
 10
4769.3317996478690475
 20
236.3638612682723874
 30
0.0
 11
4769.405359064267941
 21
236.3607692662723991
 31
0.0
  0
ARC
  5
F611
  8
0
 10
4769.046589528498771
 20
236.4011710856605077
 30
0.0
 40
0.3610372374240884
 50
353.5748662630174977
 51
356.6330448591439222
  0
LINE
  5
F612
  8
0
 10
4769.405359064267941
 20
236.3576740068724007
 30
0.0
 11
4769.4106113072939479
 21
236.3682337549230112
 31
0.0
  0
LINE
  5
F613
  8
0
 10
4769.1629507401976298
 20
236.5436020721417094
 30
0.0
 11
4769.1629469273693758
 21
236.50121452967241
 31
0.0
  0
LINE
  5
F614
  8
0
 10
4769.1674413499704315
 20
236.4954101535724078
 30
0.0
 11
4769.2005877173687622
 21
236.519250999872412
 31
0.0
  0
ARC
  5
F615
  8
0
 10
4769.1912145633268665
 20
236.529472670229211
 30
0.0
 40
0.0138686178687783
 50
312.5204651490271885
 51
359.2980054915003052
  0
LINE
  5
F616
  8
0
 10
4769.2050821402690417
 20
236.5293027545723987
 30
0.0
 11
4769.2050821402690417
 21
236.5309565487930001
 31
0.0
  0
ARC
  5
F617
  8
0
 10
4769.1863183452996964
 20
236.5003975629713864
 30
0.0
 40
0.0233856924362065
 50
177.9979951261493056
 51
187.5691462288831133
  0
ARC
  5
F618
  8
0
 10
4769.166631426695858
 20
236.497781556567503
 30
0.0
 40
0.0035257263319584
 50
187.5691462288475861
 51
228.1455149273060954
  0
ARC
  5
F619
  8
0
 10
4769.1655105788477158
 20
236.4965303530808001
 30
0.0
 40
0.0018459019180537
 50
228.1455149273201926
 51
293.4486290151637036
  0
ARC
  5
F61A
  8
0
 10
4769.1644889000490366
 20
236.5000363470643947
 30
0.0
 40
0.0054880439829036
 50
288.6633474403670903
 51
302.5461354303018879
  0
ARC
  5
F61B
  8
0
 10
4769.0482203929796015
 20
236.1415041614324082
 30
0.0
 40
0.3720430062903465
 50
50.5876328592417508
 51
71.7296620188420349
  0
ARC
  5
F61C
  8
0
 10
4769.2879582143832522
 20
236.4334534212920005
 30
0.0
 40
0.0057265214940649
 50
231.960299297732206
 51
287.4998051444663929
  0
LINE
  5
F61D
  8
0
 10
4769.2896801937704367
 20
236.4279919347723933
 30
0.0
 11
4769.3403742300833983
 21
236.4421547400602037
 31
0.0
  0
LINE
  5
F61E
  8
0
 10
4769.3472479975680471
 20
236.4508942181568045
 30
0.0
 11
4769.3472479975680471
 21
236.4575345282740955
 31
0.0
  0
ARC
  5
F61F
  8
0
 10
4769.3375508550789164
 20
236.4514482929282906
 30
0.0
 40
0.0097129589377833
 50
286.8987456118952082
 51
356.7297927403139965
  0
ARC
  5
F620
  8
0
 10
4769.0665347498252231
 20
236.1109192868580919
 30
0.0
 40
0.4297731799169399
 50
50.4187280610477728
 51
71.8252873789830062
  0
ARC
  5
F621
  8
0
 10
4769.073396236561166
 20
236.1224496807375033
 30
0.0
 40
0.4276337231411956
 50
50.1791975178876868
 51
72.0648180919373544
  0
ARC
  5
F622
  8
0
 10
4769.0538041608369895
 20
236.1444156490655928
 30
0.0
 40
0.3689316373847249
 50
50.2370923216649174
 51
72.0602381107657237
  0
ARC
  5
F623
  8
0
 10
4768.9467921883333474
 20
236.009674546885293
 30
0.0
 40
0.5604705853251148
 50
67.3148752587030259
 51
90.3717179161784401
  0
ARC
  5
F624
  8
0
 10
4768.9446967052917898
 20
235.9734889343243083
 30
0.0
 40
0.5710757072594964
 50
67.5315966956167131
 51
90.2111603492922285
  0
ARC
  5
F625
  8
0
 10
4768.8236730820008233
 20
236.2524276606291949
 30
0.0
 40
0.2746256578937684
 50
103.8351421581653966
 51
134.289090803523294
  0
ARC
  5
F626
  8
0
 10
4768.7110511364016929
 20
236.3678796255236136
 30
0.0
 40
0.1133406343213097
 50
134.289090803523294
 51
176.2151221629625013
  0
ARC
  5
F627
  8
0
 10
4768.7246994276947589
 20
236.3825259730826929
 30
0.0
 40
0.1269440679981386
 50
183.2354692029007879
 51
234.8860891993055873
  0
ARC
  5
F628
  8
0
 10
4768.8849998051846342
 20
236.6014476699658928
 30
0.0
 40
0.3982636068743344
 50
234.1375842982685072
 51
262.3241266214538996
  0
ARC
  5
F629
  8
0
 10
4768.9366805302970533
 20
236.8476925889669928
 30
0.0
 40
0.6494636256049798
 50
260.7071027296951229
 51
269.9876362430774179
  0
ARC
  5
F62A
  8
0
 10
4768.9366805302970533
 20
236.8476925889669928
 30
0.0
 40
0.6494636256049798
 50
269.9876362430774179
 51
279.3556394207244011
  0
ARC
  5
F62B
  8
0
 10
4769.1429796547081423
 20
236.3607761177669886
 30
0.0
 40
0.1333188043500137
 50
8.9655375059810432
 51
63.268152725949669
  0
ARC
  5
F62C
  8
0
 10
4769.1581058747460702
 20
236.3781984199790998
 30
0.0
 40
0.116611977325963
 50
310.6560600881475125
 51
1.648244350984307
  0
ARC
  5
F62D
  8
0
 10
4768.997256969440059
 20
236.5744962786727115
 30
0.0
 40
0.3703724657131147
 50
276.9789070800550803
 51
309.7485851128982972
  0
LINE
  5
F62E
  8
0
 10
4768.626366849808619
 20
236.3022420984484882
 30
0.0
 11
4768.6140735755689093
 21
236.2990838952723891
 31
0.0
  0
ARC
  5
F62F
  8
0
 10
4768.7304182277030122
 20
236.4717399912757969
 30
0.0
 40
0.2081975157570629
 50
215.5349871406492923
 51
236.0258620174411135
  0
LINE
  5
F630
  8
0
 10
4768.560995257867944
 20
236.3507355993723991
 30
0.0
 11
4768.5955503940704148
 21
236.3596129855723973
 31
0.0
  0
LINE
  5
F631
  8
0
 10
4768.560995257867944
 20
236.3507355993723991
 30
0.0
 11
4768.560995257867944
 21
236.3842165091193124
 31
0.0
  0
ARC
  5
F632
  8
0
 10
4768.6793846782320543
 20
236.4391147099343016
 30
0.0
 40
0.1304747645246643
 50
200.8458110640912935
 51
213.6187592675657925
  0
LINE
  5
F633
  8
0
 10
4768.5707331215689919
 20
236.366875500272414
 30
0.0
 11
4768.5886831289108159
 21
236.3714869463290995
 31
0.0
  0
ARC
  5
F634
  8
0
 10
4768.6788387191345464
 20
236.4157053176809029
 30
0.0
 40
0.100415610407908
 50
177.5448773644918958
 51
213.9591520209883981
  0
LINE
  5
F635
  8
0
 10
4769.264891932089995
 20
236.3313466194508123
 30
0.0
 11
4769.2923679397690648
 21
236.326934387272388
 31
0.0
  0
ARC
  5
F636
  8
0
 10
4769.1962497705872011
 20
236.4146934802587907
 30
0.0
 40
0.0944711771579291
 50
324.6379717556295077
 51
8.1048924879619442
  0
ARC
  5
F637
  8
0
 10
4769.2072890795161584
 20
236.4140499022553001
 30
0.0
 40
0.0875205505633722
 50
342.7959782300964093
 51
9.8769716529675655
  0
LINE
  5
F638
  8
0
 10
4769.2908937508691452
 20
236.3881635023724073
 30
0.0
 11
4769.3278824418703152
 21
236.3822236767724121
 31
0.0
  0
LINE
  5
F639
  8
0
 10
4769.3278824418703152
 20
236.3822236767724121
 30
0.0
 11
4769.3278824418703152
 21
236.4130085610134131
 31
0.0
  0
ARC
  5
F63A
  8
0
 10
4769.1903872042303192
 20
236.4314914870232087
 30
0.0
 40
0.1460556658583208
 50
314.2853263908859844
 51
340.2861916931925066
  0
LINE
  5
F63B
  8
0
 10
4769.293879230618586
 20
236.4013222747059046
 30
0.0
 11
4769.3174587864687055
 21
236.397535753872404
 31
0.0
  0
ARC
  5
F63C
  8
0
 10
4769.2138159745163648
 20
236.4296913946039922
 30
0.0
 40
0.1085164397696163
 50
342.7632655095475229
 51
358.4170619346052717
  0
ARC
  5
F63D
  8
0
 10
4768.9365881976200399
 20
237.7811249784843994
 30
0.0
 40
0.7215555847657268
 50
132.4366948558563877
 51
174.770123131363988
  0
ARC
  5
F63E
  8
0
 10
4768.9365196162989378
 20
237.7811999880815108
 30
0.0
 40
0.7214539489588904
 50
98.6962573121268605
 51
132.4366948558563877
  0
ARC
  5
F63F
  8
0
 10
4768.9334575892016801
 20
237.8009053419808936
 30
0.0
 40
0.7015121670234395
 50
89.7482129479220987
 51
98.6923818721298289
  0
ARC
  5
F640
  8
0
 10
4768.9701063521451943
 20
237.7941592563973074
 30
0.0
 40
0.6894402113670899
 50
6.5514948794131591
 51
48.8941441818899989
  0
LINE
  5
F641
  8
0
 10
4768.2773246549686519
 20
239.756160614272801
 30
0.0
 11
4769.5957561123677806
 21
239.7561606142718915
 31
0.0
  0
LINE
  5
F642
  8
0
 10
4768.1549966732482062
 20
239.6421169038520986
 30
0.0
 11
4768.2631825193457189
 21
239.7503027498960932
 31
0.0
  0
LINE
  5
F643
  8
0
 10
4768.1548982480690029
 20
239.2466177499723869
 30
0.0
 11
4769.7181818390226908
 21
239.2466177499723869
 31
0.0
  0
LINE
  5
F644
  8
0
 10
4768.2773246549159012
 20
239.1324756142724084
 30
0.0
 11
4769.5957561124223503
 21
239.1324756142724084
 31
0.0
  0
ARC
  5
F645
  8
0
 10
4768.2773246549159012
 20
239.1524756142723902
 30
0.0
 40
0.02
 50
224.9999999861177002
 51
270.0
  0
LINE
  5
F646
  8
0
 10
4768.1549966732409302
 20
239.2465193247520006
 30
0.0
 11
4768.2631825192893302
 21
239.1383334786521004
 31
0.0
  0
ARC
  5
F647
  8
0
 10
4768.1696946447482333
 20
239.2610328580325927
 30
0.0
 40
0.0206560648401427
 50
180.757192876922602
 51
224.6382455627370973
  0
ARC
  5
F648
  8
0
 10
4768.1696946447500522
 20
239.6276033705624116
 30
0.0
 40
0.0206560648435653
 50
135.3617544115163014
 51
179.242806985316804
  0
ARC
  5
F649
  8
0
 10
4768.2773246549686519
 20
239.7361606142729045
 30
0.0
 40
0.02
 50
89.9999999999478888
 51
134.9999999861487936
  0
LINE
  5
F64A
  8
0
 10
4768.1549966732482062
 20
239.6421169038520986
 30
0.0
 11
4769.7180840940900453
 21
239.6421169038520986
 31
0.0
  0
LINE
  5
F64B
  8
0
 10
4768.5128579435686333
 20
239.1324756142724084
 30
0.0
 11
4768.5128579435686333
 21
239.0501566142723959
 31
0.0
  0
LINE
  5
F64C
  8
0
 10
4768.4409667905692913
 20
239.0501565780724036
 30
0.0
 11
4769.4321139767680506
 21
239.0501565780724036
 31
0.0
  0
ARC
  5
F64D
  8
0
 10
4768.4409667905692913
 20
239.0201565780724025
 30
0.0
 40
0.03
 50
90.0
 51
135.0000000000046043
  0
LINE
  5
F64E
  8
0
 10
4768.4197535871326181
 20
239.0413697815079956
 30
0.0
 11
4768.3773271802338058
 21
238.9989433746079897
 31
0.0
  0
ARC
  5
F64F
  8
0
 10
4768.3985403836686601
 20
238.9777301711723965
 30
0.0
 40
0.03
 50
135.0000000000046043
 51
180.0
  0
LINE
  5
F650
  8
0
 10
4768.3685403836689147
 20
238.9777301711723965
 30
0.0
 11
4768.3685403836689147
 21
238.9361565780723993
 31
0.0
  0
LINE
  5
F651
  8
0
 10
4768.2303520123332419
 20
238.8973697815081891
 30
0.0
 11
4768.1579256054337748
 21
238.8249433746080115
 31
0.0
  0
ARC
  5
F652
  8
0
 10
4768.1796980084691313
 20
238.8033565259449915
 30
0.0
 40
0.0306599016495611
 50
135.2451937505940123
 51
179.3017321203371068
  0
LINE
  5
F653
  8
0
 10
4768.2515652157690056
 20
238.9061565780723981
 30
0.0
 11
4769.6215155515692459
 21
238.9061565780723981
 31
0.0
  0
ARC
  5
F654
  8
0
 10
4768.2515652157690056
 20
238.876156578072397
 30
0.0
 40
0.03
 50
90.0
 51
134.9999999999988063
  0
ARC
  5
F655
  8
0
 10
4768.3385403836691694
 20
238.9361565780723993
 30
0.0
 40
0.03
 50
270.0
 51
359.9999999999869829
  0
LINE
  5
F656
  8
0
 10
4769.7180840940900453
 20
239.6421169038520986
 30
0.0
 11
4769.6098982479916231
 21
239.7503027498960932
 31
0.0
  0
ARC
  5
F657
  8
0
 10
4769.5957561124223503
 20
239.1524756142723902
 30
0.0
 40
0.02
 50
270.0
 51
315.0000000138822998
  0
LINE
  5
F658
  8
0
 10
4769.7180840940973212
 20
239.2465193247520006
 30
0.0
 11
4769.6098982480489212
 21
239.1383334786521004
 31
0.0
  0
ARC
  5
F659
  8
0
 10
4769.7033861225900182
 20
239.2610328580325927
 30
0.0
 40
0.0206560648401364
 50
315.3617544372630164
 51
359.2428071230870046
  0
ARC
  5
F65A
  8
0
 10
4769.7033861225872897
 20
239.6276033705624116
 30
0.0
 40
0.0206560648435546
 50
0.7571930146734177
 51
44.6382455884894682
  0
ARC
  5
F65B
  8
0
 10
4769.5957561123677806
 20
239.7361606142729045
 30
0.0
 40
0.02
 50
45.0000000138511993
 51
90.0000000000521254
  0
LINE
  5
F65C
  8
0
 10
4769.3602228237687086
 20
239.1324756142724084
 30
0.0
 11
4769.3602228237687086
 21
239.0501566142723959
 31
0.0
  0
ARC
  5
F65D
  8
0
 10
4769.4321139767680506
 20
239.0201565780724025
 30
0.0
 40
0.03
 50
44.9999999999953886
 51
90.0
  0
LINE
  5
F65E
  8
0
 10
4769.4533271802047238
 20
239.0413697815079956
 30
0.0
 11
4769.4957535871044456
 21
238.9989433746079897
 31
0.0
  0
ARC
  5
F65F
  8
0
 10
4769.4745403836677724
 20
238.9777301711723965
 30
0.0
 40
0.03
 50
0.0
 51
44.9999999999953886
  0
LINE
  5
F660
  8
0
 10
4769.5045403836693367
 20
238.9777301711723965
 30
0.0
 11
4769.5045403836693367
 21
238.9361565780723993
 31
0.0
  0
LINE
  5
F661
  8
0
 10
4769.6427287550041001
 20
238.8973697815081891
 30
0.0
 11
4769.7151551619035672
 21
238.8249433746080115
 31
0.0
  0
ARC
  5
F662
  8
0
 10
4769.6933827588691202
 20
238.8033565259449915
 30
0.0
 40
0.0306599016495579
 50
0.6982678796629475
 51
44.7548062494036927
  0
ARC
  5
F663
  8
0
 10
4769.6215155515692459
 20
238.876156578072397
 30
0.0
 40
0.03
 50
45.0000000000011511
 51
90.0
  0
ARC
  5
F664
  8
0
 10
4769.5345403836690821
 20
238.9361565780723993
 30
0.0
 40
0.03
 50
180.0000000000129887
 51
270.0
  0
LINE
  5
F665
  8
0
 10
4768.3773271802692761
 20
238.9989433745724057
 30
0.0
 11
4769.4957535870689753
 21
238.9989433745724057
 31
0.0
  0
LINE
  5
F666
  8
0
 10
4768.1579256054701546
 20
238.8249433745723991
 30
0.0
 11
4769.7151551618680969
 21
238.8249433745723991
 31
0.0
  0
ARC
  5
F667
  8
0
 10
4768.9364817020050396
 20
235.8872529018894966
 30
0.0
 40
0.6323415687562355
 50
86.1235930076917668
 51
93.8005384757611154
  0
ARC
  5
F668
  8
0
 10
4768.9328832673772922
 20
235.9414222373002019
 30
0.0
 40
0.5780528440465414
 50
93.8005384757611154
 51
104.9206753825239957
  0
ARC
  5
F669
  8
0
 10
4768.8809171346119911
 20
236.1364420862545046
 30
0.0
 40
0.3762281170164345
 50
104.9206753825239957
 51
119.7509019284782994
  0
ARC
  5
F66A
  8
0
 10
4768.7636709476828401
 20
236.3303719367627878
 30
0.0
 40
0.1497820358017011
 50
117.6242320969542021
 51
159.2441019265237117
  0
ARC
  5
F66B
  8
0
 10
4768.7120033887404134
 20
236.3700069527556877
 30
0.0
 40
0.0894102314885694
 50
171.3508408444901079
 51
232.9099971133074121
  0
ARC
  5
F66C
  8
0
 10
4768.8848772193668992
 20
236.6051670112053955
 30
0.0
 40
0.3812698111734557
 50
233.4988070429969866
 51
261.7407775019266865
  0
ARC
  5
F66D
  8
0
 10
4768.9369344122633265
 20
236.8477446679825107
 30
0.0
 40
0.6290305746041555
 50
260.2221509278496114
 51
279.0808371169958946
  0
ARC
  5
F66E
  8
0
 10
4768.9794488752067991
 20
236.6291716875199995
 30
0.0
 40
0.4065559843700702
 50
278.025958956588795
 51
301.3294626249737007
  0
ARC
  5
F66F
  8
0
 10
4769.1376092403088478
 20
236.3847117351116083
 30
0.0
 40
0.1157795820850365
 50
297.3721917160137878
 51
351.3721271451890971
  0
ARC
  5
F670
  8
0
 10
4768.946805162322562
 20
235.9831361136207875
 30
0.0
 40
0.5359934028563078
 50
72.4903660018932641
 51
86.5316959405708843
  0
ARC
  5
F671
  8
0
 10
4769.0377989372109369
 20
236.2414578126661979
 30
0.0
 40
0.2624200928198059
 50
43.1719334170570193
 51
74.4683263611626529
  0
ARC
  5
F672
  8
0
 10
4769.1743670570849645
 20
236.3658995651562975
 30
0.0
 40
0.0777249503746977
 50
1.064036220190014
 51
45.1498937763331867
  0
LINE
  5
F673
  8
0
 10
4768.8500633445692074
 20
236.5135113482753013
 30
0.0
 11
4768.8625516858692208
 21
236.5066236718724042
 31
0.0
  0
ARC
  5
F674
  8
0
 10
4768.867056598797717
 20
236.5146659838831056
 30
0.0
 40
0.0092181048817266
 50
240.7237986746428078
 51
276.5653225989946122
  0
LINE
  5
F675
  8
0
 10
4768.8681105591704181
 20
236.5055083299724004
 30
0.0
 11
4768.8973686160843499
 21
236.5086697811617
 31
0.0
  0
ARC
  5
F676
  8
0
 10
4768.8942851175852411
 20
236.5208829265945951
 30
0.0
 40
0.012596383781071
 50
284.1695631200720982
 51
311.7900886444638218
  0
LINE
  5
F677
  8
0
 10
4768.9075765267953102
 20
236.5189334781487105
 30
0.0
 11
4768.902679391869242
 21
236.5114911725723914
 31
0.0
  0
ARC
  5
F678
  8
0
 10
4768.7713345336260318
 20
236.4986814103559993
 30
0.0
 40
0.0036098264961589
 50
235.0697081064263045
 51
277.3068060722183077
  0
LINE
  5
F679
  8
0
 10
4768.7717936401431871
 20
236.4951008980270046
 30
0.0
 11
4768.8007227590496768
 21
236.4982268061363868
 31
0.0
  0
ARC
  5
F67A
  8
0
 10
4768.7970624105391835
 20
236.511229986615092
 30
0.0
 40
0.0135085474343005
 50
285.72171986992538
 51
313.1362984208337252
  0
LINE
  5
F67B
  8
0
 10
4768.8062986936192829
 20
236.5013724043224101
 30
0.0
 11
4768.8094181823216786
 21
236.5061358490384862
 31
0.0
  0
LINE
  5
F67C
  8
0
 10
4768.8007227590496768
 20
236.4982268061363868
 30
0.0
 11
4768.8206240610188615
 21
236.4872882260723941
 31
0.0
  0
ARC
  5
F67D
  8
0
 10
4768.8246485198969822
 20
236.4946101975644979
 30
0.0
 40
0.0083550904120164
 50
241.2049818301805999
 51
278.041174086991191
  0
LINE
  5
F67E
  8
0
 10
4768.8258172691703294
 20
236.4863372560724031
 30
0.0
 11
4768.8550749419482599
 21
236.4894986658362939
 31
0.0
  0
ARC
  5
F67F
  8
0
 10
4768.8542169736629148
 20
236.4974388435589105
 30
0.0
 40
0.0079863966747781
 50
276.1671130273771837
 51
318.7160205136815989
  0
LINE
  5
F680
  8
0
 10
4768.8602183406437689
 20
236.4921694862730135
 30
0.0
 11
4768.8690457662532936
 21
236.5056093828740131
 31
0.0
  0
ARC
  5
F681
  8
0
 10
4768.7286926037959347
 20
236.4878905050487106
 30
0.0
 40
0.0119937030697712
 50
238.5335190230348132
 51
270.9509340942361177
  0
LINE
  5
F682
  8
0
 10
4768.7288916533188967
 20
236.4758984538223956
 30
0.0
 11
4768.7584290851336846
 21
236.4790556907454118
 31
0.0
  0
ARC
  5
F683
  8
0
 10
4768.7583731478162008
 20
236.485569982131608
 30
0.0
 40
0.0065145315447584
 50
270.491978834206293
 51
325.4676718597766012
  0
LINE
  5
F684
  8
0
 10
4768.7637398610695527
 20
236.4818770821723888
 30
0.0
 11
4768.7717936401431871
 21
236.4951008980270046
 31
0.0
  0
LINE
  5
F685
  8
0
 10
4768.7584290851336846
 20
236.4790556907454118
 30
0.0
 11
4768.7779614115688673
 21
236.4682830540724012
 31
0.0
  0
LINE
  5
F686
  8
0
 10
4768.7835235953161828
 20
236.467166140770189
 30
0.0
 11
4768.8127812679485942
 21
236.4703275504361955
 31
0.0
  0
LINE
  5
F687
  8
0
 10
4768.8186638307179237
 20
236.4738597115724019
 30
0.0
 11
4768.8267599592409169
 21
236.4864391176230924
 31
0.0
  0
ARC
  5
F688
  8
0
 10
4768.7823897255921111
 20
236.4759277623805076
 30
0.0
 40
0.0088346777077874
 50
239.917777135677909
 51
277.3713441379567826
  0
ARC
  5
F689
  8
0
 10
4768.8103200399073103
 20
236.4810911256242036
 30
0.0
 40
0.0110413855246044
 50
282.8799706653359749
 51
319.085112167442901
  0
ARC
  5
F68A
  8
0
 10
4768.6870090098409491
 20
236.461615698293997
 30
0.0
 40
0.0048942933745011
 50
237.9761473419507922
 51
268.4630682246809101
  0
LINE
  5
F68B
  8
0
 10
4768.6868777385161593
 20
236.456723165670212
 30
0.0
 11
4768.7161354113022753
 21
236.4598845753525893
 31
0.0
  0
ARC
  5
F68C
  8
0
 10
4768.7146980833231282
 20
236.4689990929246051
 30
0.0
 40
0.0092271524473853
 50
278.9615472300134797
 51
316.9981039392220055
  0
LINE
  5
F68D
  8
0
 10
4768.7214461871690219
 20
236.4627059667724041
 30
0.0
 11
4768.7288916533188967
 21
236.4758984538223956
 31
0.0
  0
LINE
  5
F68E
  8
0
 10
4768.7161354113022753
 20
236.4598845753525893
 30
0.0
 11
4768.7356677375692016
 21
236.4491119386723881
 31
0.0
  0
ARC
  5
F68F
  8
0
 10
4768.7402797087279396
 20
236.4579136279429861
 30
0.0
 40
0.0099370733427594
 50
242.3461393107477875
 51
273.8686806038173813
  0
LINE
  5
F690
  8
0
 10
4768.7409501622687458
 20
236.4479991981224032
 30
0.0
 11
4768.7704875940353304
 21
236.4511564350453909
 31
0.0
  0
ARC
  5
F691
  8
0
 10
4768.767098791187891
 20
236.4639442632629027
 30
0.0
 40
0.0132292303348416
 50
284.8423458256390859
 51
311.1173031926476256
  0
LINE
  5
F692
  8
0
 10
4768.7757983699693796
 20
236.4539778263722951
 30
0.0
 11
4768.7844555768260761
 21
236.467266845135498
 31
0.0
  0
LINE
  5
F693
  8
0
 10
4768.660900685937122
 20
236.4393349192372966
 30
0.0
 11
4768.673841737400835
 21
236.4407134599526898
 31
0.0
  0
ARC
  5
F694
  8
0
 10
4768.6722499026427613
 20
236.4500156104899986
 30
0.0
 40
0.0094373694698854
 50
279.7107063046533995
 51
322.7922404739520061
  0
LINE
  5
F695
  8
0
 10
4768.6868777385161593
 20
236.456723165670212
 30
0.0
 11
4768.6797662769704402
 21
236.4443087672723891
 31
0.0
  0
LINE
  5
F696
  8
0
 10
4768.673841737400835
 20
236.4407134599526898
 30
0.0
 11
4768.6933740635686263
 21
236.4299408232724033
 31
0.0
  0
ARC
  5
F697
  8
0
 10
4768.6985483239650421
 20
236.4414093904916001
 30
0.0
 40
0.0125817727173756
 50
245.7165861298801985
 51
270.4925726633554177
  0
LINE
  5
F698
  8
0
 10
4768.6986564883191022
 20
236.42882808272239
 30
0.0
 11
4768.7281939202011927
 21
236.4319853196525969
 31
0.0
  0
LINE
  5
F699
  8
0
 10
4768.7421571945833421
 20
236.4480952209908935
 30
0.0
 11
4768.7340350131689775
 21
236.4354551245723997
 31
0.0
  0
ARC
  5
F69A
  8
0
 10
4768.7267663218708549
 20
236.441039918373292
 30
0.0
 40
0.0091664494208213
 50
278.9598144009062253
 51
322.4636470563016815
  0
LINE
  5
F69B
  8
0
 10
4768.6410063995781456
 20
236.4163258016390046
 30
0.0
 11
4768.6510803896690049
 21
236.4107697079724062
 31
0.0
  0
ARC
  5
F69C
  8
0
 10
4768.6557880583868609
 20
236.4198054428842113
 30
0.0
 40
0.0101885548607624
 50
242.4802327593727114
 51
274.8088865337957145
  0
LINE
  5
F69D
  8
0
 10
4768.6566421893694496
 20
236.4096527530724074
 30
0.0
 11
4768.6860330488689215
 21
236.412828317572405
 31
0.0
  0
ARC
  5
F69E
  8
0
 10
4768.6837659675138639
 20
236.4230165100645991
 30
0.0
 40
0.0104371031088849
 50
282.5430598330517
 51
319.8302341271440241
  0
LINE
  5
F69F
  8
0
 10
4768.6986564883191022
 20
236.42882808272239
 30
0.0
 11
4768.6917413391702212
 21
236.4162840091723865
 31
0.0
  0
LINE
  5
F6A0
  8
0
 10
4768.6270910889543302
 20
236.3918585242334132
 30
0.0
 11
4768.643606572317367
 21
236.3936430888441009
 31
0.0
  0
ARC
  5
F6A1
  8
0
 10
4768.6419007708409481
 20
236.4031660163446986
 30
0.0
 40
0.0096744977573331
 50
280.1554471894640983
 51
321.2680153968688046
  0
LINE
  5
F6A2
  8
0
 10
4768.6575698465758251
 20
236.4097529901792996
 30
0.0
 11
4768.6494476651678269
 21
236.3971128937724018
 31
0.0
  0
LINE
  5
F6A3
  8
0
 10
4768.643606572317367
 20
236.3936430888441009
 30
0.0
 11
4768.6635078740191602
 21
236.3827045088223997
 31
0.0
  0
ARC
  5
F6A4
  8
0
 10
4768.6673768783648484
 20
236.3891775496637138
 30
0.0
 40
0.0075411837509428
 50
239.1327966764613961
 51
280.1133608354905959
  0
LINE
  5
F6A5
  8
0
 10
4768.6979587550486031
 20
236.384914948536391
 30
0.0
 11
4768.6687010823161472
 21
236.381753538870214
 31
0.0
  0
LINE
  5
F6A6
  8
0
 10
4768.7119267378348013
 20
236.4010253586471038
 30
0.0
 11
4768.7032695309690098
 21
236.3877363399724061
 31
0.0
  0
ARC
  5
F6A7
  8
0
 10
4768.6970401035450777
 20
236.393053148447791
 30
0.0
 40
0.0081898851265009
 50
276.4403660356152841
 51
319.519284949238795
  0
LINE
  5
F6A8
  8
0
 10
4768.6859006032118486
 20
236.4128140073503914
 30
0.0
 11
4768.70543549886861
 21
236.4020399546724036
 31
0.0
  0
ARC
  5
F6A9
  8
0
 10
4768.7099515021509433
 20
236.4096613042667911
 30
0.0
 40
0.0088589566404766
 50
239.3296903025506026
 51
282.8832311443030108
  0
LINE
  5
F6AA
  8
0
 10
4768.7119267378348013
 20
236.4010253586471038
 30
0.0
 11
4768.7402524289500434
 21
236.4040860639364041
 31
0.0
  0
ARC
  5
F6AB
  8
0
 10
4768.7396778880683996
 20
236.4117118322203055
 30
0.0
 40
0.0076473811951641
 50
274.3086402304573994
 51
328.1874890506243219
  0
LINE
  5
F6AC
  8
0
 10
4768.7542155800592809
 20
236.4201959519540992
 30
0.0
 11
4768.746176461369032
 21
236.4076805812723876
 31
0.0
  0
LINE
  5
F6AD
  8
0
 10
4768.7281939202011927
 20
236.4319853196525969
 30
0.0
 11
4768.7477262464690284
 21
236.4212126829723957
 31
0.0
  0
ARC
  5
F6AE
  8
0
 10
4768.7526093753840541
 20
236.4311636154826886
 30
0.0
 40
0.011084653207613
 50
243.8791078719742984
 51
278.3316891893236971
  0
LINE
  5
F6AF
  8
0
 10
4768.7542155800592809
 20
236.4201959519540992
 30
0.0
 11
4768.7825461029497092
 21
236.4232571793363888
 31
0.0
  0
LINE
  5
F6B0
  8
0
 10
4768.7965092540152909
 20
236.4393670673466943
 30
0.0
 11
4768.7881331903008686
 21
236.4263271375988893
 31
0.0
  0
ARC
  5
F6B1
  8
0
 10
4768.7802214026978618
 20
236.4341069678118004
 30
0.0
 40
0.0110960416918497
 50
282.0934725070665081
 51
315.4818128659180729
  0
LINE
  5
F6B2
  8
0
 10
4768.7704875940353304
 20
236.4511564350453909
 30
0.0
 11
4768.7900199204677847
 21
236.4403837983724088
 31
0.0
  0
ARC
  5
F6B3
  8
0
 10
4768.794650787761384
 20
236.4487229228062972
 30
0.0
 40
0.0095386544230616
 50
240.9557904568391962
 51
281.235100351335177
  0
LINE
  5
F6B4
  8
0
 10
4768.7965092540152909
 20
236.4393670673466943
 30
0.0
 11
4768.8248397770003066
 21
236.4424282946530127
 31
0.0
  0
LINE
  5
F6B5
  8
0
 10
4768.8388054655360975
 20
236.4585384568391078
 30
0.0
 11
4768.8304157114189366
 21
236.4455738928224093
 31
0.0
  0
ARC
  5
F6B6
  8
0
 10
4768.823084747028588
 20
236.4520540785700007
 30
0.0
 40
0.0097844696442463
 50
280.3330046506974895
 51
318.5250146997061051
  0
LINE
  5
F6B7
  8
0
 10
4768.8127812679485942
 20
236.4703275504361955
 30
0.0
 11
4768.8323165207693819
 21
236.4595533007723986
 31
0.0
  0
ARC
  5
F6B8
  8
0
 10
4768.8369309402905856
 20
236.4678055611288983
 30
0.0
 40
0.0094547906805679
 50
240.7671238078920908
 51
281.4353410232217243
  0
LINE
  5
F6B9
  8
0
 10
4768.8388054655360975
 20
236.4585384568391078
 30
0.0
 11
4768.8671334510008819
 21
236.4615994100525995
 31
0.0
  0
LINE
  5
F6BA
  8
0
 10
4768.8810991395448582
 20
236.4777095722510012
 30
0.0
 11
4768.8727093853685801
 21
236.4647450082223941
 31
0.0
  0
ARC
  5
F6BB
  8
0
 10
4768.8666072423293372
 20
236.469046966833389
 30
0.0
 40
0.007466123329358
 50
274.0415288190433785
 51
324.8164909831289719
  0
LINE
  5
F6BC
  8
0
 10
4768.8550749419482599
 20
236.4894986658362939
 30
0.0
 11
4768.8746101946690032
 21
236.4787244161724118
 31
0.0
  0
LINE
  5
F6BD
  8
0
 10
4768.8810991395448582
 20
236.4777095722510012
 30
0.0
 11
4768.9094271248341101
 21
236.4807705254453936
 31
0.0
  0
LINE
  5
F6BE
  8
0
 10
4768.9233928134335656
 20
236.4968806876389067
 30
0.0
 11
4768.9150030593691554
 21
236.4839161236224072
 31
0.0
  0
ARC
  5
F6BF
  8
0
 10
4768.8797252628137358
 20
236.4901742012422972
 30
0.0
 40
0.0125401161544171
 50
245.9125974831445944
 51
276.2898675781557927
  0
ARC
  5
F6C0
  8
0
 10
4768.9091293866567867
 20
236.4878130923115975
 30
0.0
 40
0.0070488577860093
 50
272.4208486235444866
 51
326.4371698220724056
  0
LINE
  5
F6C1
  8
0
 10
4768.6229340227891953
 20
236.3622071102026894
 30
0.0
 11
4768.6556650810325664
 21
236.3657438331455864
 31
0.0
  0
LINE
  5
F6C2
  8
0
 10
4768.6696283554756519
 20
236.3818537344789092
 30
0.0
 11
4768.6615061740685633
 21
236.3692136380724094
 31
0.0
  0
ARC
  5
F6C3
  8
0
 10
4768.6542307797653848
 20
236.3748097157672987
 30
0.0
 40
0.0091786408491449
 50
278.9901755098638887
 51
322.4332854680595233
  0
LINE
  5
F6C4
  8
0
 10
4768.6556650810325664
 20
236.3657438331455864
 30
0.0
 11
4768.6751974074686586
 21
236.3549711964724054
 31
0.0
  0
LINE
  5
F6C5
  8
0
 10
4768.6809959125703244
 20
236.3538798166626975
 30
0.0
 11
4768.7101500666685752
 21
236.3570298060724042
 31
0.0
  0
LINE
  5
F6C6
  8
0
 10
4768.7153280398688366
 20
236.3598370841723977
 30
0.0
 11
4768.7239852467246237
 21
236.3731261029354869
 31
0.0
  0
ARC
  5
F6C7
  8
0
 10
4768.6798449731204528
 20
236.3637143007497912
 30
0.0
 40
0.0099016028439243
 50
242.006260576631206
 51
276.675018307879327
  0
ARC
  5
F6C8
  8
0
 10
4768.7096568032202413
 20
236.3641185990634881
 30
0.0
 40
0.0071059337811176
 50
273.9804283235358184
 51
322.9489250541344063
  0
LINE
  5
F6C9
  8
0
 10
4768.6979587550486031
 20
236.384914948536391
 30
0.0
 11
4768.7174910813691895
 21
236.3741423118723901
 31
0.0
  0
ARC
  5
F6CA
  8
0
 10
4768.7220361075824258
 20
236.3819280949452093
 30
0.0
 40
0.0090152208371212
 50
239.7465703072400061
 51
282.4862532353217262
  0
LINE
  5
F6CB
  8
0
 10
4768.7239852467246237
 20
236.3731261029354869
 30
0.0
 11
4768.7523109378489607
 21
236.376186808236298
 31
0.0
  0
LINE
  5
F6CC
  8
0
 10
4768.7662766264338643
 20
236.3922969703384922
 30
0.0
 11
4768.7578868723703636
 21
236.3793324063223906
 31
0.0
  0
ARC
  5
F6CD
  8
0
 10
4768.7511451844311523
 20
236.3847680320712072
 30
0.0
 40
0.0086600452388552
 50
277.736233803770574
 51
321.121783361418295
  0
LINE
  5
F6CE
  8
0
 10
4768.7402524289500434
 20
236.4040860639364041
 30
0.0
 11
4768.7601537309183186
 21
236.3931474838724114
 31
0.0
  0
ARC
  5
F6CF
  8
0
 10
4768.7648985690420886
 20
236.404841050505695
 30
0.0
 40
0.0126195479085967
 50
247.914415810722204
 51
276.2692137505239884
  0
LINE
  5
F6D0
  8
0
 10
4768.7662766264338643
 20
236.3922969703384922
 30
0.0
 11
4768.794604611851355
 21
236.3953579235364089
 31
0.0
  0
LINE
  5
F6D1
  8
0
 10
4768.8085678862717032
 20
236.4114678248787982
 30
0.0
 11
4768.8004457049692064
 21
236.398827728472412
 31
0.0
  0
ARC
  5
F6D2
  8
0
 10
4768.7929363316079616
 20
236.4048176881082099
 30
0.0
 40
0.0096057433195763
 50
280.001577306028878
 51
321.4218830878226072
  0
LINE
  5
F6D3
  8
0
 10
4768.7825461029497092
 20
236.4232571793363888
 30
0.0
 11
4768.8020784293694305
 21
236.412484542672388
 31
0.0
  0
LINE
  5
F6D4
  8
0
 10
4768.8085678862717032
 20
236.4114678248787982
 30
0.0
 11
4768.8368982857500669
 21
236.4145290389363936
 31
0.0
  0
LINE
  5
F6D5
  8
0
 10
4768.8428228255679642
 20
236.4181243461723909
 30
0.0
 11
4768.8508763585587076
 21
236.4306405392937052
 31
0.0
  0
LINE
  5
F6D6
  8
0
 10
4768.8248397770003066
 20
236.4424282946530127
 30
0.0
 11
4768.8443721032690519
 21
236.4316556579724136
 31
0.0
  0
LINE
  5
F6D7
  8
0
 10
4768.8508763585587076
 20
236.4306405392937052
 30
0.0
 11
4768.8791919597497326
 21
236.4337001543364067
 31
0.0
  0
LINE
  5
F6D8
  8
0
 10
4768.8851164995703584
 20
236.4372954615724041
 30
0.0
 11
4768.8931904720566308
 21
236.4498138632746134
 31
0.0
  0
ARC
  5
F6D9
  8
0
 10
4768.8489403190224039
 20
236.439580780663789
 30
0.0
 40
0.0091474676739254
 50
240.0399017648254016
 51
282.2189230376764044
  0
ARC
  5
F6DA
  8
0
 10
4768.8778509894909803
 20
236.4425889175741133
 30
0.0
 40
0.0089893444217821
 50
278.5790216943213977
 51
323.923921757132689
  0
ARC
  5
F6DB
  8
0
 10
4768.8370688712338961
 20
236.4209269796643866
 30
0.0
 40
0.0064002144469352
 50
268.4727096292497208
 51
334.0302338221529794
  0
ARC
  5
F6DC
  8
0
 10
4768.8064042044070447
 20
236.4188762353722097
 30
0.0
 40
0.0077179054961943
 50
235.9106118262280063
 51
286.2808401387130743
  0
LINE
  5
F6DD
  8
0
 10
4768.8368982857500669
 20
236.4145290389363936
 30
0.0
 11
4768.8567995877192516
 21
236.4035904588724009
 31
0.0
  0
LINE
  5
F6DE
  8
0
 10
4768.8619927959152847
 20
236.402639488870193
 30
0.0
 11
4768.8913832714679302
 21
236.4058150119724075
 31
0.0
  0
LINE
  5
F6DF
  8
0
 10
4768.905216157412724
 20
236.4219110608549954
 30
0.0
 11
4768.8968264032191655
 21
236.408946496772387
 31
0.0
  0
ARC
  5
F6E0
  8
0
 10
4768.8607069540421435
 20
236.4102729925432129
 30
0.0
 40
0.007741044364037
 50
239.6846057668174126
 51
279.5615516160876268
  0
ARC
  5
F6E1
  8
0
 10
4768.8903637567691476
 20
236.4138868824477129
 30
0.0
 40
0.0081346917435638
 50
276.2604193977584259
 51
322.6038083808662122
  0
LINE
  5
F6E2
  8
0
 10
4768.6302940451523682
 20
236.3337058141343903
 30
0.0
 11
4768.6677235899487641
 21
236.3378445774363001
 31
0.0
  0
LINE
  5
F6E3
  8
0
 10
4768.6723835021703053
 20
236.3400804584724142
 30
0.0
 11
4768.6817217529605841
 21
236.3539582486314998
 31
0.0
  0
LINE
  5
F6E4
  8
0
 10
4768.6677235899487641
 20
236.3378445774363001
 30
0.0
 11
4768.6872588426685979
 21
236.3270703277723896
 31
0.0
  0
LINE
  5
F6E5
  8
0
 10
4768.6928180999693723
 20
236.3259550273724017
 30
0.0
 11
4768.7220757729000979
 21
236.3291164370529884
 31
0.0
  0
LINE
  5
F6E6
  8
0
 10
4768.727386548769573
 20
236.3319378284724053
 30
0.0
 11
4768.7360044683682645
 21
236.3452226019988984
 31
0.0
  0
LINE
  5
F6E7
  8
0
 10
4768.7101500666685752
 20
236.3570298060724042
 30
0.0
 11
4768.7295495902681068
 21
236.3462430561723977
 31
0.0
  0
LINE
  5
F6E8
  8
0
 10
4768.7360044683682645
 20
236.3452226019988984
 30
0.0
 11
4768.7643694468497415
 21
236.3482875524364033
 31
0.0
  0
LINE
  5
F6E9
  8
0
 10
4768.7696802227692388
 20
236.35110894387239
 30
0.0
 11
4768.7782947661580693
 21
236.3643933525860916
 31
0.0
  0
ARC
  5
F6EA
  8
0
 10
4768.6655493571188345
 20
236.3483499248619069
 30
0.0
 40
0.0107279827057933
 50
281.6930964682027252
 51
309.5713894760962717
  0
ARC
  5
F6EB
  8
0
 10
4768.6916693078437675
 20
236.3346416443147859
 30
0.0
 40
0.008762250695405
 50
239.7782209483864904
 51
277.5335644542433897
  0
ARC
  5
F6EC
  8
0
 10
4768.7213072048407412
 20
236.3369721310486113
 30
0.0
 40
0.0078932011891686
 50
275.5877948566392774
 51
320.3718563000098243
  0
ARC
  5
F6ED
  8
0
 10
4768.7344648474945643
 20
236.3564091150666115
 30
0.0
 40
0.0112919664826372
 50
244.1963803966280864
 51
277.8364925793039788
  0
ARC
  5
F6EE
  8
0
 10
4768.7620721511184456
 20
236.35902080898299
 30
0.0
 40
0.0109763547580018
 50
282.0810383176117853
 51
313.8786126660145896
  0
LINE
  5
F6EF
  8
0
 10
4768.7523109378489607
 20
236.376186808236298
 30
0.0
 11
4768.7725782888692265
 21
236.365083897672406
 31
0.0
  0
ARC
  5
F6F0
  8
0
 10
4768.7770283086792915
 20
236.3779157240043958
 30
0.0
 40
0.0135815478985839
 50
250.8736835373618987
 51
275.3505124172352225
  0
LINE
  5
F6F1
  8
0
 10
4768.7783453628808275
 20
236.3643988197663077
 30
0.0
 11
4768.8066631207502724
 21
236.367458667836388
 31
0.0
  0
ARC
  5
F6F2
  8
0
 10
4768.8052576673499061
 20
236.3764759877126949
 30
0.0
 40
0.0091261907173972
 50
278.8589314137316819
 51
322.5645298417679783
  0
LINE
  5
F6F3
  8
0
 10
4768.820626395175168
 20
236.383568569178891
 30
0.0
 11
4768.8125042137689888
 21
236.3709284727723912
 31
0.0
  0
LINE
  5
F6F4
  8
0
 10
4768.8973686160843499
 20
236.5086697811617
 30
0.0
 11
4768.9169009423685566
 21
236.4978971444724039
 31
0.0
  0
LINE
  5
F6F5
  8
0
 10
4768.9233928134335656
 20
236.4968806876389067
 30
0.0
 11
4768.9517207987491929
 21
236.499941640836397
 31
0.0
  0
LINE
  5
F6F6
  8
0
 10
4768.9656840732750425
 20
236.5160515421792979
 30
0.0
 11
4768.9575618918688633
 21
236.5034114457724002
 31
0.0
  0
ARC
  5
F6F7
  8
0
 10
4768.9216751362318973
 20
236.5071495430790094
 30
0.0
 40
0.0104115228001985
 50
242.7064802441630889
 51
279.4959843074241803
  0
ARC
  5
F6F8
  8
0
 10
4768.9507524277942139
 20
236.5082231733786955
 30
0.0
 40
0.0083379567977511
 50
276.6693873931482131
 51
324.7540730020389788
  0
LINE
  5
F6F9
  8
0
 10
4768.9551119523839589
 20
236.5193199658534127
 30
0.0
 11
4768.9591975426692443
 21
236.5170666469724097
 31
0.0
  0
LINE
  5
F6FA
  8
0
 10
4768.9656840732750425
 20
236.5160515421792979
 30
0.0
 11
4768.9828133488690582
 21
236.5179024295723877
 31
0.0
  0
ARC
  5
F6FB
  8
0
 10
4768.9643344207515838
 20
236.5286557012458957
 30
0.0
 40
0.0126762134609859
 50
246.0795147386708095
 51
276.1119392393102885
  0
LINE
  5
F6FC
  8
0
 10
4768.9517207987491929
 20
236.499941640836397
 30
0.0
 11
4768.9712531251689143
 21
236.4891690041723962
 31
0.0
  0
LINE
  5
F6FD
  8
0
 10
4768.976815308868936
 20
236.4880520907724133
 30
0.0
 11
4769.0060729818005711
 21
236.4912135004530001
 31
0.0
  0
LINE
  5
F6FE
  8
0
 10
4769.02003625618363
 20
236.5073234017926893
 30
0.0
 11
4769.0119140747692654
 21
236.4946833053724049
 31
0.0
  0
ARC
  5
F6FF
  8
0
 10
4768.9760056340819574
 20
236.4984280185946091
 30
0.0
 40
0.0104074823583809
 50
242.8292717254558113
 51
274.45984994603009
  0
ARC
  5
F700
  8
0
 10
4769.0059569160775936
 20
236.4980602563512093
 30
0.0
 40
0.0068477395964161
 50
270.9711809839088232
 51
330.4522804621176988
  0
LINE
  5
F701
  8
0
 10
4768.9987513528703857
 20
236.5165002313723903
 30
0.0
 11
4769.01354679916858
 21
236.5083401194723933
 31
0.0
  0
LINE
  5
F702
  8
0
 10
4769.02003625618363
 20
236.5073234017926893
 30
0.0
 11
4769.0451262703363682
 21
236.5100344791756868
 31
0.0
  0
ARC
  5
F703
  8
0
 10
4769.0184642833237376
 20
236.5185105316406862
 30
0.0
 40
0.0112970338101218
 50
244.2127451292855085
 51
277.9986152883815862
  0
LINE
  5
F704
  8
0
 10
4768.8671334510008819
 20
236.4615994100525995
 30
0.0
 11
4768.8866687035688301
 21
236.450825160472391
 31
0.0
  0
LINE
  5
F705
  8
0
 10
4768.8931904720566308
 20
236.4498138632746134
 30
0.0
 11
4768.9214444271201501
 21
236.4528668172044092
 31
0.0
  0
LINE
  5
F706
  8
0
 10
4768.9354489081752035
 20
236.4689811710792924
 30
0.0
 11
4768.9273267267690244
 21
236.4563410746723946
 31
0.0
  0
ARC
  5
F707
  8
0
 10
4768.8915263833760037
 20
236.4606155560931029
 30
0.0
 40
0.0109291243419759
 50
243.5933688165320916
 51
278.7580268427536225
  0
ARC
  5
F708
  8
0
 10
4768.921482005859616
 20
236.4595200108323922
 30
0.0
 40
0.0066532997537538
 50
269.6763839429971767
 51
331.458287701868926
  0
LINE
  5
F709
  8
0
 10
4768.7218278707896388
 20
236.3290896502292071
 30
0.0
 11
4768.741227750579128
 21
236.3183027022770943
 31
0.0
  0
LINE
  5
F70A
  8
0
 10
4768.7476826286783762
 20
236.3172822481035951
 30
0.0
 11
4768.7760476071598532
 21
236.3203471985412136
 31
0.0
  0
LINE
  5
F70B
  8
0
 10
4768.7813583830793505
 20
236.3231685899770866
 30
0.0
 11
4768.7899729264690905
 21
236.3364529986907883
 31
0.0
  0
ARC
  5
F70C
  8
0
 10
4768.746143007804676
 20
236.3284687611713082
 30
0.0
 40
0.0112919664826372
 50
244.1963803966280864
 51
277.8364925793039788
  0
ARC
  5
F70D
  8
0
 10
4768.7737503114276478
 20
236.3310804550878004
 30
0.0
 40
0.0109763547580018
 50
282.0810383176117853
 51
313.8786126660145896
  0
LINE
  5
F70E
  8
0
 10
4768.6795345530290433
 20
236.3099183367772014
 30
0.0
 11
4768.698934076628575
 21
236.2991315868771949
 31
0.0
  0
LINE
  5
F70F
  8
0
 10
4768.7053889547269137
 20
236.2981111327036103
 30
0.0
 11
4768.7337539332111191
 21
236.3011760831412005
 31
0.0
  0
LINE
  5
F710
  8
0
 10
4768.7390647091287974
 20
236.3039974745771872
 30
0.0
 11
4768.7476792525194469
 21
236.3172818832908035
 31
0.0
  0
ARC
  5
F711
  8
0
 10
4768.7038493338559419
 20
236.3092976457714087
 30
0.0
 40
0.0112919664826372
 50
244.1963803966280864
 51
277.8364925793039788
  0
ARC
  5
F712
  8
0
 10
4768.7314566374770948
 20
236.311909339687702
 30
0.0
 40
0.0109763547580018
 50
282.0810383176117853
 51
313.8786126660145896
  0
LINE
  5
F713
  8
0
 10
4768.7338673360236498
 20
236.3012009833109914
 30
0.0
 11
4768.7532862594789549
 21
236.2904034464770859
 31
0.0
  0
LINE
  5
F714
  8
0
 10
4768.7597411375782031
 20
236.2893829923035867
 30
0.0
 11
4768.7881061160587706
 21
236.2924479427412052
 31
0.0
  0
LINE
  5
F715
  8
0
 10
4768.7934168919800868
 20
236.2952693341771067
 30
0.0
 11
4768.8020314353680078
 21
236.3085537428908083
 31
0.0
  0
ARC
  5
F716
  8
0
 10
4768.7582015167063219
 20
236.3005695053712998
 30
0.0
 40
0.0112919664826372
 50
244.1963803966280864
 51
277.8364925793039788
  0
ARC
  5
F717
  8
0
 10
4768.7858088203283842
 20
236.303181199287792
 30
0.0
 40
0.0109763547580018
 50
282.0810383176117853
 51
313.8786126660145896
  0
LINE
  5
F718
  8
0
 10
4768.7882389187288936
 20
236.2924620560771984
 30
0.0
 11
4768.8076384423293348
 21
236.2816753061771067
 31
0.0
  0
LINE
  5
F719
  8
0
 10
4768.8140933204276735
 20
236.2806548520036074
 30
0.0
 11
4768.84245829891006
 21
236.2837198024411975
 31
0.0
  0
LINE
  5
F71A
  8
0
 10
4768.8477690748286477
 20
236.2865411938772127
 30
0.0
 11
4768.8563836182183877
 21
236.2998256025908006
 31
0.0
  0
ARC
  5
F71B
  8
0
 10
4768.8125536995557923
 20
236.2918413650714058
 30
0.0
 40
0.0112919664826372
 50
244.1963803966280864
 51
277.8364925793039788
  0
ARC
  5
F71C
  8
0
 10
4768.8401610031778546
 20
236.294453058987699
 30
0.0
 40
0.0109763547580018
 50
282.0810383176117853
 51
313.8786126660145896
  0
LINE
  5
F71D
  8
0
 10
4768.746192790549685
 20
236.2733179256364906
 30
0.0
 11
4768.7653447683287595
 21
236.2625041907770935
 31
0.0
  0
LINE
  5
F71E
  8
0
 10
4768.7717996464280077
 20
236.2614837366035943
 30
0.0
 11
4768.8001646249103942
 21
236.2645486870412128
 31
0.0
  0
LINE
  5
F71F
  8
0
 10
4768.8054754008289819
 20
236.2673700784771995
 30
0.0
 11
4768.8140899442178124
 21
236.2806544871907874
 31
0.0
  0
ARC
  5
F720
  8
0
 10
4768.7702600255561265
 20
236.2726702496713926
 30
0.0
 40
0.0112919664826372
 50
244.1963803966280864
 51
277.8364925793039788
  0
ARC
  5
F721
  8
0
 10
4768.7978673291781888
 20
236.2752819435876859
 30
0.0
 40
0.0109763547580018
 50
282.0810383176117853
 51
313.8786126660145896
  0
LINE
  5
F722
  8
0
 10
4768.8002974276796522
 20
236.264562800377206
 30
0.0
 11
4768.8196969512791838
 21
236.2537760504770858
 31
0.0
  0
LINE
  5
F723
  8
0
 10
4768.8261518293793415
 20
236.2527555963035866
 30
0.0
 11
4768.8545168078589995
 21
236.2558205467410914
 31
0.0
  0
LINE
  5
F724
  8
0
 10
4768.8598275837803158
 20
236.2586419381771918
 30
0.0
 11
4768.8684421271682368
 21
236.2719263468908082
 31
0.0
  0
ARC
  5
F725
  8
0
 10
4768.8246122085047318
 20
236.2639421093714134
 30
0.0
 40
0.0112919664826372
 50
244.1963803966280864
 51
277.8364925793039788
  0
ARC
  5
F726
  8
0
 10
4768.8522195121286131
 20
236.2665538032877919
 30
0.0
 40
0.0109763547580018
 50
282.0810383176117853
 51
313.8786126660145896
  0
LINE
  5
F727
  8
0
 10
4768.8425717018872092
 20
236.2837447026477946
 30
0.0
 11
4768.8619906252297369
 21
236.272947165877099
 31
0.0
  0
LINE
  5
F728
  8
0
 10
4768.8684455033280756
 20
236.2719267117035997
 30
0.0
 11
4768.8968104818086431
 21
236.2749916621411899
 31
0.0
  0
LINE
  5
F729
  8
0
 10
4768.9021212577290498
 20
236.277813053577205
 30
0.0
 11
4768.9107358011169708
 21
236.2910974622907929
 31
0.0
  0
ARC
  5
F72A
  8
0
 10
4768.8669058824571039
 20
236.2831132247713981
 30
0.0
 40
0.0112919664826372
 50
244.1963803966280864
 51
277.8364925793039788
  0
ARC
  5
F72B
  8
0
 10
4768.8945131860782567
 20
236.285724918687805
 30
0.0
 40
0.0109763547580018
 50
282.0810383176117853
 51
313.8786126660145896
  0
LINE
  5
F72C
  8
0
 10
4768.8305325927785816
 20
236.3116331714770979
 30
0.0
 11
4768.8499321163790228
 21
236.3008464215770914
 31
0.0
  0
LINE
  5
F72D
  8
0
 10
4768.8563869944782709
 20
236.2998259674035921
 30
0.0
 11
4768.8847519729597479
 21
236.3028909178412107
 31
0.0
  0
LINE
  5
F72E
  8
0
 10
4768.8900627488792452
 20
236.3057123092771121
 30
0.0
 11
4768.8986772922680757
 21
236.3189967179908137
 31
0.0
  0
ARC
  5
F72F
  8
0
 10
4768.8548473736063897
 20
236.3110124804713053
 30
0.0
 40
0.0112919664826372
 50
244.1963803966280864
 51
277.8364925793039788
  0
ARC
  5
F730
  8
0
 10
4768.8824546772284521
 20
236.3136241743877974
 30
0.0
 40
0.0109763547580018
 50
282.0810383176117853
 51
313.8786126660145896
  0
LINE
  5
F731
  8
0
 10
4768.8184740838287325
 20
236.3395324271770903
 30
0.0
 11
4768.8378736074291737
 21
236.3287456772771122
 31
0.0
  0
LINE
  5
F732
  8
0
 10
4768.8443284855284219
 20
236.327725223103613
 30
0.0
 11
4768.8726934640098989
 21
236.3307901735412031
 31
0.0
  0
LINE
  5
F733
  8
0
 10
4768.8780042399293961
 20
236.3336115649771898
 30
0.0
 11
4768.8866187833182266
 21
236.3468959736908062
 31
0.0
  0
ARC
  5
F734
  8
0
 10
4768.8427888646547217
 20
236.3389117361712977
 30
0.0
 40
0.0112919664826372
 50
244.1963803966280864
 51
277.8364925793039788
  0
ARC
  5
F735
  8
0
 10
4768.8703961682776935
 20
236.3415234300877898
 30
0.0
 40
0.0109763547580018
 50
282.0810383176117853
 51
313.8786126660145896
  0
LINE
  5
F736
  8
0
 10
4768.7761804098781795
 20
236.3203613117771908
 30
0.0
 11
4768.7955799334786207
 21
236.3095745618772128
 31
0.0
  0
LINE
  5
F737
  8
0
 10
4768.8020348115769593
 20
236.3085541077035998
 30
0.0
 11
4768.8303997900602553
 21
236.31161905814119
 31
0.0
  0
LINE
  5
F738
  8
0
 10
4768.8357105659788431
 20
236.3144404495772051
 30
0.0
 11
4768.8443251093685831
 21
236.327724858290793
 31
0.0
  0
ARC
  5
F739
  8
0
 10
4768.8004951907050781
 20
236.3197406207713982
 30
0.0
 40
0.0112919664826372
 50
244.1963803966280864
 51
277.8364925793039788
  0
ARC
  5
F73A
  8
0
 10
4768.8281024943271404
 20
236.3223523146876914
 30
0.0
 40
0.0109763547580018
 50
282.0810383176117853
 51
313.8786126660145896
  0
LINE
  5
F73B
  8
0
 10
4768.7641219009292399
 20
236.3482605675771993
 30
0.0
 11
4768.7835214245296811
 21
236.3374738176771928
 31
0.0
  0
LINE
  5
F73C
  8
0
 10
4768.7899763026280198
 20
236.3364533635036082
 30
0.0
 11
4768.8183412811104063
 21
236.3395183139411131
 31
0.0
  0
LINE
  5
F73D
  8
0
 10
4768.823652057028994
 20
236.3423397053772135
 30
0.0
 11
4768.832266600416915
 21
236.3556241140908014
 31
0.0
  0
ARC
  5
F73E
  8
0
 10
4768.7884366817561386
 20
236.3476398765714066
 30
0.0
 40
0.0112919664826372
 50
244.1963803966280864
 51
277.8364925793039788
  0
ARC
  5
F73F
  8
0
 10
4768.8160439853782009
 20
236.3502515704876998
 30
0.0
 40
0.0109763547580018
 50
282.0810383176117853
 51
313.8786126660145896
  0
LINE
  5
F740
  8
0
 10
4768.8064155749789279
 20
236.3674316829271049
 30
0.0
 11
4768.8258150985793691
 21
236.3566449330272121
 31
0.0
  0
LINE
  5
F741
  8
0
 10
4768.8322699766777077
 20
236.3556244788535992
 30
0.0
 11
4768.8606349551591848
 21
236.358689429291104
 31
0.0
  0
LINE
  5
F742
  8
0
 10
4768.8659457310795915
 20
236.3615108207270907
 30
0.0
 11
4768.874560274466603
 21
236.3747952294407924
 31
0.0
  0
ARC
  5
F743
  8
0
 10
4768.8307303558058265
 20
236.3668109919213123
 30
0.0
 40
0.0112919664826372
 50
244.1963803966280864
 51
277.8364925793039788
  0
ARC
  5
F744
  8
0
 10
4768.8583376594287984
 20
236.3694226858378045
 30
0.0
 40
0.0109763547580018
 50
282.0810383176117853
 51
313.8786126660145896
  0
LINE
  5
F745
  8
0
 10
4768.7943570660791011
 20
236.3953309386772048
 30
0.0
 11
4768.8137565896786327
 21
236.3845441887771983
 31
0.0
  0
LINE
  5
F746
  8
0
 10
4768.8202114677778809
 20
236.3835237346036138
 30
0.0
 11
4768.8485764462602674
 21
236.3865886850410902
 31
0.0
  0
LINE
  5
F747
  8
0
 10
4768.8538872221788552
 20
236.3894100764771053
 30
0.0
 11
4768.8625017655685951
 21
236.402694485190807
 31
0.0
  0
ARC
  5
F748
  8
0
 10
4768.8186718469059997
 20
236.3947102476714122
 30
0.0
 40
0.0112919664826372
 50
244.1963803966280864
 51
277.8364925793039788
  0
ARC
  5
F749
  8
0
 10
4768.846279150528062
 20
236.3973219415877907
 30
0.0
 40
0.0109763547580018
 50
282.0810383176117853
 51
313.8786126660145896
  0
LINE
  5
F74A
  8
0
 10
4768.8487092489303905
 20
236.3866027982770959
 30
0.0
 11
4768.8681087725290126
 21
236.3758160483770894
 31
0.0
  0
LINE
  5
F74B
  8
0
 10
4768.8745636506282608
 20
236.3747955942035901
 30
0.0
 11
4768.9029286291088283
 21
236.3778605446412087
 31
0.0
  0
LINE
  5
F74C
  8
0
 10
4768.9082394050292351
 20
236.3806819360771101
 30
0.0
 11
4768.9173336919920985
 21
236.3947061529758003
 31
0.0
  0
ARC
  5
F74D
  8
0
 10
4768.8730240297563796
 20
236.3859821072713032
 30
0.0
 40
0.0112919664826372
 50
244.1963803966280864
 51
277.8364925793039788
  0
ARC
  5
F74E
  8
0
 10
4768.9006313333784419
 20
236.3885938011877954
 30
0.0
 40
0.0109763547580018
 50
282.0810383176117853
 51
313.8786126660145896
  0
LINE
  5
F74F
  8
0
 10
4768.86076775787933
 20
236.3587035425771035
 30
0.0
 11
4768.8801672814788617
 21
236.347916792677097
 31
0.0
  0
LINE
  5
F750
  8
0
 10
4768.8866221595781099
 20
236.3468963385035977
 30
0.0
 11
4768.9149871380586774
 21
236.3499612889411878
 31
0.0
  0
LINE
  5
F751
  8
0
 10
4768.9202979139790841
 20
236.352782680377203
 30
0.0
 11
4768.9289124573679146
 21
236.3660670890907909
 31
0.0
  0
ARC
  5
F752
  8
0
 10
4768.8850825387062287
 20
236.3580828515713961
 30
0.0
 40
0.0112919664826372
 50
244.1963803966280864
 51
277.8364925793039788
  0
ARC
  5
F753
  8
0
 10
4768.912689842328291
 20
236.360694545487803
 30
0.0
 40
0.0109763547580018
 50
282.0810383176117853
 51
313.8786126660145896
  0
LINE
  5
F754
  8
0
 10
4768.8728262667282252
 20
236.3308042868771963
 30
0.0
 11
4768.8922257903286663
 21
236.3200175369771898
 31
0.0
  0
LINE
  5
F755
  8
0
 10
4768.898680668427005
 20
236.3189970828036053
 30
0.0
 11
4768.927045646910301
 21
236.3220620332411102
 31
0.0
  0
LINE
  5
F756
  8
0
 10
4768.9323564228288888
 20
236.3248834246772105
 30
0.0
 11
4768.9409709662186287
 21
236.3381678333907985
 31
0.0
  0
ARC
  5
F757
  8
0
 10
4768.8971410475551238
 20
236.3301835958714037
 30
0.0
 40
0.0112919664826372
 50
244.1963803966280864
 51
277.8364925793039788
  0
ARC
  5
F758
  8
0
 10
4768.9247483511780956
 20
236.3327952897876969
 30
0.0
 40
0.0109763547580018
 50
282.0810383176117853
 51
313.8786126660145896
  0
LINE
  5
F759
  8
0
 10
4768.8848847755789393
 20
236.3029050310771879
 30
0.0
 11
4768.9042842991793805
 21
236.2921182811770962
 31
0.0
  0
LINE
  5
F75A
  8
0
 10
4768.9107391772777191
 20
236.2910978270035969
 30
0.0
 11
4768.9391041557601056
 21
236.294162777441187
 31
0.0
  0
LINE
  5
F75B
  8
0
 10
4768.9444149316796029
 20
236.2969841688772021
 30
0.0
 11
4768.9530294750684334
 21
236.3102685775907901
 31
0.0
  0
ARC
  5
F75C
  8
0
 10
4768.9091995564058379
 20
236.3022843400713953
 30
0.0
 40
0.0112919664826372
 50
244.1963803966280864
 51
277.8364925793039788
  0
ARC
  5
F75D
  8
0
 10
4768.9368068600279003
 20
236.3048960339876885
 30
0.0
 40
0.0109763547580018
 50
282.0810383176117853
 51
313.8786126660145896
  0
LINE
  5
F75E
  8
0
 10
4768.8969432844796756
 20
236.2750057753771955
 30
0.0
 11
4768.9163428080792073
 21
236.2642190254771037
 31
0.0
  0
LINE
  5
F75F
  8
0
 10
4768.922797686179365
 20
236.2631985713036045
 30
0.0
 11
4768.951162664659023
 21
236.2662635217411946
 31
0.0
  0
LINE
  5
F760
  8
0
 10
4768.9564734405794297
 20
236.2690849131772097
 30
0.0
 11
4768.9650879839682602
 21
236.2823693218907977
 31
0.0
  0
ARC
  5
F761
  8
0
 10
4768.9212580653047553
 20
236.2743850843712892
 30
0.0
 40
0.0112919664826372
 50
244.1963803966280864
 51
277.8364925793039788
  0
ARC
  5
F762
  8
0
 10
4768.9488653689286366
 20
236.2769967782876961
 30
0.0
 40
0.0109763547580018
 50
282.0810383176117853
 51
313.8786126660145896
  0
LINE
  5
F763
  8
0
 10
4768.9090017934304342
 20
236.2471065196770894
 30
0.0
 11
4768.9284013170290564
 21
236.2363197697771113
 31
0.0
  0
LINE
  5
F764
  8
0
 10
4768.9348561951283045
 20
236.2352993156036121
 30
0.0
 11
4768.963221173608872
 21
236.2383642660412022
 31
0.0
  0
LINE
  5
F765
  8
0
 10
4768.9685319495292788
 20
236.2411856574771889
 30
0.0
 11
4768.9771464929171998
 21
236.2544700661908053
 31
0.0
  0
ARC
  5
F766
  8
0
 10
4768.9333165742573328
 20
236.2464858286712968
 30
0.0
 40
0.0112919664826372
 50
244.1963803966280864
 51
277.8364925793039788
  0
ARC
  5
F767
  8
0
 10
4768.9609238778775762
 20
236.2490975225877889
 30
0.0
 40
0.0109763547580018
 50
282.0810383176117853
 51
313.8786126660145896
  0
LINE
  5
F768
  8
0
 10
4768.8546496105291226
 20
236.2558346599770971
 30
0.0
 11
4768.8740491341286543
 21
236.2450479100770906
 31
0.0
  0
LINE
  5
F769
  8
0
 10
4768.8805040122279024
 20
236.2440274559035913
 30
0.0
 11
4768.9088689907102889
 21
236.2470924063412099
 31
0.0
  0
LINE
  5
F76A
  8
0
 10
4768.9141797666279672
 20
236.2499137977771966
 30
0.0
 11
4768.9227943100177072
 21
236.2631982064908129
 31
0.0
  0
ARC
  5
F76B
  8
0
 10
4768.8789643913560212
 20
236.2552139689713897
 30
0.0
 40
0.0112919664826372
 50
244.1963803966280864
 51
277.8364925793039788
  0
ARC
  5
F76C
  8
0
 10
4768.9065716949780835
 20
236.2578256628877966
 30
0.0
 40
0.0109763547580018
 50
282.0810383176117853
 51
313.8786126660145896
  0
LINE
  5
F76D
  8
0
 10
4768.9512760676379912
 20
236.2662884219477917
 30
0.0
 11
4768.9706949909786999
 21
236.2554908851770961
 31
0.0
  0
LINE
  5
F76E
  8
0
 10
4768.9771498690779481
 20
236.2544704310035968
 30
0.0
 11
4769.0055148475603346
 21
236.2575353814411869
 31
0.0
  0
LINE
  5
F76F
  8
0
 10
4769.0108256234780129
 20
236.260356772877202
 30
0.0
 11
4769.0194401668677529
 21
236.27364118159079
 31
0.0
  0
ARC
  5
F770
  8
0
 10
4768.9756102482060669
 20
236.2656569440713952
 30
0.0
 40
0.0112919664826372
 50
244.1963803966280864
 51
277.8364925793039788
  0
ARC
  5
F771
  8
0
 10
4769.0032175518281292
 20
236.2682686379878021
 30
0.0
 40
0.0109763547580018
 50
282.0810383176117853
 51
313.8786126660145896
  0
LINE
  5
F772
  8
0
 10
4768.9392175587372549
 20
236.2941876776478125
 30
0.0
 11
4768.9586364820788731
 21
236.2833901408770885
 31
0.0
  0
LINE
  5
F773
  8
0
 10
4768.9650913601781212
 20
236.2823696867035892
 30
0.0
 11
4768.9934563386586888
 21
236.2854346371412078
 31
0.0
  0
LINE
  5
F774
  8
0
 10
4768.9987671145790955
 20
236.2882560285771945
 30
0.0
 11
4769.0073816579670165
 21
236.3015404372908108
 31
0.0
  0
ARC
  5
F775
  8
0
 10
4768.9635517393062401
 20
236.2935561997713023
 30
0.0
 40
0.0112919664826372
 50
244.1963803966280864
 51
277.8364925793039788
  0
ARC
  5
F776
  8
0
 10
4768.9911590429283024
 20
236.2961678936877945
 30
0.0
 40
0.0109763547580018
 50
282.0810383176117853
 51
313.8786126660145896
  0
LINE
  5
F777
  8
0
 10
4768.9271590497246507
 20
236.3220869334109864
 30
0.0
 11
4768.9465779731790462
 21
236.3112893965771093
 31
0.0
  0
LINE
  5
F778
  8
0
 10
4768.9530328512773849
 20
236.31026894240361
 30
0.0
 11
4768.9813978297597714
 21
236.3133338928412002
 31
0.0
  0
LINE
  5
F779
  8
0
 10
4768.9867086056792687
 20
236.3161552842771869
 30
0.0
 11
4768.9953231490680992
 21
236.3294396929908032
 31
0.0
  0
ARC
  5
F77A
  8
0
 10
4768.9514932304064132
 20
236.3214554554712947
 30
0.0
 40
0.0112919664826372
 50
244.1963803966280864
 51
277.8364925793039788
  0
ARC
  5
F77B
  8
0
 10
4768.979100534027566
 20
236.3240671493877869
 30
0.0
 40
0.0109763547580018
 50
282.0810383176117853
 51
313.8786126660145896
  0
LINE
  5
F77C
  8
0
 10
4768.969452723710674
 20
236.341258048818986
 30
0.0
 11
4768.9888716471796215
 21
236.330460511977094
 31
0.0
  0
LINE
  5
F77D
  8
0
 10
4768.9953265252779602
 20
236.3294400578035948
 30
0.0
 11
4769.0236915037603467
 21
236.3325050082412133
 31
0.0
  0
LINE
  5
F77E
  8
0
 10
4769.0290022796789344
 20
236.3353263996772
 30
0.0
 11
4769.0376168230686744
 21
236.348610808390788
 31
0.0
  0
ARC
  5
F77F
  8
0
 10
4768.9937869044051695
 20
236.3406265708713931
 30
0.0
 40
0.0112919664826372
 50
244.1963803966280864
 51
277.8364925793039788
  0
ARC
  5
F780
  8
0
 10
4769.0213942080281413
 20
236.3432382647878001
 30
0.0
 40
0.0109763547580018
 50
282.0810383176117853
 51
313.8786126660145896
  0
LINE
  5
F781
  8
0
 10
4768.9151005409676145
 20
236.3499861891318119
 30
0.0
 11
4768.9345194642792194
 21
236.3391886523770893
 31
0.0
  0
LINE
  5
F782
  8
0
 10
4768.9409743423775581
 20
236.33816819820359
 30
0.0
 11
4768.9693393208599446
 21
236.3412331486410949
 31
0.0
  0
LINE
  5
F783
  8
0
 10
4768.9746500967794418
 20
236.34405454007711
 30
0.0
 11
4768.9832646401682723
 21
236.3573389487908116
 31
0.0
  0
ARC
  5
F784
  8
0
 10
4768.9394347215047674
 20
236.3493547112713884
 30
0.0
 40
0.0112919664826372
 50
244.1963803966280864
 51
277.8364925793039788
  0
ARC
  5
F785
  8
0
 10
4768.9670420251286487
 20
236.3519664051877953
 30
0.0
 40
0.0109763547580018
 50
282.0810383176117853
 51
313.8786126660145896
  0
LINE
  5
F786
  8
0
 10
4768.9573942148235801
 20
236.3691573045333882
 30
0.0
 11
4768.976813138228863
 21
236.3583597677271939
 31
0.0
  0
LINE
  5
F787
  8
0
 10
4768.9832680163281111
 20
236.3573393135536094
 30
0.0
 11
4769.0116329948095881
 21
236.3604042639911995
 31
0.0
  0
LINE
  5
F788
  8
0
 10
4769.0169437707281759
 20
236.3632256554271862
 30
0.0
 11
4769.0255583141179159
 21
236.3765100641408026
 31
0.0
  0
ARC
  5
F789
  8
0
 10
4768.9817283954562299
 20
236.3685258266214078
 30
0.0
 40
0.0112919664826372
 50
244.1963803966280864
 51
277.8364925793039788
  0
ARC
  5
F78A
  8
0
 10
4769.0093356990782922
 20
236.3711375205377863
 30
0.0
 40
0.0109763547580018
 50
282.0810383176117853
 51
313.8786126660145896
  0
LINE
  5
F78B
  8
0
 10
4768.9443187840279279
 20
236.3976220011120972
 30
0.0
 11
4768.9647546293781488
 21
236.3862590234770948
 31
0.0
  0
LINE
  5
F78C
  8
0
 10
4768.9712095074783065
 20
236.3852385693035956
 30
0.0
 11
4768.9995744859597835
 21
236.3883035197412141
 31
0.0
  0
LINE
  5
F78D
  8
0
 10
4769.0048852618792807
 20
236.3911249111770871
 30
0.0
 11
4769.0134998052681112
 21
236.4044093198907888
 31
0.0
  0
ARC
  5
F78E
  8
0
 10
4768.9696698866064253
 20
236.3964250823713087
 30
0.0
 40
0.0112919664826372
 50
244.1963803966280864
 51
277.8364925793039788
  0
ARC
  5
F78F
  8
0
 10
4768.9972771902275781
 20
236.3990367762876872
 30
0.0
 40
0.0109763547580018
 50
282.0810383176117853
 51
313.8786126660145896
  0
LINE
  5
F790
  8
0
 10
4768.903042032016856
 20
236.3778854448318043
 30
0.0
 11
4768.9224609553293703
 21
236.3670879080771101
 31
0.0
  0
LINE
  5
F791
  8
0
 10
4768.9289158334286185
 20
236.3660674539036108
 30
0.0
 11
4768.9572808119100955
 21
236.3691324043410873
 31
0.0
  0
LINE
  5
F792
  8
0
 10
4768.9625915878286833
 20
236.3719537957771024
 30
0.0
 11
4768.9712061312184233
 21
236.385238204490804
 31
0.0
  0
ARC
  5
F793
  8
0
 10
4768.9273762125549183
 20
236.3772539669714092
 30
0.0
 40
0.0112919664826372
 50
244.1963803966280864
 51
277.8364925793039788
  0
ARC
  5
F794
  8
0
 10
4768.9549835161787996
 20
236.3798656608877877
 30
0.0
 40
0.0109763547580018
 50
282.0810383176117853
 51
313.8786126660145896
  0
LINE
  5
F795
  8
0
 10
4768.8915035350601102
 20
236.4058324355262073
 30
0.0
 11
4768.9098737619297026
 21
236.3956180072271138
 31
0.0
  0
LINE
  5
F796
  8
0
 10
4768.9163286400280413
 20
236.3945975530535861
 30
0.0
 11
4768.9446936185104278
 21
236.397662503491091
 31
0.0
  0
LINE
  5
F797
  8
0
 10
4768.9500043944290155
 20
236.4004838949271914
 30
0.0
 11
4768.9581500441827302
 21
236.4130452270482863
 31
0.0
  0
ARC
  5
F798
  8
0
 10
4768.9147890191561601
 20
236.4057840661214129
 30
0.0
 40
0.0112919664826372
 50
244.1963803966280864
 51
277.8364925793039788
  0
ARC
  5
F799
  8
0
 10
4768.9423963227782224
 20
236.4083957600377914
 30
0.0
 40
0.0109763547580018
 50
282.0810383176117853
 51
313.8786126660145896
  0
LINE
  5
F79A
  8
0
 10
4768.9332771970603062
 20
236.4249558159914102
 30
0.0
 11
4768.9526961204792315
 21
236.4141582791770873
 31
0.0
  0
LINE
  5
F79B
  8
0
 10
4768.9591509985775701
 20
236.413137825003588
 30
0.0
 11
4768.9875159770599566
 21
236.4162027754410929
 31
0.0
  0
LINE
  5
F79C
  8
0
 10
4768.9928267529794539
 20
236.419024166877108
 30
0.0
 11
4769.0014412963682844
 21
236.4323085755908096
 31
0.0
  0
ARC
  5
F79D
  8
0
 10
4768.9576113777056889
 20
236.4243243380713011
 30
0.0
 40
0.0112919664826372
 50
244.1963803966280864
 51
277.8364925793039788
  0
ARC
  5
F79E
  8
0
 10
4768.9852186813277513
 20
236.4269360319877933
 30
0.0
 40
0.0109763547580018
 50
282.0810383176117853
 51
313.8786126660145896
  0
LINE
  5
F79F
  8
0
 10
4768.878944413930185
 20
236.4336731694272089
 30
0.0
 11
4768.8983439375297166
 21
236.4228864195272024
 31
0.0
  0
LINE
  5
F7A0
  8
0
 10
4768.9047988156280553
 20
236.4218659653535894
 30
0.0
 11
4768.9331637941086228
 21
236.424930915791208
 31
0.0
  0
LINE
  5
F7A1
  8
0
 10
4768.9384745700281201
 20
236.4277523072271094
 30
0.0
 11
4768.9470891134169506
 21
236.4410367159408111
 31
0.0
  0
ARC
  5
F7A2
  8
0
 10
4768.9032591947570836
 20
236.4330524784213878
 30
0.0
 40
0.0112919664826372
 50
244.1963803966280864
 51
277.8364925793039788
  0
ARC
  5
F7A3
  8
0
 10
4768.9308664983782364
 20
236.4356641723377948
 30
0.0
 40
0.0109763547580018
 50
282.0810383176117853
 51
313.8786126660145896
  0
LINE
  5
F7A4
  8
0
 10
4768.9212377315816411
 20
236.4528444829169871
 30
0.0
 11
4768.9406376115293824
 21
236.4420575348771933
 31
0.0
  0
LINE
  5
F7A5
  8
0
 10
4768.9470924896277211
 20
236.4410370807036088
 30
0.0
 11
4768.9754574681101076
 21
236.4441020311411137
 31
0.0
  0
LINE
  5
F7A6
  8
0
 10
4768.9807682440296048
 20
236.4469234225772141
 30
0.0
 11
4768.9893827874193448
 21
236.460207831290802
 31
0.0
  0
ARC
  5
F7A7
  8
0
 10
4768.9455528687558399
 20
236.4522235937712935
 30
0.0
 40
0.0112919664826372
 50
244.1963803966280864
 51
277.8364925793039788
  0
ARC
  5
F7A8
  8
0
 10
4768.9731601723779022
 20
236.4548352876878141
 30
0.0
 40
0.0109763547580018
 50
282.0810383176117853
 51
313.8786126660145896
  0
LINE
  5
F7A9
  8
0
 10
4768.9091792228327904
 20
236.4807437386332936
 30
0.0
 11
4768.9285791026286461
 21
236.4699567906772018
 31
0.0
  0
LINE
  5
F7AA
  8
0
 10
4768.9350339807269847
 20
236.4689363365035888
 30
0.0
 11
4768.9633989592102807
 21
236.4720012869410937
 31
0.0
  0
LINE
  5
F7AB
  8
0
 10
4768.9687097351288685
 20
236.4748226783771941
 30
0.0
 11
4768.9773242785186085
 21
236.4881070870908104
 31
0.0
  0
ARC
  5
F7AC
  8
0
 10
4768.9334943598551035
 20
236.4801228495713872
 30
0.0
 40
0.0112919664826372
 50
244.1963803966280864
 51
277.8364925793039788
  0
ARC
  5
F7AD
  8
0
 10
4768.9611016634771659
 20
236.4827345434877941
 30
0.0
 40
0.0109763547580018
 50
282.0810383176117853
 51
313.8786126660145896
  0
LINE
  5
F7AE
  8
0
 10
4768.9635123620246304
 20
236.4720261871109983
 30
0.0
 11
4768.982931285479026
 21
236.4612286502770928
 31
0.0
  0
LINE
  5
F7AF
  8
0
 10
4768.9893861635773646
 20
236.4602081961035935
 30
0.0
 11
4769.0177511420597511
 21
236.4632731465412121
 31
0.0
  0
LINE
  5
F7B0
  8
0
 10
4769.0230619179792484
 20
236.4660945379771988
 30
0.0
 11
4769.0316764613680789
 21
236.4793789466907867
 31
0.0
  0
ARC
  5
F7B1
  8
0
 10
4768.9878465427063929
 20
236.4713947091713919
 30
0.0
 40
0.0112919664826372
 50
244.1963803966280864
 51
277.8364925793039788
  0
ARC
  5
F7B2
  8
0
 10
4769.0154538463275458
 20
236.4740064030877988
 30
0.0
 40
0.0109763547580018
 50
282.0810383176117853
 51
313.8786126660145896
  0
LINE
  5
F7B3
  8
0
 10
4768.9755708710881663
 20
236.444126931347796
 30
0.0
 11
4768.9949897944279655
 21
236.4333293945771004
 31
0.0
  0
LINE
  5
F7B4
  8
0
 10
4769.0014446725281232
 20
236.4323089404036011
 30
0.0
 11
4769.0298096510086907
 21
236.4353738908411913
 31
0.0
  0
LINE
  5
F7B5
  8
0
 10
4769.0351204269290974
 20
236.4381952822772064
 30
0.0
 11
4769.0437349703179279
 21
236.4514796909907943
 31
0.0
  0
ARC
  5
F7B6
  8
0
 10
4768.999905051656242
 20
236.4434954534713995
 30
0.0
 40
0.0112919664826372
 50
244.1963803966280864
 51
277.8364925793039788
  0
ARC
  5
F7B7
  8
0
 10
4769.0275123552783043
 20
236.4461071473876927
 30
0.0
 40
0.0109763547580018
 50
282.0810383176117853
 51
313.8786126660145896
  0
LINE
  5
F7B8
  8
0
 10
4769.0178839447289647
 20
236.4632872598772053
 30
0.0
 11
4769.0372834683294059
 21
236.4525005099771136
 31
0.0
  0
LINE
  5
F7B9
  8
0
 10
4769.0437383464277445
 20
236.4514800558035859
 30
0.0
 11
4769.0721033249101311
 21
236.4545450062412044
 31
0.0
  0
LINE
  5
F7BA
  8
0
 10
4769.0774141008296283
 20
236.4573663976771911
 30
0.0
 11
4769.0860286442193683
 21
236.4706508063908075
 31
0.0
  0
ARC
  5
F7BB
  8
0
 10
4769.0421987255558633
 20
236.4626665688714127
 30
0.0
 40
0.0112919664826372
 50
244.1963803966280864
 51
277.8364925793039788
  0
ARC
  5
F7BC
  8
0
 10
4769.0698060291779257
 20
236.4652782627877912
 30
0.0
 40
0.0109763547580018
 50
282.0810383176117853
 51
313.8786126660145896
  0
LINE
  5
F7BD
  8
0
 10
4769.0058254358791601
 20
236.4911865155771977
 30
0.0
 11
4769.0252249594796012
 21
236.480399765677106
 31
0.0
  0
LINE
  5
F7BE
  8
0
 10
4769.0316798375779399
 20
236.4793793115036067
 30
0.0
 11
4769.0600448160603264
 21
236.4824442619411968
 31
0.0
  0
LINE
  5
F7BF
  8
0
 10
4769.0653555919789142
 20
236.4852656533772119
 30
0.0
 11
4769.0769187292389688
 21
236.5030970617791866
 31
0.0
  0
ARC
  5
F7C0
  8
0
 10
4769.0301402167051492
 20
236.4905658245714051
 30
0.0
 40
0.0112919664826372
 50
244.1963803966280864
 51
277.8364925793039788
  0
ARC
  5
F7C1
  8
0
 10
4769.057747520328121
 20
236.4931775184876983
 30
0.0
 40
0.0109763547580018
 50
282.0810383176117853
 51
313.8786126660145896
  0
LINE
  5
F7C2
  8
0
 10
4769.0601582190383851
 20
236.4824691621477939
 30
0.0
 11
4769.0795771423790939
 21
236.4716716253770983
 31
0.0
  0
LINE
  5
F7C3
  8
0
 10
4769.086032020478342
 20
236.470651171203599
 30
0.0
 11
4769.114396998959819
 21
236.4737161216411891
 31
0.0
  0
LINE
  5
F7C4
  8
0
 10
4769.1197077748793163
 20
236.4765375130772043
 30
0.0
 11
4769.1272465345409728
 21
236.4881629655259871
 31
0.0
  0
ARC
  5
F7C5
  8
0
 10
4769.0844923996046418
 20
236.4818376842713974
 30
0.0
 40
0.0112919664826372
 50
244.1963803966280864
 51
277.8364925793039788
  0
ARC
  5
F7C6
  8
0
 10
4769.1120997032276136
 20
236.4844493781878043
 30
0.0
 40
0.0109763547580018
 50
282.0810383176117853
 51
313.8786126660145896
  0
LINE
  5
F7C7
  8
0
 10
4769.0722167277963308
 20
236.4545699064269968
 30
0.0
 11
4769.0916356512780112
 21
236.4437723695770899
 31
0.0
  0
LINE
  5
F7C8
  8
0
 10
4769.0980905293781689
 20
236.4427519154035906
 30
0.0
 11
4769.1264555078587364
 21
236.4458168658412092
 31
0.0
  0
LINE
  5
F7C9
  8
0
 10
4769.1317662837791431
 20
236.4486382572771106
 30
0.0
 11
4769.1403808271679736
 21
236.4619226659908122
 31
0.0
  0
ARC
  5
F7CA
  8
0
 10
4769.0965509085062877
 20
236.4539384284713037
 30
0.0
 40
0.0112919664826372
 50
244.1963803966280864
 51
277.8364925793039788
  0
ARC
  5
F7CB
  8
0
 10
4769.12415821212835
 20
236.4565501223877959
 30
0.0
 40
0.0109763547580018
 50
282.0810383176117853
 51
313.8786126660145896
  0
LINE
  5
F7CC
  8
0
 10
4769.0299424536797233
 20
236.4353880040771116
 30
0.0
 11
4769.0493419772792549
 21
236.4246012541771904
 31
0.0
  0
LINE
  5
F7CD
  8
0
 10
4769.0557968553775936
 20
236.4235808000036059
 30
0.0
 11
4769.0841618338599801
 21
236.4266457504411107
 31
0.0
  0
LINE
  5
F7CE
  8
0
 10
4769.0894726097785679
 20
236.4294671418772111
 30
0.0
 11
4769.0980871531683079
 21
236.4427515505907991
 31
0.0
  0
ARC
  5
F7CF
  8
0
 10
4769.0542572345057124
 20
236.4347673130712906
 30
0.0
 40
0.0112919664826372
 50
244.1963803966280864
 51
277.8364925793039788
  0
ARC
  5
F7D0
  8
0
 10
4769.0818645381277747
 20
236.4373790069878112
 30
0.0
 40
0.0109763547580018
 50
282.0810383176117853
 51
313.8786126660145896
  0
LINE
  5
F7D1
  8
0
 10
4768.9876293800016356
 20
236.4162276756397887
 30
0.0
 11
4769.0070483033287019
 21
236.4054301388771933
 31
0.0
  0
LINE
  5
F7D2
  8
0
 10
4769.01350318142795
 20
236.4044096847036087
 30
0.0
 11
4769.0418681599103365
 21
236.4074746351411989
 31
0.0
  0
LINE
  5
F7D3
  8
0
 10
4769.0471789358289243
 20
236.410296026577214
 30
0.0
 11
4769.0557934792186643
 21
236.4235804352908019
 31
0.0
  0
ARC
  5
F7D4
  8
0
 10
4769.0119635605560688
 20
236.4155961977714071
 30
0.0
 40
0.0112919664826372
 50
244.1963803966280864
 51
277.8364925793039788
  0
ARC
  5
F7D5
  8
0
 10
4769.0395708641781312
 20
236.4182078916877003
 30
0.0
 40
0.0109763547580018
 50
282.0810383176117853
 51
313.8786126660145896
  0
LINE
  5
F7D6
  8
0
 10
4769.0420009625795501
 20
236.4074887483770908
 30
0.0
 11
4769.0614004861790818
 21
236.3967019984771127
 31
0.0
  0
LINE
  5
F7D7
  8
0
 10
4769.0678553642783299
 20
236.3956815443036135
 30
0.0
 11
4769.0962203427588975
 21
236.3987464947410899
 31
0.0
  0
LINE
  5
F7D8
  8
0
 10
4769.1015311186793042
 20
236.401567886177105
 30
0.0
 11
4769.1101456620672252
 21
236.4148522948908067
 31
0.0
  0
ARC
  5
F7D9
  8
0
 10
4769.0663157434064487
 20
236.4068680573712982
 30
0.0
 40
0.0112919664826372
 50
244.1963803966280864
 51
277.8364925793039788
  0
ARC
  5
F7DA
  8
0
 10
4769.0939230470276016
 20
236.4094797512877904
 30
0.0
 40
0.0109763547580018
 50
282.0810383176117853
 51
313.8786126660145896
  0
LINE
  5
F7DB
  8
0
 10
4768.9996878888096035
 20
236.3883284199189916
 30
0.0
 11
4769.0191068122785509
 21
236.3775308830772133
 31
0.0
  0
LINE
  5
F7DC
  8
0
 10
4769.0255616903787086
 20
236.3765104289036003
 30
0.0
 11
4769.0539266688601856
 21
236.3795753793411905
 31
0.0
  0
LINE
  5
F7DD
  8
0
 10
4769.0592374447787734
 20
236.3823967707772056
 30
0.0
 11
4769.0678519881676038
 21
236.3956811794907935
 31
0.0
  0
ARC
  5
F7DE
  8
0
 10
4769.0240220695059179
 20
236.3876969419713134
 30
0.0
 40
0.0112919664826372
 50
244.1963803966280864
 51
277.8364925793039788
  0
ARC
  5
F7DF
  8
0
 10
4769.0516293731270707
 20
236.3903086358878056
 30
0.0
 40
0.0109763547580018
 50
282.0810383176117853
 51
313.8786126660145896
  0
LINE
  5
F7E0
  8
0
 10
4769.054059471479377
 20
236.3795894926770984
 30
0.0
 11
4769.0734589950789086
 21
236.3688027427770919
 31
0.0
  0
LINE
  5
F7E1
  8
0
 10
4769.0799138731781568
 20
236.3677822886035926
 30
0.0
 11
4769.1082788516596338
 21
236.3708472390412112
 31
0.0
  0
LINE
  5
F7E2
  8
0
 10
4769.1135896275782216
 20
236.3736686304771126
 30
0.0
 11
4769.1222041709679615
 21
236.3869530391907858
 31
0.0
  0
ARC
  5
F7E3
  8
0
 10
4769.0783742523062756
 20
236.3789688016713058
 30
0.0
 40
0.0112919664826372
 50
244.1963803966280864
 51
277.8364925793039788
  0
ARC
  5
F7E4
  8
0
 10
4769.1059815559283379
 20
236.3815804955877979
 30
0.0
 40
0.0109763547580018
 50
282.0810383176117853
 51
313.8786126660145896
  0
LINE
  5
F7E5
  8
0
 10
4769.0117463976530416
 20
236.3604291641674138
 30
0.0
 11
4769.0311653210292206
 21
236.3496316273771924
 31
0.0
  0
LINE
  5
F7E6
  8
0
 10
4769.0376201991275593
 20
236.3486111732036079
 30
0.0
 11
4769.0659851776099458
 21
236.3516761236411128
 31
0.0
  0
LINE
  5
F7E7
  8
0
 10
4769.0712959535294431
 20
236.3544975150772132
 30
0.0
 11
4769.0799104969182736
 21
236.3677819237908011
 31
0.0
  0
ARC
  5
F7E8
  8
0
 10
4769.0360805782547686
 20
236.3597976862712926
 30
0.0
 40
0.0112919664826372
 50
244.1963803966280864
 51
277.8364925793039788
  0
ARC
  5
F7E9
  8
0
 10
4769.0636878818777404
 20
236.3624093801876995
 30
0.0
 40
0.0109763547580018
 50
282.0810383176117853
 51
313.8786126660145896
  0
LINE
  5
F7EA
  8
0
 10
4769.0661179803291816
 20
236.3516902369271122
 30
0.0
 11
4769.0855175039287133
 21
236.340903487027191
 31
0.0
  0
LINE
  5
F7EB
  8
0
 10
4769.0919723820270519
 20
236.3398830328536064
 30
0.0
 11
4769.1203373605112574
 21
236.3429479832911966
 31
0.0
  0
LINE
  5
F7EC
  8
0
 10
4769.1256481364289357
 20
236.345769374727098
 30
0.0
 11
4769.1342626798186757
 21
236.3590537834407996
 31
0.0
  0
ARC
  5
F7ED
  8
0
 10
4769.0904327611560802
 20
236.3510695459212911
 30
0.0
 40
0.0112919664826372
 50
244.1963803966280864
 51
277.8364925793039788
  0
ARC
  5
F7EE
  8
0
 10
4769.1180400647772331
 20
236.3536812398378117
 30
0.0
 40
0.0109763547580018
 50
282.0810383176117853
 51
313.8786126660145896
  0
LINE
  5
F7EF
  8
0
 10
4769.0238049066683743
 20
236.332529908431809
 30
0.0
 11
4769.0432238299790697
 21
236.3217323716770863
 31
0.0
  0
LINE
  5
F7F0
  8
0
 10
4769.0496787080783179
 20
236.3207119175035871
 30
0.0
 11
4769.0780436865597949
 21
236.323776867941092
 31
0.0
  0
LINE
  5
F7F1
  8
0
 10
4769.0833544624792921
 20
236.3265982593771071
 30
0.0
 11
4769.0919690058681226
 21
236.3398826680908087
 31
0.0
  0
ARC
  5
F7F2
  8
0
 10
4769.0481390872064367
 20
236.3318984305713002
 30
0.0
 40
0.0112919664826372
 50
244.1963803966280864
 51
277.8364925793039788
  0
ARC
  5
F7F3
  8
0
 10
4769.0757463908275895
 20
236.3345101244877924
 30
0.0
 40
0.0109763547580018
 50
282.0810383176117853
 51
313.8786126660145896
  0
LINE
  5
F7F4
  8
0
 10
4768.9815112327032693
 20
236.3133587930398107
 30
0.0
 11
4769.0009301560294261
 21
236.3025612562771016
 31
0.0
  0
LINE
  5
F7F5
  8
0
 10
4769.0073850341277648
 20
236.3015408021036023
 30
0.0
 11
4769.0357500126101513
 21
236.3046057525411072
 31
0.0
  0
LINE
  5
F7F6
  8
0
 10
4769.0410607885296486
 20
236.3074271439772076
 30
0.0
 11
4769.0496753319193886
 21
236.3207115526907955
 31
0.0
  0
ARC
  5
F7F7
  8
0
 10
4769.0058454132558836
 20
236.3127273151714007
 30
0.0
 40
0.0112919664826372
 50
244.1963803966280864
 51
277.8364925793039788
  0
ARC
  5
F7F8
  8
0
 10
4769.0334527168779459
 20
236.315339009087694
 30
0.0
 40
0.0109763547580018
 50
282.0810383176117853
 51
313.8786126660145896
  0
LINE
  5
F7F9
  8
0
 10
4768.9935697414739479
 20
236.2854595373109987
 30
0.0
 11
4769.012988664929253
 21
236.2746620004770932
 31
0.0
  0
LINE
  5
F7FA
  8
0
 10
4769.0194435430294106
 20
236.2736415463035939
 30
0.0
 11
4769.0478085215090687
 21
236.2767064967412125
 31
0.0
  0
LINE
  5
F7FB
  8
0
 10
4769.0531192974303849
 20
236.2795278881771992
 30
0.0
 11
4769.0617338408183059
 21
236.2928122968907871
 31
0.0
  0
ARC
  5
F7FC
  8
0
 10
4769.017903922154801
 20
236.2848280593713923
 30
0.0
 40
0.0112919664826372
 50
244.1963803966280864
 51
277.8364925793039788
  0
ARC
  5
F7FD
  8
0
 10
4769.0455112257786823
 20
236.287439753287714
 30
0.0
 40
0.0109763547580018
 50
282.0810383176117853
 51
313.8786126660145896
  0
LINE
  5
F7FE
  8
0
 10
4769.0056282503746843
 20
236.2575602816110063
 30
0.0
 11
4769.0250471738290798
 21
236.2467627447771008
 31
0.0
  0
LINE
  5
F7FF
  8
0
 10
4769.031502051928328
 20
236.2457422906036015
 30
0.0
 11
4769.0598670304088955
 21
236.2488072410411917
 31
0.0
  0
LINE
  5
F800
  8
0
 10
4769.0651778063293023
 20
236.2516286324772068
 30
0.0
 11
4769.0737923497172233
 21
236.2649130411907947
 31
0.0
  0
ARC
  5
F801
  8
0
 10
4769.0299624310564468
 20
236.2569288036713999
 30
0.0
 40
0.0112919664826372
 50
244.1963803966280864
 51
277.8364925793039788
  0
ARC
  5
F802
  8
0
 10
4769.0575697346794186
 20
236.2595404975876932
 30
0.0
 40
0.0109763547580018
 50
282.0810383176117853
 51
313.8786126660145896
  0
LINE
  5
F803
  8
0
 10
4769.0479219244516571
 20
236.2767313969397946
 30
0.0
 11
4769.0673408477787234
 21
236.265933860177114
 31
0.0
  0
LINE
  5
F804
  8
0
 10
4769.0737957258779716
 20
236.2649134060035863
 30
0.0
 11
4769.1021607043603581
 21
236.2679783564410911
 31
0.0
  0
LINE
  5
F805
  8
0
 10
4769.1074714802780363
 20
236.2707997478771063
 30
0.0
 11
4769.1160860236677763
 21
236.2840841565908079
 31
0.0
  0
ARC
  5
F806
  8
0
 10
4769.0722561050060904
 20
236.2760999190712994
 30
0.0
 40
0.0112919664826372
 50
244.1963803966280864
 51
277.8364925793039788
  0
ARC
  5
F807
  8
0
 10
4769.0998634086281527
 20
236.2787116129877916
 30
0.0
 40
0.0109763547580018
 50
282.0810383176117853
 51
313.8786126660145896
  0
LINE
  5
F808
  8
0
 10
4769.0902349981788575
 20
236.2958917254771904
 30
0.0
 11
4769.1096345217792987
 21
236.2851049755770987
 31
0.0
  0
LINE
  5
F809
  8
0
 10
4769.1160893998776373
 20
236.2840845214035994
 30
0.0
 11
4769.1444543783600238
 21
236.2871494718411896
 31
0.0
  0
LINE
  5
F80A
  8
0
 10
4769.1497651542804306
 20
236.2899708632772047
 30
0.0
 11
4769.1583796976683516
 21
236.3032552719907926
 31
0.0
  0
ARC
  5
F80B
  8
0
 10
4769.1145497790057561
 20
236.2952710344713978
 30
0.0
 40
0.0112919664826372
 50
244.1963803966280864
 51
277.8364925793039788
  0
ARC
  5
F80C
  8
0
 10
4769.1421570826287279
 20
236.2978827283878047
 30
0.0
 40
0.0109763547580018
 50
282.0810383176117853
 51
313.8786126660145896
  0
LINE
  5
F80D
  8
0
 10
4769.0358634154235915
 20
236.3046306527110119
 30
0.0
 11
4769.0552823388788966
 21
236.2938331158771064
 31
0.0
  0
LINE
  5
F80E
  8
0
 10
4769.0617372169781447
 20
236.2928126617036071
 30
0.0
 11
4769.0901021954587122
 21
236.2958776121411972
 31
0.0
  0
LINE
  5
F80F
  8
0
 10
4769.095412971379119
 20
236.2986990035770987
 30
0.0
 11
4769.10402751476704
 21
236.3119834122908003
 31
0.0
  0
ARC
  5
F810
  8
0
 10
4769.060197596107173
 20
236.3039991747712918
 30
0.0
 40
0.0112919664826372
 50
244.1963803966280864
 51
277.8364925793039788
  0
ARC
  5
F811
  8
0
 10
4769.0878048997283258
 20
236.3066108686878124
 30
0.0
 40
0.0109763547580018
 50
282.0810383176117853
 51
313.8786126660145896
  0
LINE
  5
F812
  8
0
 10
4769.0781764892790306
 20
236.3237909811770976
 30
0.0
 11
4769.0975760128785623
 21
236.3130042312770911
 31
0.0
  0
LINE
  5
F813
  8
0
 10
4769.1040308909778105
 20
236.3119837771035918
 30
0.0
 11
4769.132395869460197
 21
236.3150487275412104
 31
0.0
  0
LINE
  5
F814
  8
0
 10
4769.1377066453796942
 20
236.3178701189771971
 30
0.0
 11
4769.1463211887694342
 21
236.3311545276908134
 31
0.0
  0
ARC
  5
F815
  8
0
 10
4769.1024912701059293
 20
236.3231702901713902
 30
0.0
 40
0.0112919664826372
 50
244.1963803966280864
 51
277.8364925793039788
  0
ARC
  5
F816
  8
0
 10
4769.1300985737279916
 20
236.3257819840877971
 30
0.0
 40
0.0109763547580018
 50
282.0810383176117853
 51
313.8786126660145896
  0
LINE
  5
F817
  8
0
 10
4769.1204507634238325
 20
236.3429728834834123
 30
0.0
 11
4769.1398696868291154
 21
236.3321753466771895
 31
0.0
  0
LINE
  5
F818
  8
0
 10
4769.146324564927454
 20
236.331154892503605
 30
0.0
 11
4769.1746895434098406
 21
236.3342198429411098
 31
0.0
  0
LINE
  5
F819
  8
0
 10
4769.1800003193293378
 20
236.3370412343772102
 30
0.0
 11
4769.1886148627181683
 21
236.3503256430907982
 31
0.0
  0
ARC
  5
F81A
  8
0
 10
4769.1447849440555729
 20
236.3423414055712897
 30
0.0
 40
0.0112919664826372
 50
244.1963803966280864
 51
277.8364925793039788
  0
ARC
  5
F81B
  8
0
 10
4769.1723922476776352
 20
236.3449530994876966
 30
0.0
 40
0.0109763547580018
 50
282.0810383176117853
 51
313.8786126660145896
  0
LINE
  5
F81C
  8
0
 10
4769.1083922545103633
 20
236.3708721392189887
 30
0.0
 11
4769.1278111779802202
 21
236.3600746023772103
 31
0.0
  0
LINE
  5
F81D
  8
0
 10
4769.1342660560776494
 20
236.3590541482035974
 30
0.0
 11
4769.1626310345600359
 21
236.3621190986411875
 31
0.0
  0
LINE
  5
F81E
  8
0
 10
4769.1679418104786237
 20
236.3649404900772026
 30
0.0
 11
4769.1765563538683637
 21
236.3782248987907906
 31
0.0
  0
ARC
  5
F81F
  8
0
 10
4769.1327264352057682
 20
236.3702406612713105
 30
0.0
 40
0.0112919664826372
 50
244.1963803966280864
 51
277.8364925793039788
  0
ARC
  5
F820
  8
0
 10
4769.1603337388278305
 20
236.3728523551878027
 30
0.0
 40
0.0109763547580018
 50
282.0810383176117853
 51
313.8786126660145896
  0
LINE
  5
F821
  8
0
 10
4769.1627444374671541
 20
236.3621439988318116
 30
0.0
 11
4769.1821633607787589
 21
236.351346462077089
 31
0.0
  0
LINE
  5
F822
  8
0
 10
4769.1886182388770976
 20
236.3503260079035897
 30
0.0
 11
4769.2169832173603936
 21
236.3533909583412083
 31
0.0
  0
LINE
  5
F823
  8
0
 10
4769.2222939932789814
 20
236.3562123497771097
 30
0.0
 11
4769.2309085366678119
 21
236.3694967584908113
 31
0.0
  0
ARC
  5
F824
  8
0
 10
4769.1870786180052164
 20
236.3615125209713028
 30
0.0
 40
0.0112919664826372
 50
244.1963803966280864
 51
277.8364925793039788
  0
ARC
  5
F825
  8
0
 10
4769.2146859216272787
 20
236.364124214887795
 30
0.0
 40
0.0109763547580018
 50
282.0810383176117853
 51
313.8786126660145896
  0
LINE
  5
F826
  8
0
 10
4769.1325092724018759
 20
236.3150736277397925
 30
0.0
 11
4769.1519281957289422
 21
236.3042760909771118
 31
0.0
  0
LINE
  5
F827
  8
0
 10
4769.1583830738281904
 20
236.3032556368036126
 30
0.0
 11
4769.1867480523096674
 21
236.306320587241089
 31
0.0
  0
LINE
  5
F828
  8
0
 10
4769.1920588282291646
 20
236.3091419786771041
 30
0.0
 11
4769.2006733716179951
 21
236.3224263873908058
 31
0.0
  0
ARC
  5
F829
  8
0
 10
4769.1568434529563092
 20
236.3144421498712973
 30
0.0
 40
0.0112919664826372
 50
244.1963803966280864
 51
277.8364925793039788
  0
ARC
  5
F82A
  8
0
 10
4769.1844507565783715
 20
236.3170538437877894
 30
0.0
 40
0.0109763547580018
 50
282.0810383176117853
 51
313.8786126660145896
  0
LINE
  5
F82B
  8
0
 10
4769.1506859284891107
 20
236.3900432546253967
 30
0.0
 11
4769.1701048518789321
 21
236.3792457178271036
 31
0.0
  0
LINE
  5
F82C
  8
0
 10
4769.1765597299781803
 20
236.3782252636536043
 30
0.0
 11
4769.2049247084596573
 21
236.3812902140911092
 31
0.0
  0
LINE
  5
F82D
  8
0
 10
4769.210235484378245
 20
236.3841116055270959
 30
0.0
 11
4769.218850027767985
 21
236.3973960142407975
 31
0.0
  0
ARC
  5
F82E
  8
0
 10
4769.1750201091062991
 20
236.389411776721289
 30
0.0
 40
0.0112919664826372
 50
244.1963803966280864
 51
277.8364925793039788
  0
ARC
  5
F82F
  8
0
 10
4769.2026274127283614
 20
236.3920234706378096
 30
0.0
 40
0.0109763547580018
 50
282.0810383176117853
 51
313.8786126660145896
  0
LINE
  5
F830
  8
0
 10
4769.0963337457033049
 20
236.3987713949398142
 30
0.0
 11
4769.1157526690285522
 21
236.3879738581771903
 31
0.0
  0
LINE
  5
F831
  8
0
 10
4769.1222075471287098
 20
236.3869534040036058
 30
0.0
 11
4769.1505725256092774
 21
236.3900183544411959
 31
0.0
  0
LINE
  5
F832
  8
0
 10
4769.1558833015296841
 20
236.392839745877211
 30
0.0
 11
4769.1644978449176051
 21
236.406124154590799
 31
0.0
  0
ARC
  5
F833
  8
0
 10
4769.1206679262550097
 20
236.3981399170714042
 30
0.0
 40
0.0112919664826372
 50
244.1963803966280864
 51
277.8364925793039788
  0
ARC
  5
F834
  8
0
 10
4769.1482752298779815
 20
236.4007516109876974
 30
0.0
 40
0.0109763547580018
 50
282.0810383176117853
 51
313.8786126660145896
  0
LINE
  5
F835
  8
0
 10
4769.1386274196238446
 20
236.417942510333404
 30
0.0
 11
4769.158046343028218
 21
236.4071449735272097
 31
0.0
  0
LINE
  5
F836
  8
0
 10
4769.1645012211283756
 20
236.4061245193535967
 30
0.0
 11
4769.1928661996098526
 21
236.4091894697911016
 31
0.0
  0
LINE
  5
F837
  8
0
 10
4769.1981769755293499
 20
236.4120108612270883
 30
0.0
 11
4769.2067915189181804
 21
236.4252952699407899
 31
0.0
  0
ARC
  5
F838
  8
0
 10
4769.1629616002546754
 20
236.4173110324213951
 30
0.0
 40
0.0112919664826372
 50
244.1963803966280864
 51
277.8364925793039788
  0
ARC
  5
F839
  8
0
 10
4769.1905689038776472
 20
236.419922726337802
 30
0.0
 40
0.0109763547580018
 50
282.0810383176117853
 51
313.8786126660145896
  0
LINE
  5
F83A
  8
0
 10
4769.084275236801659
 20
236.4266706506398066
 30
0.0
 11
4769.1036941601287253
 21
236.4158731138770975
 31
0.0
  0
LINE
  5
F83B
  8
0
 10
4769.1101490382279735
 20
236.4148526597035982
 30
0.0
 11
4769.13851401671036
 21
236.4179176101411883
 31
0.0
  0
LINE
  5
F83C
  8
0
 10
4769.1438247926289478
 20
236.4207390015772035
 30
0.0
 11
4769.1524393360186878
 21
236.4340234102907914
 31
0.0
  0
ARC
  5
F83D
  8
0
 10
4769.1086094173560923
 20
236.4260391727713966
 30
0.0
 40
0.0112919664826372
 50
244.1963803966280864
 51
277.8364925793039788
  0
ARC
  5
F83E
  8
0
 10
4769.1362167209781546
 20
236.4286508666876898
 30
0.0
 40
0.0109763547580018
 50
282.0810383176117853
 51
313.8786126660145896
  0
LINE
  5
F83F
  8
0
 10
4769.1265689108022343
 20
236.4458417660397913
 30
0.0
 11
4769.1459878341293006
 21
236.4350442292771106
 31
0.0
  0
LINE
  5
F840
  8
0
 10
4769.1524427122276393
 20
236.4340237751036113
 30
0.0
 11
4769.1808076907100258
 21
236.4370887255412015
 31
0.0
  0
LINE
  5
F841
  8
0
 10
4769.1861184666286135
 20
236.4399101169771882
 30
0.0
 11
4769.1941148250707556
 21
236.4522412283282051
 31
0.0
  0
ARC
  5
F842
  8
0
 10
4769.1509030913557581
 20
236.445210288171296
 30
0.0
 40
0.0112919664826372
 50
244.1963803966280864
 51
277.8364925793039788
  0
ARC
  5
F843
  8
0
 10
4769.1785103949778204
 20
236.4478219820877882
 30
0.0
 40
0.0109763547580018
 50
282.0810383176117853
 51
313.8786126660145896
  0
LINE
  5
F844
  8
0
 10
4769.1145104017750782
 20
236.4737410218110085
 30
0.0
 11
4769.1339293252303833
 21
236.462943484977103
 31
0.0
  0
LINE
  5
F845
  8
0
 10
4769.1403842033269029
 20
236.4619230308036038
 30
0.0
 11
4769.1687491818101989
 21
236.4649879812411939
 31
0.0
  0
ARC
  5
F846
  8
0
 10
4769.1388445824559312
 20
236.4731095438712885
 30
0.0
 40
0.0112919664826372
 50
244.1963803966280864
 51
277.8364925793039788
  0
ARC
  5
F847
  8
0
 10
4769.1664518860779935
 20
236.4757212377876954
 30
0.0
 40
0.0109763547580018
 50
282.0810383176117853
 51
303.9679157734760793
  0
LINE
  5
F848
  8
0
 10
4769.1941129524329881
 20
236.4093239498965033
 30
0.0
 11
4769.2135124760334293
 21
236.3985371999964968
 31
0.0
  0
LINE
  5
F849
  8
0
 10
4769.2199673541317679
 20
236.3975167458229976
 30
0.0
 11
4769.2441486479128798
 21
236.4001296322385031
 31
0.0
  0
ARC
  5
F84A
  8
0
 10
4769.2184277332598867
 20
236.408703258890796
 30
0.0
 40
0.0112919664826372
 50
244.1963803966280864
 51
277.8364925793039788
  0
LINE
  5
F84B
  8
0
 10
4769.205663384136642
 20
236.381369794377207
 30
0.0
 11
4769.2250629077379926
 21
236.3705830444772005
 31
0.0
  0
LINE
  5
F84C
  8
0
 10
4769.2315177858354218
 20
236.3695625903037012
 30
0.0
 11
4769.2518706193186517
 21
236.3717617961281121
 31
0.0
  0
ARC
  5
F84D
  8
0
 10
4769.2299781649644501
 20
236.3807491033713859
 30
0.0
 40
0.0112919664826372
 50
244.1963803966280864
 51
277.8364925793039788
  0
LINE
  5
F84E
  8
0
 10
4769.1755349102177206
 20
236.3344362541461976
 30
0.0
 11
4769.1951231180482864
 21
236.323544589834313
 31
0.0
  0
LINE
  5
F84F
  8
0
 10
4769.2015779961466251
 20
236.3225241356608137
 30
0.0
 11
4769.2376449255243642
 21
236.3264213129860991
 31
0.0
  0
ARC
  5
F850
  8
0
 10
4769.2000383752747439
 20
236.3337106487284984
 30
0.0
 40
0.0112919664826372
 50
244.1963803966280864
 51
277.8364925793039788
  0
LINE
  5
F851
  8
0
 10
4768.6489516365481904
 20
236.3066140033037925
 30
0.0
 11
4768.6795345530290433
 21
236.3099183367772014
 31
0.0
  0
LINE
  5
F852
  8
0
 10
4768.6928180999693723
 20
236.3259550273724017
 30
0.0
 11
4768.6853580333190621
 21
236.3130909198723941
 31
0.0
  0
ARC
  5
F853
  8
0
 10
4768.6781852429958235
 20
236.3193260599421137
 30
0.0
 40
0.0095039935140967
 50
278.1620287125145978
 51
319.0003250031937228
  0
LINE
  5
F854
  8
0
 10
4768.704317090969198
 20
236.2980641171724017
 30
0.0
 11
4768.6919123143843535
 21
236.2763339010155903
 31
0.0
  0
LINE
  5
F855
  8
0
 10
4768.7052011079258591
 20
236.2688886088515972
 30
0.0
 11
4768.746192790549685
 21
236.2733179256364906
 31
0.0
  0
LINE
  5
F856
  8
0
 10
4768.7508527027694072
 20
236.2755538066724057
 30
0.0
 11
4768.7597411375782031
 21
236.2893829923035867
 31
0.0
  0
ARC
  5
F857
  8
0
 10
4768.7427651083544333
 20
236.2864356499815983
 30
0.0
 40
0.0135581598027118
 50
284.6440474133042926
 51
306.6204385331996036
  0
LINE
  5
F858
  8
0
 10
4768.7557687794387675
 20
236.2679110582068063
 30
0.0
 11
4768.7559402843862699
 21
236.2466836774204069
 31
0.0
  0
LINE
  5
F859
  8
0
 10
4768.8067948972247905
 20
236.2609500014025912
 30
0.0
 11
4768.8067948856796647
 21
236.2319782947650992
 31
0.0
  0
LINE
  5
F85A
  8
0
 10
4768.860879076434685
 20
236.2523708795189066
 30
0.0
 11
4768.8608803363104016
 21
236.2231751355089955
 31
0.0
  0
LINE
  5
F85B
  8
0
 10
4768.9181104492163286
 20
236.2420418184034077
 30
0.0
 11
4768.9181118515525668
 21
236.2189957713669912
 31
0.0
  0
LINE
  5
F85C
  8
0
 10
4768.9635422636383737
 20
236.2384380470008978
 30
0.0
 11
4768.9945159884609893
 21
236.2213551518908901
 31
0.0
  0
LINE
  5
F85D
  8
0
 10
4769.0319204670031468
 20
236.2457875020415088
 30
0.0
 11
4769.0177278574010415
 21
236.2239242747527044
 31
0.0
  0
LINE
  5
F85E
  8
0
 10
4769.0602968248722391
 20
236.2489083132944927
 30
0.0
 11
4769.0834691619902515
 21
236.2361480898003947
 31
0.0
  0
LINE
  5
F85F
  8
0
 10
4769.1021607043603581
 20
236.2679783564410911
 30
0.0
 11
4769.1314617197167536
 21
236.2521042352902043
 31
0.0
  0
LINE
  5
F860
  8
0
 10
4769.1449671081691122
 20
236.2872048743724065
 30
0.0
 11
4769.1730033668300166
 21
236.2716462657677994
 31
0.0
  0
LINE
  5
F861
  8
0
 10
4769.1870691423373501
 20
236.306394368200813
 30
0.0
 11
4769.209548167518733
 21
236.2939965428396931
 31
0.0
  0
LINE
  5
F862
  8
0
 10
4769.217304307352606
 20
236.3534647392922921
 30
0.0
 11
4769.2438960983699872
 21
236.3387986059292132
 31
0.0
  0
LINE
  5
F863
  8
0
 10
4769.1808076907100258
 20
236.4370887255412015
 30
0.0
 11
4769.201089341118859
 21
236.426191243672406
 31
0.0
  0
LINE
  5
F864
  8
0
 10
4769.2067915189181804
 20
236.4252952699407899
 30
0.0
 11
4769.2232961243844329
 21
236.4270786591960132
 31
0.0
  0
ARC
  5
F865
  8
0
 10
4769.2051114890919052
 20
236.4331961390261938
 30
0.0
 40
0.0080775140504324
 50
240.135944666851799
 51
282.0044974641900808
  0
ARC
  5
F867
  8
0
 10
4768.677045886032829
 20
236.4145559118042002
 30
0.0
 40
0.0946364392731581
 50
174.0821473460524089
 51
215.2774668871082042
  0
ARC
  5
F868
  8
0
 10
4768.4905565595472581
 20
237.1118944381539961
 30
0.0
 40
0.2740874089399812
 50
124.8603785262796038
 51
173.8697840199860138
  0
ARC
  5
F869
  8
0
 10
4768.8197327656262132
 20
236.6393353413683087
 30
0.0
 40
0.8499945842760697
 50
97.184373322406131
 51
124.8603785262796038
  0
ARC
  5
F86A
  8
0
 10
4768.9356513485681717
 20
236.1012366162580918
 30
0.0
 40
1.399179439405682
 50
89.9635944031911663
 51
99.1385555015350377
  0
ARC
  5
F86B
  8
0
 10
4769.052248726322432
 20
236.6342136814290882
 30
0.0
 40
0.8552136300194725
 50
56.1328368861846769
 51
82.7854707315778171
  0
ARC
  5
F86C
  8
0
 10
4769.3433798803189347
 20
237.086921939917687
 30
0.0
 40
0.3172524024611192
 50
11.1175155387155105
 51
54.2280642587669206
  0
ARC
  5
F86D
  8
0
 10
4768.440626665858872
 20
237.1503600049977933
 30
0.0
 40
0.2227384341649494
 50
134.5789998867583961
 51
177.9096925092019887
  0
ARC
  5
F86E
  8
0
 10
4768.6889754188532606
 20
236.8983345169069992
 30
0.0
 40
0.5765660048278224
 50
118.8624331769702991
 51
134.5789998867583961
  0
ARC
  5
F86F
  8
0
 10
4768.8511630889406661
 20
236.5414681307196076
 30
0.0
 40
0.9678641551776371
 50
99.7577693517581565
 51
117.0730885383788973
  0
ARC
  5
F870
  8
0
 10
4768.9361343284972463
 20
236.1194855194054867
 30
0.0
 40
1.398196601091289
 50
78.4880267997139072
 51
100.2586551654477063
  0
ARC
  5
F871
  8
0
 10
4769.0631204614646776
 20
236.6680436470921052
 30
0.0
 40
0.8354646870238291
 50
55.8610578449624811
 51
79.5136422410938906
  0
ARC
  5
F872
  8
0
 10
4769.3565068124926256
 20
237.1126514741787048
 30
0.0
 40
0.3028969491928493
 50
9.7258499551011308
 51
54.5964428340973029
  0
LINE
  5
F873
  8
0
 10
4766.3898912530694361
 20
226.308670982372405
 30
0.0
 11
4766.7546053007190494
 21
226.3275260441724015
 31
0.0
  0
LINE
  5
F874
  8
0
 10
4766.3586860529703699
 20
226.2596744654223926
 30
0.0
 11
4767.1750572391692913
 21
226.2861549636724021
 31
0.0
  0
LINE
  5
F875
  8
0
 10
4766.3586860529703699
 20
226.1882028224723911
 30
0.0
 11
4767.1836860529692785
 21
226.2239520093723968
 31
0.0
  0
LINE
  5
F876
  8
0
 10
4766.3586860529703699
 20
226.1192928389723988
 30
0.0
 11
4767.1836860529692785
 21
226.152524036822399
 31
0.0
  0
LINE
  5
F877
  8
0
 10
4766.401715164770394
 20
226.074603438172403
 30
0.0
 11
4767.1632483171688364
 21
226.0970882116723999
 31
0.0
  0
ARC
  5
F878
  8
0
 10
4768.9396231781356619
 20
237.8009053419808936
 30
0.0
 40
0.7015121670234431
 50
81.3076181278701711
 51
90.2517870520779155
  0
ARC
  5
F879
  8
0
 10
4768.9365611510393137
 20
237.7811999880815108
 30
0.0
 40
0.7214539489588904
 50
47.5633051441435413
 51
81.3037426878731537
  0
LINE
  5
F87A
  8
0
 10
4769.6550443206688215
 20
237.8728217272688141
 30
0.0
 11
4769.6550443206688215
 21
236.4524413495724104
 31
0.0
  0
LINE
  5
F87B
  8
0
 10
4768.21803644666943
 20
237.8468961204276866
 30
0.0
 11
4768.21803644666943
 21
236.4524413495724104
 31
0.0
  0
LINE
  5
F87C
  8
0
 10
4769.72404038366858
 20
239.627876343072387
 30
0.0
 11
4769.72404038366858
 21
239.260759885572412
 31
0.0
  0
LINE
  5
F87D
  8
0
 10
4769.72404038366858
 20
238.8037301711723899
 30
0.0
 11
4769.7239419968163929
 21
230.600268707982508
 31
0.0
  0
LINE
  5
F87E
  8
0
 10
4769.7239419584702773
 20
228.3955468929723907
 30
0.0
 11
4769.72404038366858
 21
203.2756227056723901
 31
0.0
  0
LINE
  5
F87F
  8
0
 10
4768.1490403836687619
 20
239.627876343072387
 30
0.0
 11
4768.1490403836687619
 21
239.260759885572412
 31
0.0
  0
LINE
  5
F880
  8
0
 10
4768.1490403836687619
 20
238.8037301711729015
 30
0.0
 11
4768.1491388088679741
 21
230.6003916263724136
 31
0.0
  0
LINE
  5
F881
  8
0
 10
4768.1491388088679741
 20
228.3954265689723968
 30
0.0
 11
4768.1490403836687619
 21
203.2756227056723901
 31
0.0
  0
LINE
  5
F882
  8
0
 10
4773.4945364466693718
 20
232.6991208894249041
 30
0.0
 11
4773.4945364466693718
 21
230.5294051607723986
 31
0.0
  0
LINE
  5
F883
  8
0
 10
4773.4945364466693718
 20
230.5094051607723884
 30
0.0
 11
4773.4945364466693718
 21
230.1180090977723864
 31
0.0
  0
LINE
  5
F884
  8
0
 10
4774.4415364466685787
 20
232.6991208894723968
 30
0.0
 11
4774.4415364466685787
 21
230.5294051607723986
 31
0.0
  0
LINE
  5
F885
  8
0
 10
4774.4415364466685787
 20
230.5094051607723884
 30
0.0
 11
4774.4415364466685787
 21
229.1710090977724121
 31
0.0
  0
LINE
  5
F886
  8
0
 10
4773.4575253081693518
 20
230.0206254650724134
 30
0.0
 11
4774.4045253081685587
 21
229.0736254650724106
 31
0.0
  0
ARC
  5
F887
  8
0
 10
4768.9374294187700798
 20
236.1012366162580918
 30
0.0
 40
1.399179439405682
 50
80.8614444984649765
 51
90.0364055968088337
  0
ENDSEC
  0
EOF
