  0
SECTION
  2
HEADER
  9
$ACADVER
  1
AC1009
  9
$INSBASE
 10
3781.3272072838408349
 20
218.573361128569303
 30
0.0
  9
$EXTMIN
 10
3779.8959576518759604
 20
218.5562140573767067
 30
-0.0000000000112498
  9
$EXTMAX
 10
3786.8296337880619831
 20
234.7845714945839859
 30
0.0000000000002956
  9
$LIMMIN
 10
0.0
 20
0.0
  9
$LIMMAX
 10
11.6929133858000007
 20
8.2677165353999982
  9
$ORTHOMODE
 70
     0
  9
$REGENMODE
 70
     1
  9
$FILLMODE
 70
     1
  9
$QTEXTMODE
 70
     0
  9
$MIRRTEXT
 70
     0
  9
$DRAGMODE
 70
     2
  9
$LTSCALE
 40
0.6431102362
  9
$OSMODE
 70
  4095
  9
$ATTMODE
 70
     1
  9
$TEXTSIZE
 40
0.2
  9
$TRACEWID
 40
0.05
  9
$TEXTSTYLE
  7
STANDARD
  9
$CLAYER
  8
0
  9
$CELTYPE
  6
BYLAYER
  9
$CECOLOR
 62
   256
  9
$DIMSCALE
 40
1.0
  9
$DIMASZ
 40
0.1875
  9
$DIMEXO
 40
0.0625
  9
$DIMDLI
 40
0.4443307087
  9
$DIMRND
 40
0.0
  9
$DIMDLE
 40
0.0
  9
$DIMEXE
 40
0.125
  9
$DIMTP
 40
0.01
  9
$DIMTM
 40
0.01
  9
$DIMTXT
 40
2.0
  9
$DIMCEN
 40
0.1052362205
  9
$DIMTSZ
 40
0.0
  9
$DIMTOL
 70
     1
  9
$DIMLIM
 70
     0
  9
$DIMTIH
 70
     1
  9
$DIMTOH
 70
     1
  9
$DIMSE1
 70
     0
  9
$DIMSE2
 70
     0
  9
$DIMTAD
 70
     0
  9
$DIMZIN
 70
     0
  9
$DIMBLK
  1

  9
$DIMASO
 70
     1
  9
$DIMSHO
 70
     1
  9
$DIMPOST
  1
\X
  9
$DIMAPOST
  1

  9
$DIMALT
 70
     1
  9
$DIMALTD
 70
     2
  9
$DIMALTF
 40
25.3999999999999986
  9
$DIMLFAC
 40
1.0
  9
$DIMTOFL
 70
     0
  9
$DIMTVP
 40
0.0
  9
$DIMTIX
 70
     0
  9
$DIMSOXD
 70
     0
  9
$DIMSAH
 70
     0
  9
$DIMBLK1
  1

  9
$DIMBLK2
  1

  9
$DIMSTYLE
  2
STANDARD
  9
$DIMCLRD
 70
     0
  9
$DIMCLRE
 70
     0
  9
$DIMCLRT
 70
     0
  9
$DIMTFAC
 40
1.0
  9
$DIMGAP
 40
0.09
  9
$LUNITS
 70
     2
  9
$LUPREC
 70
     4
  9
$SKETCHINC
 40
0.1
  9
$FILLETRAD
 40
0.0
  9
$AUNITS
 70
     0
  9
$AUPREC
 70
     0
  9
$MENU
  1
.
  9
$ELEVATION
 40
0.0
  9
$PELEVATION
 40
0.0
  9
$THICKNESS
 40
0.0
  9
$LIMCHECK
 70
     0
  9
$BLIPMODE
 70
     0
  9
$CHAMFERA
 40
0.0
  9
$CHAMFERB
 40
0.0
  9
$SKPOLY
 70
     0
  9
$TDCREATE
 40
2458060.468368056230247
  9
$TDUPDATE
 40
2460888.7280555558390915
  9
$TDINDWG
 40
0.5192663194
  9
$TDUSRTIMER
 40
0.5192663194
  9
$USRTIMER
 70
     1
  9
$ANGBASE
 50
0.0
  9
$ANGDIR
 70
     0
  9
$PDMODE
 70
     0
  9
$PDSIZE
 40
0.3125
  9
$PLINEWID
 40
0.0
  9
$COORDS
 70
     1
  9
$SPLFRAME
 70
     0
  9
$SPLINETYPE
 70
     6
  9
$SPLINESEGS
 70
     8
  9
$ATTDIA
 70
     1
  9
$ATTREQ
 70
     1
  9
$HANDLING
 70
     1
  9
$HANDSEED
  5
126A8
  9
$SURFTAB1
 70
     6
  9
$SURFTAB2
 70
     6
  9
$SURFTYPE
 70
     6
  9
$SURFU
 70
     6
  9
$SURFV
 70
     6
  9
$UCSNAME
  2

  9
$UCSORG
 10
0.0
 20
0.0
 30
0.0
  9
$UCSXDIR
 10
1.0
 20
0.0
 30
0.0
  9
$UCSYDIR
 10
0.0
 20
1.0
 30
0.0
  9
$PUCSNAME
  2

  9
$PUCSORG
 10
0.0
 20
0.0
 30
0.0
  9
$PUCSXDIR
 10
1.0
 20
0.0
 30
0.0
  9
$PUCSYDIR
 10
0.0
 20
1.0
 30
0.0
  9
$USERI1
 70
     0
  9
$USERI2
 70
     0
  9
$USERI3
 70
     0
  9
$USERI4
 70
     0
  9
$USERI5
 70
     0
  9
$USERR1
 40
0.0
  9
$USERR2
 40
0.0
  9
$USERR3
 40
0.0
  9
$USERR4
 40
0.0
  9
$USERR5
 40
0.0
  9
$WORLDVIEW
 70
     1
  9
$SHADEDGE
 70
     3
  9
$SHADEDIF
 70
    70
  9
$TILEMODE
 70
     1
  9
$MAXACTVP
 70
    64
  9
$PLIMCHECK
 70
     0
  9
$PEXTMIN
 10
1.0000000000000000E+20
 20
1.0000000000000000E+20
 30
1.0000000000000000E+20
  9
$PEXTMAX
 10
-1.0000000000000000E+20
 20
-1.0000000000000000E+20
 30
-1.0000000000000000E+20
  9
$PLIMMIN
 10
0.0
 20
0.0
  9
$PLIMMAX
 10
12.0
 20
9.0
  9
$UNITMODE
 70
     0
  9
$VISRETAIN
 70
     1
  9
$PLINEGEN
 70
     0
  9
$PSLTSCALE
 70
     1
  0
ENDSEC
  0
SECTION
  2
TABLES
  0
TABLE
  2
VPORT
 70
     1
  0
VPORT
  2
*ACTIVE
 70
     0
 10
0.0
 20
0.0
 11
1.0
 21
1.0
 12
718.3389920090312444
 22
32.76791348332452
 13
0.0
 23
0.0
 14
1.0
 24
1.0
 15
0.0
 25
0.0
 16
0.0
 26
0.0
 36
63.7428098394932476
 17
3065.0238037109379547
 27
193.9024792926558121
 37
0.0
 40
16.3401486480262399
 41
2.1655172413793098
 42
50.0
 43
0.0
 44
0.0
 50
0.0
 51
0.0
 71
     0
 72
   100
 73
     1
 74
     1
 75
     0
 76
     0
 77
     0
 78
     0
  0
ENDTAB
  0
TABLE
  2
LTYPE
 70
     2
  0
LTYPE
  2
CONTINUOUS
 70
     0
  3
Solid line
 72
    65
 73
     0
 40
0.0
  0
LTYPE
  2
PHANTOM2
 70
     0
  3
___ _ _ ___ _ _ ___ _ _ ___ _ _
 72
    65
 73
     6
 40
1.25
 49
0.625
 49
-0.125
 49
0.125
 49
-0.125
 49
0.125
 49
-0.125
  0
ENDTAB
  0
TABLE
  2
LAYER
 70
     2
  0
LAYER
  2
0
 70
     0
 62
   255
  6
CONTINUOUS
  0
LAYER
  2
DEFPOINTS
 70
     0
 62
     7
  6
CONTINUOUS
  0
ENDTAB
  0
TABLE
  2
STYLE
 70
     1
  0
STYLE
  2
STANDARD
 70
     0
 40
0.0
 41
0.8
 50
0.0
 71
     0
 42
0.2
  3
txt
  4

  0
ENDTAB
  0
TABLE
  2
VIEW
 70
     0
  0
ENDTAB
  0
TABLE
  2
UCS
 70
     0
  0
ENDTAB
  0
TABLE
  2
APPID
 70
     9
  0
APPID
  2
ACAD
 70
     0
  0
APPID
  2
ACAD_MLEADERVER
 70
     0
  0
APPID
  2
ACAD_EXEMPT_FROM_CAD_STANDARDS
 70
     0
  0
APPID
  2
ACAD_NAV_VCDISPLAY
 70
     0
  0
APPID
  2
ACAECLAYERSTANDARD
 70
     0
  0
APPID
  2
ACCMTRANSPARENCY
 70
     0
  0
APPID
  2
ACAD_DSTYLE_DIMJAG
 70
     0
  0
APPID
  2
ACAD_DSTYLE_DIMTALN
 70
     0
  0
APPID
  2
ACDBATTR
 70
     0
  0
ENDTAB
  0
TABLE
  2
DIMSTYLE
 70
     1
  0
DIMSTYLE
  2
STANDARD
 70
     0
  3

  4

  5

  6

  7

 40
1.0
 41
0.1875
 42
0.0625
 43
0.38
 44
0.125
 45
0.0
 46
0.0
 47
0.01
 48
0.01
140
0.15625
141
0.09
142
0.0
143
25.3999999999999986
144
1.0
145
0.0
146
1.0
147
0.09
 71
     1
 72
     0
 73
     1
 74
     1
 75
     0
 76
     0
 77
     0
 78
     4
170
     0
171
     2
172
     0
173
     0
174
     0
175
     0
176
     0
177
     0
178
     0
  0
ENDTAB
  0
ENDSEC
  0
SECTION
  2
BLOCKS
  0
BLOCK
  8
0
  2
$MODEL_SPACE
 70
     0
 10
0.0
 20
0.0
 30
0.0
  3
$MODEL_SPACE
  1

  0
ENDBLK
  5
21
  8
0
  0
BLOCK
 67
     1
  8
0
  2
$PAPER_SPACE
 70
     0
 10
0.0
 20
0.0
 30
0.0
  3
$PAPER_SPACE
  1

  0
ENDBLK
  5
1D
 67
     1
  8
0
  0
BLOCK
  8
0
  2
_FILLED
 70
     0
 10
0.0
 20
0.0
 30
0.0
  3
_FILLED
  1

  0
SOLID
  5
9977
  8
0
  6
BYBLOCK
 62
     0
 10
0.0
 20
0.0
 30
0.0
 11
-1.0
 21
0.1666666667
 31
0.0
 12
-1.0
 22
-0.1666666667
 32
0.0
 13
-1.0
 23
-0.1666666667
 33
0.0
  0
ENDBLK
  5
9978
  8
0
  6
BYBLOCK
 62
     0
  0
ENDSEC
  0
SECTION
  2
ENTITIES
  0
ATTDEF
  5
C5C4
  8
0
 10
3781.3219798034251653
 20
218.5744939602772945
 30
0.0
 40
0.001
  1
P25000-00
  3

  2
MODELNUMBER
 70
     0
1001
ACDBATTR
1070
     0
1070
     1
  0
ATTDEF
  5
C5C5
  8
0
 10
3781.3219798034251653
 20
218.5728272936106862
 30
0.0
 40
0.001
  1
KALLISTA
  3

  2
BRANDNAME
 70
     0
1001
ACDBATTR
1070
     0
1070
     1
  0
ATTDEF
  5
C5C6
  8
0
 10
3781.3219798034251653
 20
218.5711606269439926
 30
0.0
 40
0.001
  1
KITCHEN SINK FAUCET
  3

  2
PRODUCT
 70
     0
1001
ACDBATTR
1070
     0
1070
     1
  0
LINE
  5
11DD4
  8
0
 10
3780.1282072838412205
 20
218.573361128569303
 30
0.0
 11
3782.526207283840904
 21
218.573361128569303
 31
0.0
  0
LINE
  5
11DD5
  8
0
 10
3782.4617963665400566
 20
219.0033611285691961
 30
0.0
 11
3780.1926182011411584
 21
219.0033611285691961
 31
0.0
  0
LINE
  5
11DD6
  8
0
 10
3782.391189273540931
 20
219.073361128569303
 30
0.0
 11
3780.2632252941411934
 21
219.073361128569303
 31
0.0
  0
LINE
  5
11DD7
  8
0
 10
3780.1082072838407839
 20
218.5933611285693132
 30
0.0
 11
3780.1082072838407839
 21
218.9189514134693013
 31
0.0
  0
LINE
  5
11DD8
  8
0
 10
3780.2532072838412205
 20
219.0033611285691961
 30
0.0
 11
3780.2532072838412205
 21
219.0633611285693121
 31
0.0
  0
LINE
  5
11DD9
  8
0
 10
3780.3772072838410168
 20
222.9865219263693064
 30
0.0
 11
3780.3772072838410168
 21
223.3893378989693019
 31
0.0
  0
LINE
  5
11DDA
  8
0
 10
3780.4557072838410932
 20
223.4393611285692884
 30
0.0
 11
3780.4557072838410932
 21
223.4953742573692921
 31
0.0
  0
LINE
  5
11DDB
  8
0
 10
3780.7647072838408349
 20
226.6210804672693087
 30
0.0
 11
3780.7647072838408349
 21
223.8333611285692939
 31
0.0
  0
LINE
  5
11DDC
  8
0
 10
3780.7647072838408349
 20
229.8354953455967973
 30
0.0
 11
3780.7647072838408349
 21
234.2039646213692095
 31
0.0
  0
LINE
  5
11DDD
  8
0
 10
3780.427221758640826
 20
222.927361128569288
 30
0.0
 11
3782.2271928090408437
 21
222.927361128569288
 31
0.0
  0
LINE
  5
11DDE
  8
0
 10
3782.2327364069410578
 20
223.4393611285692884
 30
0.0
 11
3780.4216781607410667
 21
223.4393611285692884
 31
0.0
  0
LINE
  5
11DDF
  8
0
 10
3781.9311923088412186
 20
223.8333611285692939
 30
0.0
 11
3780.7232222588409059
 21
223.8333611285692939
 31
0.0
  0
ARC
  5
11DE0
  8
0
 10
3780.1082072837780288
 20
219.0033611286324913
 30
0.0
 40
0.0750000000894414
 50
276.7563270711444829
 51
353.243673484014721
  0
ARC
  5
11DE1
  8
0
 10
3780.1282072838412205
 20
218.5933611285693132
 30
0.0
 40
0.02
 50
180.0
 51
270.0
  0
ARC
  5
11DE2
  8
0
 10
3780.263207311442784
 20
219.0633611171361963
 30
0.0
 40
0.0100000276019316
 50
89.896966958450875
 51
179.9999344933893894
  0
ARC
  5
11DE3
  8
0
 10
3780.1926169990770177
 20
218.9933611284984067
 30
0.0
 40
0.0100000001430906
 50
89.993112678979287
 51
173.2436684940886948
  0
ARC
  5
11DE4
  8
0
 10
3780.1182072838410022
 20
218.9189514134693013
 30
0.0
 40
0.01
 50
96.7563270306077925
 51
180.0
  0
ARC
  5
11DE5
  8
0
 10
3780.3771911149369771
 20
222.927332776353694
 30
0.0
 40
0.0500306517379146
 50
0.0324693427094532
 51
80.3930779757631768
  0
ARC
  5
11DE6
  8
0
 10
3780.3723212795889594
 20
223.4370148048971032
 30
0.0
 40
0.0399467792350472
 50
287.3302492902569156
 51
351.194968284753827
  0
ARC
  5
11DE7
  8
0
 10
3780.4216511705808443
 20
223.4293926477963907
 30
0.0
 40
0.009968517311437
 50
89.8448691930019123
 51
171.3026004944514114
  0
ARC
  5
11DE8
  8
0
 10
3780.3872072838407803
 20
223.3893378989693019
 30
0.0
 40
0.01
 50
107.3777477258945936
 51
180.0
  0
ARC
  5
11DE9
  8
0
 10
3780.3872072837762062
 20
222.9865219263456027
 30
0.0
 40
0.0099999999353193
 50
179.9999998643718016
 51
260.4059695875500893
  0
ARC
  5
11DEA
  8
0
 10
3780.7232065908101504
 20
223.8233611166762955
 30
0.0
 40
0.010000024167344
 50
89.9102289736261753
 51
173.500297445663989
  0
ARC
  5
11DEB
  8
0
 10
3780.4657072838408567
 20
223.4953742573692921
 30
0.0
 40
0.01
 50
103.4499606237883
 51
180.0
  0
ARC
  5
11DEC
  8
0
 10
3781.3272056879800402
 20
234.2058595327085868
 30
0.0
 40
0.5625015958629019
 50
89.9998374474435252
 51
180.1930139015503016
  0
ARC
  5
11DED
  8
0
 10
3769.0415005123450101
 20
220.8914941707091089
 30
0.0
 40
11.4001218333191296
 50
350.8230732898203996
 51
0.527664597704002
  0
ARC
  5
11DEE
  8
0
 10
3674.5057055514112108
 20
222.569207178566586
 30
0.0
 40
105.9471071034582934
 50
359.1494451228844014
 51
0.1936886187513689
  0
ARC
  5
11DEF
  8
0
 10
3780.3746684528578044
 20
223.8319598345983934
 30
0.0
 40
0.3386847063355378
 50
285.1848201621912153
 51
358.7367394036846235
  0
ARC
  5
11DF0
  8
0
 10
3781.3219594830047754
 20
227.4689502287716891
 30
0.0
 40
2.4659938555644261
 50
89.8780706343349749
 51
95.5864845411990132
  0
ARC
  5
11DF1
  8
0
 10
3781.2280253256099058
 20
228.4292974221658028
 30
0.0
 40
1.501063620891685
 50
95.5864845411990132
 51
102.5923976585677053
  0
ARC
  5
11DF2
  8
0
 10
3781.0049570765768294
 20
229.4278697547908052
 30
0.0
 40
0.4778793035711432
 50
102.5923976585677053
 51
113.1284327576719022
  0
ARC
  5
11DF3
  8
0
 10
3780.8769822112499241
 20
229.7274905327483054
 30
0.0
 40
0.1520723411847948
 50
113.1284327576719022
 51
131.9790682455119963
  0
ARC
  5
11DF4
  8
0
 10
3782.1902750269200624
 20
208.2161429827393135
 30
0.0
 40
21.715313931555329
 50
92.2778011599106947
 51
92.9478118967603137
  0
ARC
  5
11DF5
  8
0
 10
3781.228140109053129
 20
228.2325355919662115
 30
0.0
 40
1.677327757567675
 50
95.288617645188026
 51
101.9481507286837996
  0
ARC
  5
11DF6
  8
0
 10
3781.0027077886497864
 20
229.2978507621149902
 30
0.0
 40
0.5884218190994216
 50
101.9481507286837996
 51
112.7385311079767973
  0
ARC
  5
11DF7
  8
0
 10
3780.836265573998844
 20
229.6992626945379925
 30
0.0
 40
0.1538828258929467
 50
113.3529826464814931
 51
117.7113896031809048
  0
ARC
  5
11DF8
  8
0
 10
3780.8262473467661948
 20
229.706796340418208
 30
0.0
 40
0.1426555757020713
 50
115.5557493815205987
 51
132.0039956878515
  0
ARC
  5
11DF9
  8
0
 10
3780.7719610217968693
 20
229.7682941743192089
 30
0.0
 40
0.060634647002104
 50
132.7724412375112024
 51
153.968710897743307
  0
ARC
  5
11DFA
  8
0
 10
3781.3206698288358893
 20
226.9789268326350964
 30
0.0
 40
2.8987769244281099
 50
89.8707838140731781
 51
95.8627196073487227
  0
ARC
  5
11DFB
  8
0
 10
3781.2018421385919282
 20
228.1361623125669951
 30
0.0
 40
1.735456686496144
 50
95.8627196073487227
 51
102.2228198520807041
  0
ARC
  5
11DFC
  8
0
 10
3780.9788197456541639
 20
229.1656963769652862
 30
0.0
 40
0.6820434829011385
 50
102.2228198520807041
 51
108.4293993406414955
  0
ARC
  5
11DFD
  8
0
 10
3780.9164430820760572
 20
229.3528868012622866
 30
0.0
 40
0.4847338199151466
 50
108.4293993406414955
 51
114.2339617354562051
  0
ARC
  5
11DFE
  8
0
 10
3780.7960517128499305
 20
229.6203456297386936
 30
0.0
 40
0.1914279953666689
 50
114.2339617354562051
 51
127.586304623887699
  0
ARC
  5
11DFF
  8
0
 10
3780.7250903039848708
 20
229.7125364738184885
 30
0.0
 40
0.0750893806239746
 50
127.586304623887699
 51
150.3175950446164961
  0
ARC
  5
11E00
  8
0
 10
3780.6939307796069443
 20
229.7302968729676991
 30
0.0
 40
0.0392236903701985
 50
150.3175950446293996
 51
179.5002199884629874
  0
LINE
  5
11E01
  8
0
 10
3780.6547085814409002
 20
229.7306390092996082
 30
0.0
 11
3780.6547085814409002
 21
229.4524649410693087
 31
0.0
  0
ARC
  5
11E02
  8
0
 10
3781.3162432361668834
 20
226.7570753541442912
 30
0.0
 40
2.8352313984923332
 50
89.7784324679231105
 51
96.4316325398222602
  0
ARC
  5
11E03
  8
0
 10
3781.1812140484998963
 20
227.9549173424586002
 30
0.0
 40
1.6298027152054479
 50
96.4316325398222602
 51
103.0465081543205059
  0
ARC
  5
11E04
  8
0
 10
3780.9420682007848882
 20
228.9869491223873865
 30
0.0
 40
0.5704253833437588
 50
103.0465081543205059
 51
113.8486315854371043
  0
ARC
  5
11E05
  8
0
 10
3780.7582566997361937
 20
229.39309205163309
 30
0.0
 40
0.1247023885608337
 50
112.0542982598096984
 51
142.1718538927162001
  0
ARC
  5
11E06
  8
0
 10
3780.6883813829131213
 20
229.4518206038023891
 30
0.0
 40
0.0336789656835276
 50
148.1930134302955082
 51
178.9037650732958866
  0
ARC
  5
11E07
  8
0
 10
3780.6994026712059167
 20
229.45338241081609
 30
0.0
 40
0.0447035055749498
 50
181.1759891011336947
 51
217.3923162192504037
  0
ARC
  5
11E08
  8
0
 10
3780.7431135989181712
 20
229.4874368465114003
 30
0.0
 40
0.1001131872440785
 50
217.6852319731364958
 51
238.6091421697838086
  0
ARC
  5
11E09
  8
0
 10
3780.8084085657587821
 20
229.5858176296850957
 30
0.0
 40
0.2181510695199655
 50
237.4287261446974071
 51
244.795247529324314
  0
ARC
  5
11E0A
  8
0
 10
3781.3163522179420397
 20
227.0198668350163871
 30
0.0
 40
2.5035122869921769
 50
89.7515684606602946
 51
98.2711808382448737
  0
ARC
  5
11E0B
  8
0
 10
3781.0911456086810176
 20
228.5690567035740912
 30
0.0
 40
0.9380387913058624
 50
98.2711808382448737
 51
108.2593033759356018
  0
ARC
  5
11E0C
  8
0
 10
3780.8693820463468001
 20
229.2412088802614107
 30
0.0
 40
0.2302481257806907
 50
108.2593033759356018
 51
126.9194314415851039
  0
ARC
  5
11E0D
  8
0
 10
3780.7571395625777768
 20
229.3905962890409
 30
0.0
 40
0.0433926386666018
 50
126.9194314415851039
 51
162.2013113284095027
  0
ARC
  5
11E0E
  8
0
 10
3780.7452823399148656
 20
229.3955417924003086
 30
0.0
 40
0.0306104484133182
 50
164.2314009910292043
 51
193.4222050473640877
  0
ARC
  5
11E0F
  8
0
 10
3780.7646276627838233
 20
229.4011445153620912
 30
0.0
 40
0.0507369714344129
 50
194.505420104416288
 51
232.0796352281352029
  0
ARC
  5
11E10
  8
0
 10
3781.3199736980541275
 20
226.9579930701135879
 30
0.0
 40
2.5521787656751478
 50
89.837607577946045
 51
96.278050745783915
  0
ARC
  5
11E11
  8
0
 10
3781.1964769151941255
 20
228.080555488210706
 30
0.0
 40
1.4228436347681279
 50
96.278050745783915
 51
103.4324830683536049
  0
ARC
  5
11E12
  8
0
 10
3780.9715181080250659
 20
229.0224646766041872
 30
0.0
 40
0.4544432092709496
 50
103.4324830683536049
 51
115.4496709028640993
  0
ARC
  5
11E13
  8
0
 10
3780.8250500381518577
 20
229.3302368297885039
 30
0.0
 40
0.113596331966973
 50
115.4496709028640993
 51
137.4754611631798866
  0
ARC
  5
11E14
  8
0
 10
3780.7641070824370217
 20
229.3861287955874957
 30
0.0
 40
0.0309043995175917
 50
137.4754611631798866
 51
179.0113317880029058
  0
ARC
  5
11E15
  8
0
 10
3755.5556817003230208
 20
229.1381241486467957
 30
0.0
 40
25.1787522643070787
 50
359.6430425087754088
 51
0.5655722476108787
  0
ARC
  5
11E16
  8
0
 10
3771.0325749165522211
 20
228.9820769925597972
 30
0.0
 40
9.7013704408106491
 50
353.7994638804764804
 51
359.995171542984906
  0
ARC
  5
11E17
  8
0
 10
3777.2693615997732195
 20
228.3770049952701982
 30
0.0
 40
3.4364725657256039
 50
346.8433192106534193
 51
352.597352455078294
  0
ARC
  5
11E18
  8
0
 10
3778.6993434809419341
 20
228.1790715271064016
 30
0.0
 40
2.003376171642564
 50
335.0138410315278747
 51
343.0440242127543229
  0
ARC
  5
11E19
  8
0
 10
3781.308838015756919
 20
223.9958302656004037
 30
0.0
 40
3.4618034799709481
 50
89.6959716289134548
 51
97.4016377649989664
  0
ARC
  5
11E1A
  8
0
 10
3781.0801348322697777
 20
225.7563532299932092
 30
0.0
 40
1.6864876617877069
 50
97.4016377649989664
 51
105.4723674421166066
  0
ARC
  5
11E1B
  8
0
 10
3780.7570327685612028
 20
226.9236073630380019
 30
0.0
 40
0.4753406208867416
 50
105.4723674421166066
 51
120.5777818633379042
  0
ARC
  5
11E1C
  8
0
 10
3780.5669017985278515
 20
227.2453859949102082
 30
0.0
 40
0.101587662777409
 50
120.5777818633379042
 51
154.9815516186199034
  0
ARC
  5
11E1D
  8
0
 10
3781.3074964447218917
 20
223.7582913439017034
 30
0.0
 40
3.6536856832981659
 50
89.6909002393225592
 51
98.348933954284675
  0
ARC
  5
11E1E
  8
0
 10
3780.8494168943611839
 20
226.5532303278185964
 30
0.0
 40
0.8232188781100607
 50
95.0483464039149766
 51
110.3880041415398949
  0
ARC
  5
11E1F
  8
0
 10
3780.7129948079300448
 20
226.839814346845003
 30
0.0
 40
0.507836308908968
 50
107.2231697990655022
 51
117.9660368918673043
  0
ARC
  5
11E20
  8
0
 10
3780.5498273673470067
 20
227.1433957399146948
 30
0.0
 40
0.1631977325230832
 50
117.3517143902518995
 51
138.9434619593004072
  0
ARC
  5
11E21
  8
0
 10
3780.485437678155904
 20
227.2055319579162926
 30
0.0
 40
0.0739735219280764
 50
142.4800938084198947
 51
173.544457153579998
  0
LINE
  5
11E22
  8
0
 10
3780.4119331932120076
 20
227.2138489669692945
 30
0.0
 11
3780.4119331932120076
 21
226.8270542554691929
 31
0.0
  0
ARC
  5
11E23
  8
0
 10
3781.317783033449814
 20
223.0813758421876969
 30
0.0
 40
3.9358437053290269
 50
89.8628069789229897
 51
96.7221055551698754
  0
ARC
  5
11E24
  8
0
 10
3781.0912000094899668
 20
225.0037840421813087
 30
0.0
 40
2.0001285521750418
 50
96.7221055551698754
 51
103.6639243850934946
  0
ARC
  5
11E25
  8
0
 10
3780.7873096349208026
 20
226.2538124724609929
 30
0.0
 40
0.7136914428444586
 50
103.6639243850934946
 51
116.7380925632050008
  0
ARC
  5
11E26
  8
0
 10
3780.5217632001108541
 20
226.7809194661732874
 30
0.0
 40
0.1234739474577005
 50
116.7380925632050008
 51
146.6734870946021942
  0
ARC
  5
11E27
  8
0
 10
3780.470365066211798
 20
226.8209943352050004
 30
0.0
 40
0.0587452671789188
 50
151.7969321527351099
 51
174.079070185450604
  0
ARC
  5
11E28
  8
0
 10
3780.4800746869618706
 20
226.8330335971556906
 30
0.0
 40
0.0684033310405895
 50
185.0147973272574973
 51
223.31115298655169
  0
ARC
  5
11E29
  8
0
 10
3780.5597933421991002
 20
226.9119639724040098
 30
0.0
 40
0.1805737604200661
 50
224.1834495514522985
 51
241.4158376886950066
  0
ARC
  5
11E2A
  8
0
 10
3781.3161380398819347
 20
223.294654356516304
 30
0.0
 40
3.644854659448006
 50
89.825995274048978
 51
96.6295754625556214
  0
ARC
  5
11E2B
  8
0
 10
3781.1182610146170191
 20
224.9971580041357981
 30
0.0
 40
1.930890252791394
 50
96.6295754625556214
 51
103.6569050995782959
  0
ARC
  5
11E2C
  8
0
 10
3780.8158936680038096
 20
226.241585734069389
 30
0.0
 40
0.6502551028265264
 50
103.6569050995782959
 51
116.479043780989997
  0
ARC
  5
11E2D
  8
0
 10
3780.5827785007668354
 20
226.7095709987121097
 30
0.0
 40
0.1274234959794209
 50
116.479043780989997
 51
144.6950023514814063
  0
ARC
  5
11E2E
  8
0
 10
3780.5136037499419217
 20
226.7615222690249084
 30
0.0
 40
0.0410181050869725
 50
148.0754813438832969
 51
191.4738159738080014
  0
ARC
  5
11E2F
  8
0
 10
3780.5477089760588569
 20
226.7730701516047986
 30
0.0
 40
0.0768726286395226
 50
194.8542949662003991
 51
234.9911370470555028
  0
ARC
  5
11E30
  8
0
 10
3780.715603819674925
 20
227.0127699128491088
 30
0.0
 40
0.3695237076628741
 50
234.9911370470555028
 51
254.5772287096108926
  0
ARC
  5
11E31
  8
0
 10
3780.9795192026222139
 20
227.8374217412529106
 30
0.0
 40
1.235164060052929
 50
252.9486135545901107
 51
259.984553188653706
  0
ARC
  5
11E32
  8
0
 10
3781.1549629244541393
 20
228.7498663334787921
 30
0.0
 40
2.1642617053406261
 50
259.6117090195049855
 51
263.1570598925796958
  0
ARC
  5
11E33
  8
0
 10
3781.3236174182297873
 20
223.6634390660078964
 30
0.0
 40
3.230486002867647
 50
89.9363302640197446
 51
95.693169481529452
  0
ARC
  5
11E34
  8
0
 10
3781.1842723671720705
 20
225.0611824916238106
 30
0.0
 40
1.825813896251095
 50
95.693169481529452
 51
103.2341384241208999
  0
ARC
  5
11E35
  8
0
 10
3780.8889656972951343
 20
226.316863114026205
 30
0.0
 40
0.5358759695464493
 50
103.2341384241208999
 51
116.3320957397407938
  0
ARC
  5
11E36
  8
0
 10
3780.7017385406061294
 20
226.6951548308271072
 30
0.0
 40
0.1137875532138672
 50
116.3320957397407938
 51
144.8474390162438965
  0
ARC
  5
11E37
  8
0
 10
3780.6383374889478546
 20
226.7429285714169964
 30
0.0
 40
0.0345382777091318
 50
149.0937276034761112
 51
222.9605771849481073
  0
ARC
  5
11E38
  8
0
 10
3781.3297220355498212
 20
227.0658290599783129
 30
0.0
 40
0.1897918376519147
 50
252.3944315243651886
 51
269.2408057289854924
  0
ARC
  5
11E39
  8
0
 10
3781.3168833842191816
 20
223.7829432954810045
 30
0.0
 40
3.1023036600231251
 50
90.823113132348837
 51
95.5794145844973855
  0
ARC
  5
11E3A
  8
0
 10
3781.193608091220085
 20
224.9891267897118894
 30
0.0
 40
1.889856876770615
 50
95.4151030459370162
 51
101.823229392322105
  0
ARC
  5
11E3B
  8
0
 10
3780.9314490580732127
 20
226.2008152622321973
 30
0.0
 40
0.6502139501005546
 50
101.0891120052500014
 51
114.2244638589376962
  0
ARC
  5
11E3C
  8
0
 10
3780.7130286859369335
 20
226.6788573919527892
 30
0.0
 40
0.1246823033079932
 50
112.8270056212989942
 51
141.2833607343332858
  0
ARC
  5
11E3D
  8
0
 10
3780.6460252939941711
 20
226.7350017122583949
 30
0.0
 40
0.0373347146582324
 50
144.1973478578773893
 51
178.5015350002612138
  0
ARC
  5
11E3E
  8
0
 10
3780.644841645113047
 20
226.7366071968469043
 30
0.0
 40
0.0361437748979303
 50
180.9974311245227057
 51
208.4458448749757054
  0
ARC
  5
11E3F
  8
0
 10
3780.6927128377678855
 20
226.7711839118996124
 30
0.0
 40
0.0950096648530701
 50
213.0338247153800921
 51
240.8354526488662088
  0
ARC
  5
11E40
  8
0
 10
3780.8582340434400066
 20
227.069717683443713
 30
0.0
 40
0.4363591750985265
 50
240.9594373496794049
 51
256.5723534747007193
  0
LINE
  5
11E41
  8
0
 10
3780.6087033468411391
 20
226.7359780212692897
 30
0.0
 11
3780.6087033468411391
 21
226.760668646069206
 31
0.0
  0
LINE
  5
11E42
  8
0
 10
3781.4826588748410359
 20
226.7310426333692988
 30
0.0
 11
3781.1717556928410886
 21
226.7310426333692988
 31
0.0
  0
ARC
  5
11E43
  8
0
 10
3781.2767084160091144
 20
225.4055222627185913
 30
0.0
 40
1.3296688787476589
 50
94.5271494208394785
 51
99.3702625173959433
  0
ARC
  5
11E44
  8
0
 10
3781.1429351058459361
 20
226.1700325731007126
 30
0.0
 40
0.5536304436232602
 50
98.5924574233117283
 51
110.4163787439844953
  0
ARC
  5
11E45
  8
0
 10
3780.9867331309178553
 20
226.5865400478467961
 30
0.0
 40
0.1088030285482912
 50
109.8395969797904996
 51
133.9003317305032965
  0
ARC
  5
11E46
  8
0
 10
3780.9290454810570736
 20
226.6480433589406118
 30
0.0
 40
0.024509844066716
 50
136.4260518657534078
 51
176.9883351302206904
  0
ARC
  5
11E47
  8
0
 10
3780.9373813629808865
 20
226.6502793004027865
 30
0.0
 40
0.0328255725120184
 50
181.6552983900853064
 51
219.1725535031114873
  0
ARC
  5
11E48
  8
0
 10
3781.0303620254021553
 20
226.7633405255832031
 30
0.0
 40
0.1786802663784811
 50
228.4865259225246916
 51
258.4743588374032015
  0
ARC
  5
11E49
  8
0
 10
3781.2298755817942038
 20
227.5079104148406941
 30
0.0
 40
0.9492507387538225
 50
255.6532141882522922
 51
264.6490355611113046
  0
ARC
  5
11E4A
  8
0
 10
3781.2782961116317892
 20
227.8706070457654107
 30
0.0
 40
1.3149609989754429
 50
264.0222019688155228
 51
265.5109457495452148
  0
LINE
  5
11E4B
  8
0
 10
3781.1753758975410165
 20
226.559679946969311
 30
0.0
 11
3781.479038670141108
 21
226.559679946969311
 31
0.0
  0
ARC
  5
11E4C
  8
0
 10
3781.3265457788002095
 20
226.9033041534192989
 30
0.0
 40
0.1362195376142476
 50
262.0514805238912004
 51
270.2782390588953945
  0
ARC
  5
11E4D
  8
0
 10
3781.3150283372779086
 20
226.8208155848018919
 30
0.0
 40
0.0529307904046606
 50
245.432390190028201
 51
262.0514805238912004
  0
ARC
  5
11E4E
  8
0
 10
3781.298955150115944
 20
226.7840068126585891
 30
0.0
 40
0.012789969910392
 50
191.667473216358303
 51
242.3588870374699979
  0
LINE
  5
11E4F
  8
0
 10
3781.2864294494411297
 20
226.7814202796691916
 30
0.0
 11
3781.2772966021411776
 21
226.8320475228692032
 31
0.0
  0
ARC
  5
11E50
  8
0
 10
3781.2707618926119721
 20
226.8314777062429073
 30
0.0
 40
0.0065595060501205
 50
4.9834986157141099
 51
28.0652086423289191
  0
ARC
  5
11E51
  8
0
 10
3781.2857438633068341
 20
226.8637541766528045
 30
0.0
 40
0.0306039836963088
 50
240.6554664606007066
 51
252.5176981744453997
  0
ARC
  5
11E52
  8
0
 10
3781.2744584617321379
 20
226.8440847289311932
 30
0.0
 40
0.0079303001568359
 50
213.1642603125428934
 51
242.0871916972681959
  0
ARC
  5
11E53
  8
0
 10
3781.2702753696689797
 20
226.8411784272499858
 30
0.0
 40
0.0028424215689928
 50
141.5056871298640999
 51
210.2490883257042071
  0
ARC
  5
11E54
  8
0
 10
3781.2903758685802131
 20
226.8126130194744121
 30
0.0
 40
0.0376643553221677
 50
100.3273193370249032
 51
126.3517019286747995
  0
ARC
  5
11E55
  8
0
 10
3781.3248364161440804
 20
226.6358552382014011
 30
0.0
 40
0.2177476531729865
 50
89.3761430031111956
 51
100.9100749210454069
  0
ARC
  5
11E56
  8
0
 10
3781.3266142864531503
 20
226.7015730351903926
 30
0.0
 40
0.0762916037327328
 50
89.554648374548222
 51
99.0809739997785641
  0
ARC
  5
11E57
  8
0
 10
3781.3182546965349502
 20
226.7538749049778914
 30
0.0
 40
0.0233258758809772
 50
99.0809739997785641
 51
114.3658413053324949
  0
ARC
  5
11E58
  8
0
 10
3781.3094843930412026
 20
226.7732396109664137
 30
0.0
 40
0.0020676995391734
 50
114.3658413053311023
 51
140.6776009796143967
  0
ARC
  5
11E59
  8
0
 10
3781.3088377828598823
 20
226.7737692775328071
 30
0.0
 40
0.0012318458446677
 50
140.6776009796143967
 51
218.6866255708721098
  0
ARC
  5
11E5A
  8
0
 10
3781.3124960345458021
 20
226.7785183159654991
 30
0.0
 40
0.007197368190672
 50
230.0683205809795879
 51
254.0423344543507937
  0
ARC
  5
11E5B
  8
0
 10
3781.3228979807818178
 20
226.8149617543597003
 30
0.0
 40
0.0450962419832168
 50
254.0654299740957072
 51
266.4875966810348018
  0
ARC
  5
11E5C
  8
0
 10
3781.3271274219841871
 20
226.8592509671802873
 30
0.0
 40
0.0895740721583248
 50
265.5228772135625945
 51
270.051083398160074
  0
ARC
  5
11E5D
  8
0
 10
3781.326717886824099
 20
226.6163684302568981
 30
0.0
 40
0.1738421321903845
 50
89.8387018137180462
 51
96.9261758331461465
  0
ARC
  5
11E5E
  8
0
 10
3781.3158012170260918
 20
226.7062346743612977
 30
0.0
 40
0.083315254916772
 50
96.9261758331461465
 51
105.4254471759358012
  0
ARC
  5
11E5F
  8
0
 10
3781.2996150977851357
 20
226.7648962331853966
 30
0.0
 40
0.0224615866646342
 50
105.4254471759358012
 51
119.3307988549958054
  0
ARC
  5
11E60
  8
0
 10
3781.290583940587112
 20
226.7807629596680954
 30
0.0
 40
0.004206170024021
 50
117.9537229327600016
 51
171.0092396797988954
  0
ARC
  5
11E61
  8
0
 10
3781.3244918701020651
 20
225.1892198735660031
 30
0.0
 40
1.522313774497094
 50
89.8977991055589882
 51
95.7193142534165133
  0
ARC
  5
11E62
  8
0
 10
3781.2624096070630912
 20
225.8090895370914097
 30
0.0
 40
0.899342982932124
 50
95.7193142534165133
 51
102.5710321152934057
  0
ARC
  5
11E63
  8
0
 10
3781.1299884752061189
 20
226.4029177309516001
 30
0.0
 40
0.2909292421392054
 50
102.5710321152934057
 51
115.2124570302866999
  0
ARC
  5
11E64
  8
0
 10
3781.0321495750768008
 20
226.6107186946175887
 30
0.0
 40
0.061247525672698
 50
115.2124570302866999
 51
138.5974056547997009
  0
ARC
  5
11E65
  8
0
 10
3780.9992116358807834
 20
226.639760044951089
 30
0.0
 40
0.0173350232649808
 50
138.5974056547997009
 51
216.286076007159096
  0
ARC
  5
11E66
  8
0
 10
3781.092521784767996
 20
226.7576661533672109
 30
0.0
 40
0.1671408737628711
 50
230.0682777620104105
 51
261.0907594075670772
  0
ARC
  5
11E67
  8
0
 10
3781.2650416092888008
 20
227.4810796766633132
 30
0.0
 40
0.9104196650651706
 50
257.412704264660988
 51
265.4797490937974089
  0
ARC
  5
11E68
  8
0
 10
3781.3215805862141679
 20
228.0612693494514929
 30
0.0
 40
1.4932984886598211
 50
265.0715985530912917
 51
268.3755021716264082
  0
ARC
  5
11E69
  8
0
 10
3781.3270512220378805
 20
228.2124120945730112
 30
0.0
 40
1.6445360005354841
 50
268.3342624506465768
 51
270.0054368552877122
  0
ARC
  5
11E6A
  8
0
 10
3781.3230590115708765
 20
227.7620770206536065
 30
0.0
 40
1.157274666146128
 50
262.9908238701522123
 51
270.2053782125250905
  0
ARC
  5
11E6B
  8
0
 10
3781.2489038558628636
 20
227.1589303319705948
 30
0.0
 40
0.5495864934890164
 50
253.8047824440515114
 51
262.9908238701522123
  0
ARC
  5
11E6C
  8
0
 10
3781.1293603897288449
 20
226.7473307904191131
 30
0.0
 40
0.1209784873801844
 50
236.3223246892657983
 51
253.8047824440515114
  0
ARC
  5
11E6D
  8
0
 10
3781.0705198789792121
 20
226.6619383536435066
 30
0.0
 40
0.0173643140137409
 50
147.0113132673220093
 51
241.6539306285291957
  0
ARC
  5
11E6E
  8
0
 10
3781.12239510182917
 20
226.5989850648369952
 30
0.0
 40
0.0982708092386887
 50
109.291559340219095
 51
132.5389453395399926
  0
ARC
  5
11E6F
  8
0
 10
3781.3264705823698932
 20
228.0359181973585976
 30
0.0
 40
1.4383838559305739
 50
266.958222790338823
 51
270.0293453221086111
  0
LINE
  5
11E70
  8
0
 10
3781.2501440478808945
 20
226.5995608681627118
 30
0.0
 11
3781.2501440478808945
 21
226.5952376998627074
 31
0.0
  0
ARC
  5
11E71
  8
0
 10
3781.3205440068350072
 20
227.8550053710671079
 30
0.0
 40
1.26173322839365
 50
263.3542320225795947
 51
266.8014503407233065
  0
LINE
  5
11E72
  8
0
 10
3781.1740862984697742
 20
226.6061797717142952
 30
0.0
 11
3781.1745228357808628
 21
226.6017501866627128
 31
0.0
  0
LINE
  5
11E73
  8
0
 10
3781.1745228357808628
 20
226.6017501866627128
 30
0.0
 11
3781.1892259128808291
 21
226.6048071282627063
 31
0.0
  0
ARC
  5
11E74
  8
0
 10
3781.2399559697601035
 20
227.2485136468141036
 30
0.0
 40
0.6457024242610159
 50
259.517189234973273
 51
265.4938736530075971
  0
ARC
  5
11E75
  8
0
 10
3781.1829724716508281
 20
226.9845619642750023
 30
0.0
 40
0.3758739442187208
 50
250.1020741586958991
 51
260.7381073970216221
  0
LINE
  5
11E76
  8
0
 10
3781.0550454621411518
 20
226.6311275259691911
 30
0.0
 11
3781.0403423850411855
 21
226.6280705843691976
 31
0.0
  0
ARC
  5
11E77
  8
0
 10
3781.0776731121281955
 20
226.7415063277668992
 30
0.0
 40
0.1194204800905791
 50
234.9078251856433894
 51
251.7840694546164002
  0
LINE
  5
11E78
  8
0
 10
3781.0090190534410794
 20
226.6437931183693024
 30
0.0
 11
3781.0060595987411034
 21
226.6661314416693074
 31
0.0
  0
LINE
  5
11E79
  8
0
 10
3781.0090190534410794
 20
226.6437931183693024
 30
0.0
 11
3781.0298123444408702
 21
226.6437931183693024
 31
0.0
  0
ARC
  5
11E7A
  8
0
 10
3781.0457866901820125
 20
226.6696993597765868
 30
0.0
 40
0.0304353916630919
 50
204.8788118637874049
 51
238.3411233367313002
  0
ARC
  5
11E7B
  8
0
 10
3781.0310265263938163
 20
226.6619764348562001
 30
0.0
 40
0.0138189199362552
 50
160.9530990429533972
 51
201.5740111259447076
  0
ARC
  5
11E7C
  8
0
 10
3781.0374544172627793
 20
226.6594702313915946
 30
0.0
 40
0.0207145513064149
 50
139.3862333558674891
 51
160.2026641659290078
  0
ARC
  5
11E7D
  8
0
 10
3781.3117237272049351
 20
227.5892606471215061
 30
0.0
 40
0.960122024858525
 50
259.412722884208506
 51
270.9240293229893268
  0
ARC
  5
11E7E
  8
0
 10
3781.1942874313399443
 20
226.9555165547548086
 30
0.0
 40
0.3155913431931189
 50
249.0216693979479032
 51
259.2306867726861128
  0
ARC
  5
11E7F
  8
0
 10
3781.1100924015690907
 20
226.7359328155764899
 30
0.0
 40
0.080419445319024
 50
230.4211844027641973
 51
249.0216693979479032
  0
ARC
  5
11E80
  8
0
 10
3781.327868788881915
 20
226.9033041534192989
 30
0.0
 40
0.1362195376142476
 50
269.7217609411047192
 51
277.9485194761086859
  0
ARC
  5
11E81
  8
0
 10
3781.3393862304028517
 20
226.8208155848018919
 30
0.0
 40
0.0529307904046606
 50
277.9485194761086859
 51
294.5676098099718274
  0
ARC
  5
11E82
  8
0
 10
3781.3554594175661805
 20
226.7840068126585891
 30
0.0
 40
0.012789969910392
 50
297.6411129625299736
 51
348.3325267836415833
  0
LINE
  5
11E83
  8
0
 10
3781.3679851182409948
 20
226.7814202796691916
 30
0.0
 11
3781.3771179655409469
 21
226.8320475228692032
 31
0.0
  0
ARC
  5
11E84
  8
0
 10
3781.3836526750710618
 20
226.8314777062429073
 30
0.0
 40
0.0065595060501205
 50
151.934791357671088
 51
175.0165013842859025
  0
ARC
  5
11E85
  8
0
 10
3781.3686707043739261
 20
226.8637541766528045
 30
0.0
 40
0.0306039836963088
 50
287.4823018255546003
 51
299.3445335393992082
  0
ARC
  5
11E86
  8
0
 10
3781.379956105949077
 20
226.8440847289311932
 30
0.0
 40
0.0079303001568359
 50
297.9128083027317757
 51
326.8357396874557139
  0
ARC
  5
11E87
  8
0
 10
3781.3841391980131448
 20
226.8411784272499858
 30
0.0
 40
0.0028424215689928
 50
329.7509116742958213
 51
38.494312870135893
  0
ARC
  5
11E88
  8
0
 10
3781.3640386991019113
 20
226.8126130194744121
 30
0.0
 40
0.0376643553221677
 50
53.6482980713251507
 51
79.6726806629750826
  0
ARC
  5
11E89
  8
0
 10
3781.329578151538044
 20
226.6358552382014011
 30
0.0
 40
0.2177476531729865
 50
79.0899250789545505
 51
90.6238569968888044
  0
ARC
  5
11E8A
  8
0
 10
3781.3278002812289742
 20
226.7015730351903926
 30
0.0
 40
0.0762916037327328
 50
80.9190260002214359
 51
90.445351625451778
  0
ARC
  5
11E8B
  8
0
 10
3781.3361598711471743
 20
226.7538749049778914
 30
0.0
 40
0.0233258758809772
 50
65.6341586946674909
 51
80.9190260002214359
  0
ARC
  5
11E8C
  8
0
 10
3781.3449301746400124
 20
226.7732396109664137
 30
0.0
 40
0.0020676995391734
 50
39.322399020385582
 51
65.6341586946688267
  0
ARC
  5
11E8D
  8
0
 10
3781.3455767848208779
 20
226.7737692775328071
 30
0.0
 40
0.0012318458446677
 50
321.3133744291266112
 51
39.322399020385582
  0
ARC
  5
11E8E
  8
0
 10
3781.3419185331358676
 20
226.7785183159654991
 30
0.0
 40
0.007197368190672
 50
285.9576655456490926
 51
309.9316794190203836
  0
ARC
  5
11E8F
  8
0
 10
3781.3315165869012162
 20
226.8149617543597003
 30
0.0
 40
0.0450962419832168
 50
273.5124033189650845
 51
285.9345700259041791
  0
ARC
  5
11E90
  8
0
 10
3781.3272871456988469
 20
226.8592509671802873
 30
0.0
 40
0.0895740721583248
 50
269.948916601839926
 51
274.4771227864374055
  0
ARC
  5
11E91
  8
0
 10
3781.3276966808580255
 20
226.6163684302568981
 30
0.0
 40
0.1738421321903845
 50
83.0738241668538677
 51
90.161298186281968
  0
ARC
  5
11E92
  8
0
 10
3781.3386133506569422
 20
226.7062346743612977
 30
0.0
 40
0.083315254916772
 50
74.574552824064213
 51
83.0738241668538677
  0
ARC
  5
11E93
  8
0
 10
3781.3547994698969887
 20
226.7648962331853966
 30
0.0
 40
0.0224615866646342
 50
60.6692011450041875
 51
74.574552824064213
  0
ARC
  5
11E94
  8
0
 10
3781.363830627094103
 20
226.7807629596680954
 30
0.0
 40
0.004206170024021
 50
8.9907603202011082
 51
62.046277067239977
  0
ARC
  5
11E95
  8
0
 10
3781.1845742467207856
 20
226.908467114661903
 30
0.0
 40
0.1362195376142476
 50
262.0514805238912004
 51
270.2782390588953945
  0
ARC
  5
11E96
  8
0
 10
3781.1730568051989394
 20
226.8259785460444959
 30
0.0
 40
0.0529307904046606
 50
245.432390190028201
 51
262.0514805238912004
  0
ARC
  5
11E97
  8
0
 10
3781.1569836180369748
 20
226.7891697739011931
 30
0.0
 40
0.012789969910392
 50
191.667473216358303
 51
242.3588870374699979
  0
LINE
  5
11E98
  8
0
 10
3781.1444579173621605
 20
226.7865832409117957
 30
0.0
 11
3781.1353250700622084
 21
226.8372104841118073
 31
0.0
  0
ARC
  5
11E99
  8
0
 10
3781.128790360533003
 20
226.8366406674855114
 30
0.0
 40
0.0065595060501205
 50
4.9834986157141099
 51
28.0652086423289191
  0
ARC
  5
11E9A
  8
0
 10
3781.1437723312278649
 20
226.8689171378954086
 30
0.0
 40
0.0306039836963088
 50
240.6554664606007066
 51
252.5176981744453997
  0
ARC
  5
11E9B
  8
0
 10
3781.1324869296531688
 20
226.8492476901737973
 30
0.0
 40
0.0079303001568359
 50
213.1642603125428934
 51
242.0871916972681959
  0
ARC
  5
11E9C
  8
0
 10
3781.1283038375900105
 20
226.8463413884925899
 30
0.0
 40
0.0028424215689928
 50
141.5056871298640999
 51
210.2490883257042071
  0
ARC
  5
11E9D
  8
0
 10
3781.1484043365007892
 20
226.8177759807169878
 30
0.0
 40
0.0376643553221677
 50
100.3273193370249032
 51
126.3517019286747995
  0
ARC
  5
11E9E
  8
0
 10
3781.1828648840651113
 20
226.6410181994438915
 30
0.0
 40
0.2177476531729865
 50
89.3761430031111956
 51
100.9100749210454069
  0
ARC
  5
11E9F
  8
0
 10
3781.1846427543741811
 20
226.7067359964329967
 30
0.0
 40
0.0762916037327328
 50
89.554648374548222
 51
99.0809739997785641
  0
ARC
  5
11EA0
  8
0
 10
3781.176283164455981
 20
226.7590378662204955
 30
0.0
 40
0.0233258758809772
 50
99.0809739997785641
 51
114.3658413053324949
  0
ARC
  5
11EA1
  8
0
 10
3781.1675128609631429
 20
226.7784025722089893
 30
0.0
 40
0.0020676995391734
 50
114.3658413053311023
 51
140.6776009796143967
  0
ARC
  5
11EA2
  8
0
 10
3781.1668662507818226
 20
226.7789322387754964
 30
0.0
 40
0.0012318458446677
 50
140.6776009796143967
 51
218.6866255708721098
  0
ARC
  5
11EA3
  8
0
 10
3781.1705245024668329
 20
226.7836812772081032
 30
0.0
 40
0.007197368190672
 50
230.0683205809795879
 51
254.0423344543507937
  0
ARC
  5
11EA4
  8
0
 10
3781.1809264487028486
 20
226.8201247156023044
 30
0.0
 40
0.0450962419832168
 50
254.0654299740957072
 51
266.4875966810348018
  0
ARC
  5
11EA5
  8
0
 10
3781.1851558899038537
 20
226.8644139284228913
 30
0.0
 40
0.0895740721583248
 50
265.5228772135625945
 51
270.051083398160074
  0
ARC
  5
11EA6
  8
0
 10
3781.1847463547451298
 20
226.6215313914995875
 30
0.0
 40
0.1738421321903845
 50
89.8387018137180462
 51
96.9261758331461465
  0
ARC
  5
11EA7
  8
0
 10
3781.1738296849462131
 20
226.7113976356039018
 30
0.0
 40
0.083315254916772
 50
96.9261758331461465
 51
105.4254471759358012
  0
ARC
  5
11EA8
  8
0
 10
3781.1576435657061666
 20
226.7700591944280006
 30
0.0
 40
0.0224615866646342
 50
105.4254471759358012
 51
119.3307988549958054
  0
ARC
  5
11EA9
  8
0
 10
3781.1486124085090523
 20
226.7859259209108131
 30
0.0
 40
0.004206170024021
 50
117.9537229327600016
 51
171.0092396797988954
  0
ARC
  5
11EAA
  8
0
 10
3781.1858972568029458
 20
226.908467114661903
 30
0.0
 40
0.1362195376142476
 50
269.7217609411047192
 51
277.9485194761086859
  0
ARC
  5
11EAB
  8
0
 10
3781.197414698324792
 20
226.8259785460444959
 30
0.0
 40
0.0529307904046606
 50
277.9485194761086859
 51
294.5676098099718274
  0
ARC
  5
11EAC
  8
0
 10
3781.2134878854872113
 20
226.7891697739011931
 30
0.0
 40
0.012789969910392
 50
297.6411129625299736
 51
348.3325267836415833
  0
LINE
  5
11EAD
  8
0
 10
3781.2260135861620256
 20
226.7865832409117957
 30
0.0
 11
3781.2351464334619777
 21
226.8372104841118073
 31
0.0
  0
ARC
  5
11EAE
  8
0
 10
3781.2416811429911832
 20
226.8366406674855114
 30
0.0
 40
0.0065595060501205
 50
151.934791357671088
 51
175.0165013842859025
  0
ARC
  5
11EAF
  8
0
 10
3781.2266991722958664
 20
226.8689171378954086
 30
0.0
 40
0.0306039836963088
 50
287.4823018255546003
 51
299.3445335393992082
  0
ARC
  5
11EB0
  8
0
 10
3781.2379845738701079
 20
226.8492476901737973
 30
0.0
 40
0.0079303001568359
 50
297.9128083027317757
 51
326.8357396874557139
  0
ARC
  5
11EB1
  8
0
 10
3781.2421676659341756
 20
226.8463413884925899
 30
0.0
 40
0.0028424215689928
 50
329.7509116742958213
 51
38.494312870135893
  0
ARC
  5
11EB2
  8
0
 10
3781.2220671670238517
 20
226.8177759807169878
 30
0.0
 40
0.0376643553221677
 50
53.6482980713251507
 51
79.6726806629750826
  0
ARC
  5
11EB3
  8
0
 10
3781.1876066194599844
 20
226.6410181994438915
 30
0.0
 40
0.2177476531729865
 50
79.0899250789545505
 51
90.6238569968888044
  0
ARC
  5
11EB4
  8
0
 10
3781.185828749150005
 20
226.7067359964329967
 30
0.0
 40
0.0762916037327328
 50
80.9190260002214359
 51
90.445351625451778
  0
ARC
  5
11EB5
  8
0
 10
3781.1941883390682051
 20
226.7590378662204955
 30
0.0
 40
0.0233258758809772
 50
65.6341586946674909
 51
80.9190260002214359
  0
ARC
  5
11EB6
  8
0
 10
3781.2029586425610432
 20
226.7784025722089893
 30
0.0
 40
0.0020676995391734
 50
39.322399020385582
 51
65.6341586946688267
  0
ARC
  5
11EB7
  8
0
 10
3781.2036052527441825
 20
226.7789322387754964
 30
0.0
 40
0.0012318458446677
 50
321.3133744291266112
 51
39.322399020385582
  0
ARC
  5
11EB8
  8
0
 10
3781.1999470010568984
 20
226.7836812772081032
 30
0.0
 40
0.007197368190672
 50
285.9576655456490926
 51
309.9316794190203836
  0
ARC
  5
11EB9
  8
0
 10
3781.1895450548217923
 20
226.8201247156023044
 30
0.0
 40
0.0450962419832168
 50
273.5124033189650845
 51
285.9345700259041791
  0
ARC
  5
11EBA
  8
0
 10
3781.1853156136189682
 20
226.8644139284228913
 30
0.0
 40
0.0895740721583248
 50
269.948916601839926
 51
274.4771227864374055
  0
ARC
  5
11EBB
  8
0
 10
3781.1857251487790563
 20
226.6215313914995875
 30
0.0
 40
0.1738421321903845
 50
83.0738241668538677
 51
90.161298186281968
  0
ARC
  5
11EBC
  8
0
 10
3781.196641818577973
 20
226.7113976356039018
 30
0.0
 40
0.083315254916772
 50
74.574552824064213
 51
83.0738241668538677
  0
ARC
  5
11EBD
  8
0
 10
3781.2128279378180196
 20
226.7700591944280006
 30
0.0
 40
0.0224615866646342
 50
60.6692011450041875
 51
74.574552824064213
  0
ARC
  5
11EBE
  8
0
 10
3781.2218590950151338
 20
226.7859259209108131
 30
0.0
 40
0.004206170024021
 50
8.9907603202011082
 51
62.046277067239977
  0
ARC
  5
11EBF
  8
0
 10
3781.0735930228997859
 20
226.8892122137193041
 30
0.0
 40
0.1362195376142476
 50
262.0514805238912004
 51
270.2782390588953945
  0
ARC
  5
11EC0
  8
0
 10
3781.0620755813788492
 20
226.8067236451018971
 30
0.0
 40
0.0529307904046606
 50
245.432390190028201
 51
262.0514805238912004
  0
ARC
  5
11EC1
  8
0
 10
3781.0460023942159751
 20
226.7699148729585943
 30
0.0
 40
0.012789969910392
 50
191.667473216358303
 51
242.3588870374699979
  0
LINE
  5
11EC2
  8
0
 10
3781.0334766935397965
 20
226.7673283399691968
 30
0.0
 11
3781.0243438462412087
 21
226.8179555831692937
 31
0.0
  0
ARC
  5
11EC3
  8
0
 10
3781.0178091367120032
 20
226.8173857665429125
 30
0.0
 40
0.0065595060501205
 50
4.9834986157141099
 51
28.0652086423289191
  0
ARC
  5
11EC4
  8
0
 10
3781.0327911074077747
 20
226.849662236952895
 30
0.0
 40
0.0306039836963088
 50
240.6554664606007066
 51
252.5176981744453997
  0
ARC
  5
11EC5
  8
0
 10
3781.021505705832169
 20
226.8299927892311985
 30
0.0
 40
0.0079303001568359
 50
213.1642603125428934
 51
242.0871916972681959
  0
ARC
  5
11EC6
  8
0
 10
3781.0173226137690108
 20
226.827086487549991
 30
0.0
 40
0.0028424215689928
 50
141.5056871298640999
 51
210.2490883257042071
  0
ARC
  5
11EC7
  8
0
 10
3781.0374231126797895
 20
226.7985210797743889
 30
0.0
 40
0.0376643553221677
 50
100.3273193370249032
 51
126.3517019286747995
  0
ARC
  5
11EC8
  8
0
 10
3781.0718836602441115
 20
226.6217632985012926
 30
0.0
 40
0.2177476531729865
 50
89.3761430031111956
 51
100.9100749210454069
  0
ARC
  5
11EC9
  8
0
 10
3781.0736615305531814
 20
226.6874810954903978
 30
0.0
 40
0.0762916037327328
 50
89.554648374548222
 51
99.0809739997785641
  0
ARC
  5
11ECA
  8
0
 10
3781.0653019406349813
 20
226.7397829652778967
 30
0.0
 40
0.0233258758809772
 50
99.0809739997785641
 51
114.3658413053324949
  0
ARC
  5
11ECB
  8
0
 10
3781.0565316371421432
 20
226.7591476712663052
 30
0.0
 40
0.0020676995391734
 50
114.3658413053311023
 51
140.6776009796143967
  0
ARC
  5
11ECC
  8
0
 10
3781.0558850269599134
 20
226.7596773378328976
 30
0.0
 40
0.0012318458446677
 50
140.6776009796143967
 51
218.6866255708721098
  0
ARC
  5
11ECD
  8
0
 10
3781.0595432786458332
 20
226.7644263762655044
 30
0.0
 40
0.007197368190672
 50
230.0683205809795879
 51
254.0423344543507937
  0
ARC
  5
11ECE
  8
0
 10
3781.0699452248809393
 20
226.8008698146597055
 30
0.0
 40
0.0450962419832168
 50
254.0654299740957072
 51
266.4875966810348018
  0
ARC
  5
11ECF
  8
0
 10
3781.0741746660828539
 20
226.8451590274802925
 30
0.0
 40
0.0895740721583248
 50
265.5228772135625945
 51
270.051083398160074
  0
ARC
  5
11ED0
  8
0
 10
3781.0737651309241301
 20
226.6022764905569034
 30
0.0
 40
0.1738421321903845
 50
89.8387018137180462
 51
96.9261758331461465
  0
ARC
  5
11ED1
  8
0
 10
3781.0628484611252134
 20
226.6921427346613029
 30
0.0
 40
0.083315254916772
 50
96.9261758331461465
 51
105.4254471759358012
  0
ARC
  5
11ED2
  8
0
 10
3781.0466623418851668
 20
226.7508042934854018
 30
0.0
 40
0.0224615866646342
 50
105.4254471759358012
 51
119.3307988549958054
  0
ARC
  5
11ED3
  8
0
 10
3781.0376311846880526
 20
226.7666710199681006
 30
0.0
 40
0.004206170024021
 50
117.9537229327600016
 51
171.0092396797988954
  0
ARC
  5
11ED4
  8
0
 10
3781.074916032981946
 20
226.8892122137193041
 30
0.0
 40
0.1362195376142476
 50
269.7217609411047192
 51
277.9485194761086859
  0
ARC
  5
11ED5
  8
0
 10
3781.0864334745037922
 20
226.8067236451018971
 30
0.0
 40
0.0529307904046606
 50
277.9485194761086859
 51
294.5676098099718274
  0
ARC
  5
11ED6
  8
0
 10
3781.1025066616662116
 20
226.7699148729585943
 30
0.0
 40
0.012789969910392
 50
297.6411129625299736
 51
348.3325267836415833
  0
LINE
  5
11ED7
  8
0
 10
3781.1150323623410259
 20
226.7673283399691968
 30
0.0
 11
3781.124165209640978
 21
226.8179555831692937
 31
0.0
  0
ARC
  5
11ED8
  8
0
 10
3781.1306999191701834
 20
226.8173857665429125
 30
0.0
 40
0.0065595060501205
 50
151.934791357671088
 51
175.0165013842859025
  0
ARC
  5
11ED9
  8
0
 10
3781.1157179484739572
 20
226.849662236952895
 30
0.0
 40
0.0306039836963088
 50
287.4823018255546003
 51
299.3445335393992082
  0
ARC
  5
11EDA
  8
0
 10
3781.1270033500491081
 20
226.8299927892311985
 30
0.0
 40
0.0079303001568359
 50
297.9128083027317757
 51
326.8357396874557139
  0
ARC
  5
11EDB
  8
0
 10
3781.1311864421131759
 20
226.827086487549991
 30
0.0
 40
0.0028424215689928
 50
329.7509116742958213
 51
38.494312870135893
  0
ARC
  5
11EDC
  8
0
 10
3781.1110859432019424
 20
226.7985210797743889
 30
0.0
 40
0.0376643553221677
 50
53.6482980713251507
 51
79.6726806629750826
  0
ARC
  5
11EDD
  8
0
 10
3781.0766253956380751
 20
226.6217632985012926
 30
0.0
 40
0.2177476531729865
 50
79.0899250789545505
 51
90.6238569968888044
  0
ARC
  5
11EDE
  8
0
 10
3781.0748475253290053
 20
226.6874810954903978
 30
0.0
 40
0.0762916037327328
 50
80.9190260002214359
 51
90.445351625451778
  0
ARC
  5
11EDF
  8
0
 10
3781.0832071152481149
 20
226.7397829652778967
 30
0.0
 40
0.0233258758809772
 50
65.6341586946674909
 51
80.9190260002214359
  0
ARC
  5
11EE0
  8
0
 10
3781.091977418740953
 20
226.7591476712663052
 30
0.0
 40
0.0020676995391734
 50
39.322399020385582
 51
65.6341586946688267
  0
ARC
  5
11EE1
  8
0
 10
3781.092624028920909
 20
226.7596773378328976
 30
0.0
 40
0.0012318458446677
 50
321.3133744291266112
 51
39.322399020385582
  0
ARC
  5
11EE2
  8
0
 10
3781.0889657772358987
 20
226.7644263762655044
 30
0.0
 40
0.007197368190672
 50
285.9576655456490926
 51
309.9316794190203836
  0
ARC
  5
11EE3
  8
0
 10
3781.0785638309998831
 20
226.8008698146597055
 30
0.0
 40
0.0450962419832168
 50
273.5124033189650845
 51
285.9345700259041791
  0
ARC
  5
11EE4
  8
0
 10
3781.0743343897979685
 20
226.8451590274802925
 30
0.0
 40
0.0895740721583248
 50
269.948916601839926
 51
274.4771227864374055
  0
ARC
  5
11EE5
  8
0
 10
3781.0747439249571471
 20
226.6022764905569034
 30
0.0
 40
0.1738421321903845
 50
83.0738241668538677
 51
90.161298186281968
  0
ARC
  5
11EE6
  8
0
 10
3781.0856605947569733
 20
226.6921427346613029
 30
0.0
 40
0.083315254916772
 50
74.574552824064213
 51
83.0738241668538677
  0
ARC
  5
11EE7
  8
0
 10
3781.1018467139979293
 20
226.7508042934854018
 30
0.0
 40
0.0224615866646342
 50
60.6692011450041875
 51
74.574552824064213
  0
ARC
  5
11EE8
  8
0
 10
3781.1108778711941341
 20
226.7666710199681006
 30
0.0
 40
0.004206170024021
 50
8.9907603202011082
 51
62.046277067239977
  0
ARC
  5
11EE9
  8
0
 10
3780.9386114089002149
 20
226.8787765739193105
 30
0.0
 40
0.1362195376142476
 50
262.0514805238912004
 51
270.2782390588953945
  0
ARC
  5
11EEA
  8
0
 10
3780.9270939673788234
 20
226.7962880053019035
 30
0.0
 40
0.0529307904046606
 50
245.432390190028201
 51
262.0514805238912004
  0
ARC
  5
11EEB
  8
0
 10
3780.9110207802159493
 20
226.7594792331586007
 30
0.0
 40
0.012789969910392
 50
191.667473216358303
 51
242.3588870374699979
  0
LINE
  5
11EEC
  8
0
 10
3780.8984950795411351
 20
226.7568927001692032
 30
0.0
 11
3780.8893622322411829
 21
226.8075199433693001
 31
0.0
  0
ARC
  5
11EED
  8
0
 10
3780.8828275227119775
 20
226.8069501267428905
 30
0.0
 40
0.0065595060501205
 50
4.9834986157141099
 51
28.0652086423289191
  0
ARC
  5
11EEE
  8
0
 10
3780.8978094934082037
 20
226.8392265971527877
 30
0.0
 40
0.0306039836963088
 50
240.6554664606007066
 51
252.5176981744453997
  0
ARC
  5
11EEF
  8
0
 10
3780.8865240918321433
 20
226.8195571494312048
 30
0.0
 40
0.0079303001568359
 50
213.1642603125428934
 51
242.0871916972681959
  0
ARC
  5
11EF0
  8
0
 10
3780.8823409997689851
 20
226.8166508477499974
 30
0.0
 40
0.0028424215689928
 50
141.5056871298640999
 51
210.2490883257042071
  0
ARC
  5
11EF1
  8
0
 10
3780.9024414986802185
 20
226.7880854399743953
 30
0.0
 40
0.0376643553221677
 50
100.3273193370249032
 51
126.3517019286747995
  0
ARC
  5
11EF2
  8
0
 10
3780.9369020462431763
 20
226.6113276587014127
 30
0.0
 40
0.2177476531729865
 50
89.3761430031111956
 51
100.9100749210454069
  0
ARC
  5
11EF3
  8
0
 10
3780.9386799165531556
 20
226.6770454556904042
 30
0.0
 40
0.0762916037327328
 50
89.554648374548222
 51
99.0809739997785641
  0
ARC
  5
11EF4
  8
0
 10
3780.9303203266349556
 20
226.729347325477903
 30
0.0
 40
0.0233258758809772
 50
99.0809739997785641
 51
114.3658413053324949
  0
ARC
  5
11EF5
  8
0
 10
3780.9215500231421174
 20
226.7487120314663969
 30
0.0
 40
0.0020676995391734
 50
114.3658413053311023
 51
140.6776009796143967
  0
ARC
  5
11EF6
  8
0
 10
3780.9209034129598876
 20
226.749241698032904
 30
0.0
 40
0.0012318458446677
 50
140.6776009796143967
 51
218.6866255708721098
  0
ARC
  5
11EF7
  8
0
 10
3780.9245616646458075
 20
226.7539907364655107
 30
0.0
 40
0.007197368190672
 50
230.0683205809795879
 51
254.0423344543507937
  0
ARC
  5
11EF8
  8
0
 10
3780.9349636108809136
 20
226.7904341748597119
 30
0.0
 40
0.0450962419832168
 50
254.0654299740957072
 51
266.4875966810348018
  0
ARC
  5
11EF9
  8
0
 10
3780.9391930520828282
 20
226.8347233876804125
 30
0.0
 40
0.0895740721583248
 50
265.5228772135625945
 51
270.051083398160074
  0
ARC
  5
11EFA
  8
0
 10
3780.9387835169241043
 20
226.591840850756995
 30
0.0
 40
0.1738421321903845
 50
89.8387018137180462
 51
96.9261758331461465
  0
ARC
  5
11EFB
  8
0
 10
3780.9278668471251876
 20
226.6817070948613093
 30
0.0
 40
0.083315254916772
 50
96.9261758331461465
 51
105.4254471759358012
  0
ARC
  5
11EFC
  8
0
 10
3780.9116807278851411
 20
226.7403686536854082
 30
0.0
 40
0.0224615866646342
 50
105.4254471759358012
 51
119.3307988549958054
  0
ARC
  5
11EFD
  8
0
 10
3780.9026495706880269
 20
226.7562353801681923
 30
0.0
 40
0.004206170024021
 50
117.9537229327600016
 51
171.0092396797988954
  0
ARC
  5
11EFE
  8
0
 10
3780.9399344189819203
 20
226.8787765739193105
 30
0.0
 40
0.1362195376142476
 50
269.7217609411047192
 51
277.9485194761086859
  0
ARC
  5
11EFF
  8
0
 10
3780.9514518605042213
 20
226.7962880053019035
 30
0.0
 40
0.0529307904046606
 50
277.9485194761086859
 51
294.5676098099718274
  0
ARC
  5
11F00
  8
0
 10
3780.9675250476661859
 20
226.7594792331586007
 30
0.0
 40
0.012789969910392
 50
297.6411129625299736
 51
348.3325267836415833
  0
LINE
  5
11F01
  8
0
 10
3780.9800507483410001
 20
226.7568927001692032
 30
0.0
 11
3780.9891835956409523
 21
226.8075199433693001
 31
0.0
  0
ARC
  5
11F02
  8
0
 10
3780.9957183051701577
 20
226.8069501267428905
 30
0.0
 40
0.0065595060501205
 50
151.934791357671088
 51
175.0165013842859025
  0
ARC
  5
11F03
  8
0
 10
3780.9807363344739315
 20
226.8392265971527877
 30
0.0
 40
0.0306039836963088
 50
287.4823018255546003
 51
299.3445335393992082
  0
ARC
  5
11F04
  8
0
 10
3780.9920217360490824
 20
226.8195571494312048
 30
0.0
 40
0.0079303001568359
 50
297.9128083027317757
 51
326.8357396874557139
  0
ARC
  5
11F05
  8
0
 10
3780.9962048281131501
 20
226.8166508477499974
 30
0.0
 40
0.0028424215689928
 50
329.7509116742958213
 51
38.494312870135893
  0
ARC
  5
11F06
  8
0
 10
3780.9761043292019167
 20
226.7880854399743953
 30
0.0
 40
0.0376643553221677
 50
53.6482980713251507
 51
79.6726806629750826
  0
ARC
  5
11F07
  8
0
 10
3780.9416437816380494
 20
226.6113276587014127
 30
0.0
 40
0.2177476531729865
 50
79.0899250789545505
 51
90.6238569968888044
  0
ARC
  5
11F08
  8
0
 10
3780.9398659113289796
 20
226.6770454556904042
 30
0.0
 40
0.0762916037327328
 50
80.9190260002214359
 51
90.445351625451778
  0
ARC
  5
11F09
  8
0
 10
3780.9482255012480891
 20
226.729347325477903
 30
0.0
 40
0.0233258758809772
 50
65.6341586946674909
 51
80.9190260002214359
  0
ARC
  5
11F0A
  8
0
 10
3780.9569958047400178
 20
226.7487120314663969
 30
0.0
 40
0.0020676995391734
 50
39.322399020385582
 51
65.6341586946688267
  0
ARC
  5
11F0B
  8
0
 10
3780.9576424149217928
 20
226.749241698032904
 30
0.0
 40
0.0012318458446677
 50
321.3133744291266112
 51
39.322399020385582
  0
ARC
  5
11F0C
  8
0
 10
3780.953984163235873
 20
226.7539907364655107
 30
0.0
 40
0.007197368190672
 50
285.9576655456490926
 51
309.9316794190203836
  0
ARC
  5
11F0D
  8
0
 10
3780.9435822169998573
 20
226.7904341748597119
 30
0.0
 40
0.0450962419832168
 50
273.5124033189650845
 51
285.9345700259041791
  0
ARC
  5
11F0E
  8
0
 10
3780.9393527757979427
 20
226.8347233876804125
 30
0.0
 40
0.0895740721583248
 50
269.948916601839926
 51
274.4771227864374055
  0
ARC
  5
11F0F
  8
0
 10
3780.9397623109571214
 20
226.591840850756995
 30
0.0
 40
0.1738421321903845
 50
83.0738241668538677
 51
90.161298186281968
  0
ARC
  5
11F10
  8
0
 10
3780.9506789807569476
 20
226.6817070948613093
 30
0.0
 40
0.083315254916772
 50
74.574552824064213
 51
83.0738241668538677
  0
ARC
  5
11F11
  8
0
 10
3780.9668650999979036
 20
226.7403686536854082
 30
0.0
 40
0.0224615866646342
 50
60.6692011450041875
 51
74.574552824064213
  0
ARC
  5
11F12
  8
0
 10
3780.9758962571941083
 20
226.7562353801681923
 30
0.0
 40
0.004206170024021
 50
8.9907603202011082
 51
62.046277067239977
  0
ARC
  5
11F13
  8
0
 10
3780.8884187536000354
 20
226.8507123183192959
 30
0.0
 40
0.1362195376142476
 50
262.0514805238912004
 51
270.2782390588953945
  0
ARC
  5
11F14
  8
0
 10
3780.8769013120781892
 20
226.7682237497018889
 30
0.0
 40
0.0529307904046606
 50
245.432390190028201
 51
262.0514805238912004
  0
ARC
  5
11F15
  8
0
 10
3780.8608281249162246
 20
226.7314149775585861
 30
0.0
 40
0.012789969910392
 50
191.667473216358303
 51
242.3588870374699979
  0
LINE
  5
11F16
  8
0
 10
3780.8483024242409556
 20
226.7288284445693023
 30
0.0
 11
3780.8391695769410035
 21
226.779455687769314
 31
0.0
  0
ARC
  5
11F17
  8
0
 10
3780.832634867411798
 20
226.7788858711429043
 30
0.0
 40
0.0065595060501205
 50
4.9834986157141099
 51
28.0652086423289191
  0
ARC
  5
11F18
  8
0
 10
3780.8476168381071147
 20
226.8111623415528868
 30
0.0
 40
0.0306039836963088
 50
240.6554664606007066
 51
252.5176981744453997
  0
ARC
  5
11F19
  8
0
 10
3780.8363314365319638
 20
226.7914928938311903
 30
0.0
 40
0.0079303001568359
 50
213.1642603125428934
 51
242.0871916972681959
  0
ARC
  5
11F1A
  8
0
 10
3780.8321483444688056
 20
226.7885865921500113
 30
0.0
 40
0.0028424215689928
 50
141.5056871298640999
 51
210.2490883257042071
  0
ARC
  5
11F1B
  8
0
 10
3780.852248843380039
 20
226.7600211843744091
 30
0.0
 40
0.0376643553221677
 50
100.3273193370249032
 51
126.3517019286747995
  0
ARC
  5
11F1C
  8
0
 10
3780.8867093909439063
 20
226.5832634031013129
 30
0.0
 40
0.2177476531729865
 50
89.3761430031111956
 51
100.9100749210454069
  0
ARC
  5
11F1D
  8
0
 10
3780.8884872612529762
 20
226.6489812000903896
 30
0.0
 40
0.0762916037327328
 50
89.554648374548222
 51
99.0809739997785641
  0
ARC
  5
11F1E
  8
0
 10
3780.8801276713347761
 20
226.7012830698778885
 30
0.0
 40
0.0233258758809772
 50
99.0809739997785641
 51
114.3658413053324949
  0
ARC
  5
11F1F
  8
0
 10
3780.871357367841938
 20
226.7206477758664107
 30
0.0
 40
0.0020676995391734
 50
114.3658413053311023
 51
140.6776009796143967
  0
ARC
  5
11F20
  8
0
 10
3780.8707107576601629
 20
226.7211774424328894
 30
0.0
 40
0.0012318458446677
 50
140.6776009796143967
 51
218.6866255708721098
  0
ARC
  5
11F21
  8
0
 10
3780.8743690093460827
 20
226.7259264808654962
 30
0.0
 40
0.007197368190672
 50
230.0683205809795879
 51
254.0423344543507937
  0
ARC
  5
11F22
  8
0
 10
3780.8847709555811889
 20
226.7623699192596973
 30
0.0
 40
0.0450962419832168
 50
254.0654299740957072
 51
266.4875966810348018
  0
ARC
  5
11F23
  8
0
 10
3780.8890003967831035
 20
226.806659132080398
 30
0.0
 40
0.0895740721583248
 50
265.5228772135625945
 51
270.051083398160074
  0
ARC
  5
11F24
  8
0
 10
3780.8885908616239249
 20
226.5637765951570088
 30
0.0
 40
0.1738421321903845
 50
89.8387018137180462
 51
96.9261758331461465
  0
ARC
  5
11F25
  8
0
 10
3780.8776741918250082
 20
226.6536428392612947
 30
0.0
 40
0.083315254916772
 50
96.9261758331461465
 51
105.4254471759358012
  0
ARC
  5
11F26
  8
0
 10
3780.8614880725849616
 20
226.7123043980853936
 30
0.0
 40
0.0224615866646342
 50
105.4254471759358012
 51
119.3307988549958054
  0
ARC
  5
11F27
  8
0
 10
3780.8524569153878474
 20
226.7281711245682061
 30
0.0
 40
0.004206170024021
 50
117.9537229327600016
 51
171.0092396797988954
  0
ARC
  5
11F28
  8
0
 10
3780.8897417636821956
 20
226.8507123183192959
 30
0.0
 40
0.1362195376142476
 50
269.7217609411047192
 51
277.9485194761086859
  0
ARC
  5
11F29
  8
0
 10
3780.9012592052040418
 20
226.7682237497018889
 30
0.0
 40
0.0529307904046606
 50
277.9485194761086859
 51
294.5676098099718274
  0
ARC
  5
11F2A
  8
0
 10
3780.9173323923660064
 20
226.7314149775585861
 30
0.0
 40
0.012789969910392
 50
297.6411129625299736
 51
348.3325267836415833
  0
LINE
  5
11F2B
  8
0
 10
3780.9298580930408207
 20
226.7288284445693023
 30
0.0
 11
3780.9323605335239336
 21
226.7427005327332097
 31
0.0
  0
ARC
  5
11F2C
  8
0
 10
3780.8914511263378699
 20
226.5832634031013129
 30
0.0
 40
0.2177476531729865
 50
90.2406019074476831
 51
90.6238569968888044
  0
ARC
  5
11F2D
  8
0
 10
3780.8896732560288001
 20
226.6489812000903896
 30
0.0
 40
0.0762916037327328
 50
80.9190260002214359
 51
90.445351625451778
  0
ARC
  5
11F2E
  8
0
 10
3780.8980328459470002
 20
226.7012830698778885
 30
0.0
 40
0.0233258758809772
 50
65.6341586946674909
 51
80.9190260002214359
  0
ARC
  5
11F2F
  8
0
 10
3780.9068031494398383
 20
226.7206477758664107
 30
0.0
 40
0.0020676995391734
 50
39.322399020385582
 51
65.6341586946688267
  0
ARC
  5
11F30
  8
0
 10
3780.9074497596220681
 20
226.7211774424328894
 30
0.0
 40
0.0012318458446677
 50
321.3133744291266112
 51
39.322399020385582
  0
ARC
  5
11F31
  8
0
 10
3780.9037915079361483
 20
226.7259264808654962
 30
0.0
 40
0.007197368190672
 50
285.9576655456490926
 51
309.9316794190203836
  0
ARC
  5
11F32
  8
0
 10
3780.8933895617001326
 20
226.7623699192596973
 30
0.0
 40
0.0450962419832168
 50
273.5124033189650845
 51
285.9345700259041791
  0
ARC
  5
11F33
  8
0
 10
3780.889160120498218
 20
226.806659132080398
 30
0.0
 40
0.0895740721583248
 50
269.948916601839926
 51
274.4771227864374055
  0
ARC
  5
11F34
  8
0
 10
3780.8895696556578514
 20
226.5637765951570088
 30
0.0
 40
0.1738421321903845
 50
83.0738241668538677
 51
90.161298186281968
  0
ARC
  5
11F35
  8
0
 10
3780.9004863254572228
 20
226.6536428392612947
 30
0.0
 40
0.083315254916772
 50
74.574552824064213
 51
83.0738241668538677
  0
ARC
  5
11F36
  8
0
 10
3780.9166724446968146
 20
226.7123043980853936
 30
0.0
 40
0.0224615866646342
 50
60.6692011450041875
 51
74.574552824064213
  0
ARC
  5
11F37
  8
0
 10
3780.9257036018939289
 20
226.7281711245682061
 30
0.0
 40
0.004206170024021
 50
8.9907603202011082
 51
62.046277067239977
  0
ARC
  5
11F38
  8
0
 10
3780.7966241236999849
 20
226.8276657691193066
 30
0.0
 40
0.1362195376142476
 50
262.0514805238912004
 51
270.2782390588953945
  0
ARC
  5
11F39
  8
0
 10
3780.7851066821781387
 20
226.7451772005018995
 30
0.0
 40
0.0529307904046606
 50
245.432390190028201
 51
262.0514805238912004
  0
ARC
  5
11F3A
  8
0
 10
3780.7690334950161741
 20
226.7083684283585967
 30
0.0
 40
0.012789969910392
 50
191.667473216358303
 51
242.3588870374699979
  0
LINE
  5
11F3B
  8
0
 10
3780.7565077943409051
 20
226.7057818953693129
 30
0.0
 11
3780.747374947040953
 21
226.7564091385692961
 31
0.0
  0
ARC
  5
11F3C
  8
0
 10
3780.7408402375122023
 20
226.7558393219428865
 30
0.0
 40
0.0065595060501205
 50
4.9834986157141099
 51
28.0652086423289191
  0
ARC
  5
11F3D
  8
0
 10
3780.7558222082079737
 20
226.7881157923528974
 30
0.0
 40
0.0306039836963088
 50
240.6554664606007066
 51
252.5176981744453997
  0
ARC
  5
11F3E
  8
0
 10
3780.7445368066328228
 20
226.7684463446312009
 30
0.0
 40
0.0079303001568359
 50
213.1642603125428934
 51
242.0871916972681959
  0
ARC
  5
11F3F
  8
0
 10
3780.7403537145692098
 20
226.7655400429499934
 30
0.0
 40
0.0028424215689928
 50
141.5056871298640999
 51
210.2490883257042071
  0
ARC
  5
11F40
  8
0
 10
3780.7604542134799885
 20
226.7369746351743061
 30
0.0
 40
0.0376643553221677
 50
100.3273193370249032
 51
126.3517019286747995
  0
ARC
  5
11F41
  8
0
 10
3780.7949147610438558
 20
226.5602168539014087
 30
0.0
 40
0.2177476531729865
 50
89.3761430031111956
 51
100.9100749210454069
  0
ARC
  5
11F42
  8
0
 10
3780.7966926313529257
 20
226.6259346508904002
 30
0.0
 40
0.0762916037327328
 50
89.554648374548222
 51
99.0809739997785641
  0
ARC
  5
11F43
  8
0
 10
3780.7883330414338161
 20
226.6782365206778991
 30
0.0
 40
0.0233258758809772
 50
99.0809739997785641
 51
114.3658413053324949
  0
ARC
  5
11F44
  8
0
 10
3780.779562737940978
 20
226.6976012266663929
 30
0.0
 40
0.0020676995391734
 50
114.3658413053311023
 51
140.6776009796143967
  0
ARC
  5
11F45
  8
0
 10
3780.7789161277601124
 20
226.6981308932329
 30
0.0
 40
0.0012318458446677
 50
140.6776009796143967
 51
218.6866255708721098
  0
ARC
  5
11F46
  8
0
 10
3780.7825743794460323
 20
226.7028799316655068
 30
0.0
 40
0.007197368190672
 50
230.0683205809795879
 51
254.0423344543507937
  0
ARC
  5
11F47
  8
0
 10
3780.7929763256820479
 20
226.7393233700595943
 30
0.0
 40
0.0450962419832168
 50
254.0654299740957072
 51
266.4875966810348018
  0
ARC
  5
11F48
  8
0
 10
3780.7972057668839625
 20
226.7836125828804086
 30
0.0
 40
0.0895740721583248
 50
265.5228772135625945
 51
270.051083398160074
  0
ARC
  5
11F49
  8
0
 10
3780.7967962317247839
 20
226.540730045956991
 30
0.0
 40
0.1738421321903845
 50
89.8387018137180462
 51
96.9261758331461465
  0
ARC
  5
11F4A
  8
0
 10
3780.7858795619249577
 20
226.6305962900613054
 30
0.0
 40
0.083315254916772
 50
96.9261758331461465
 51
105.4254471759358012
  0
ARC
  5
11F4B
  8
0
 10
3780.7696934426840016
 20
226.6892578488854042
 30
0.0
 40
0.0224615866646342
 50
105.4254471759358012
 51
119.3307988549958054
  0
ARC
  5
11F4C
  8
0
 10
3780.7606622854877969
 20
226.7051245753681883
 30
0.0
 40
0.004206170024021
 50
117.9537229327600016
 51
171.0092396797988954
  0
ARC
  5
11F4D
  8
0
 10
3780.7979471337821451
 20
226.8276657691193066
 30
0.0
 40
0.1362195376142476
 50
269.7217609411047192
 51
277.9485194761086859
  0
ARC
  5
11F4E
  8
0
 10
3780.8094645753030818
 20
226.7451772005018995
 30
0.0
 40
0.0529307904046606
 50
277.9485194761086859
 51
294.5676098099718274
  0
ARC
  5
11F4F
  8
0
 10
3780.8255377624659559
 20
226.7083684283585967
 30
0.0
 40
0.012789969910392
 50
297.6411129625299736
 51
348.3325267836415833
  0
LINE
  5
11F50
  8
0
 10
3780.8380634631412249
 20
226.7057818953693129
 30
0.0
 11
3780.8452616724671316
 21
226.745684620358503
 31
0.0
  0
ARC
  5
11F51
  8
0
 10
3780.7996564964378194
 20
226.5602168539014087
 30
0.0
 40
0.2177476531729865
 50
79.2898566809502512
 51
90.6238569968888044
  0
ARC
  5
11F52
  8
0
 10
3780.7978786261292043
 20
226.6259346508904002
 30
0.0
 40
0.0762916037327328
 50
80.9190260002214359
 51
90.445351625451778
  0
ARC
  5
11F53
  8
0
 10
3780.8062382160469497
 20
226.6782365206778991
 30
0.0
 40
0.0233258758809772
 50
65.6341586946674909
 51
80.9190260002214359
  0
ARC
  5
11F54
  8
0
 10
3780.8150085195397878
 20
226.6976012266663929
 30
0.0
 40
0.0020676995391734
 50
39.322399020385582
 51
65.6341586946688267
  0
ARC
  5
11F55
  8
0
 10
3780.8156551297220176
 20
226.6981308932329
 30
0.0
 40
0.0012318458446677
 50
321.3133744291266112
 51
39.322399020385582
  0
ARC
  5
11F56
  8
0
 10
3780.8119968780360978
 20
226.7028799316655068
 30
0.0
 40
0.007197368190672
 50
285.9576655456490926
 51
309.9316794190203836
  0
ARC
  5
11F57
  8
0
 10
3780.8015949318009916
 20
226.7393233700595943
 30
0.0
 40
0.0450962419832168
 50
273.5124033189650845
 51
285.9345700259041791
  0
ARC
  5
11F58
  8
0
 10
3780.797365490599077
 20
226.7836125828804086
 30
0.0
 40
0.0895740721583248
 50
269.948916601839926
 51
274.4771227864374055
  0
ARC
  5
11F59
  8
0
 10
3780.7977750257578009
 20
226.540730045956991
 30
0.0
 40
0.1738421321903845
 50
83.0738241668538677
 51
90.161298186281968
  0
ARC
  5
11F5A
  8
0
 10
3780.8086916955571724
 20
226.6305962900613054
 30
0.0
 40
0.083315254916772
 50
74.574552824064213
 51
83.0738241668538677
  0
ARC
  5
11F5B
  8
0
 10
3780.8248778147972189
 20
226.6892578488854042
 30
0.0
 40
0.0224615866646342
 50
60.6692011450041875
 51
74.574552824064213
  0
ARC
  5
11F5C
  8
0
 10
3780.8339089719938784
 20
226.7051245753681883
 30
0.0
 40
0.004206170024021
 50
8.9907603202011082
 51
62.046277067239977
  0
ARC
  5
11F5D
  8
0
 10
3780.8206402670011812
 20
226.7981204830192894
 30
0.0
 40
0.1362195376142476
 50
262.0514805238912004
 51
270.2782390588953945
  0
ARC
  5
11F5E
  8
0
 10
3780.8091228254788803
 20
226.7156319144019108
 30
0.0
 40
0.0529307904046606
 50
245.432390190028201
 51
262.0514805238912004
  0
ARC
  5
11F5F
  8
0
 10
3780.7930496383160062
 20
226.678823142258608
 30
0.0
 40
0.012789969910392
 50
191.667473216358303
 51
242.3588870374699979
  0
LINE
  5
11F60
  8
0
 10
3780.7805239376411919
 20
226.6762366092692105
 30
0.0
 11
3780.7775377391290021
 21
226.6927903732074014
 31
0.0
  0
ARC
  5
11F61
  8
0
 10
3780.8207087746532125
 20
226.5963893647904115
 30
0.0
 40
0.0762916037327328
 50
89.554648374548222
 51
99.0809739997785641
  0
ARC
  5
11F62
  8
0
 10
3780.8123491847350124
 20
226.6486912345779103
 30
0.0
 40
0.0233258758809772
 50
99.0809739997785641
 51
114.3658413053324949
  0
ARC
  5
11F63
  8
0
 10
3780.8035788812421742
 20
226.6680559405664042
 30
0.0
 40
0.0020676995391734
 50
114.3658413053311023
 51
140.6776009796143967
  0
ARC
  5
11F64
  8
0
 10
3780.8029322710599445
 20
226.6685856071329113
 30
0.0
 40
0.0012318458446677
 50
140.6776009796143967
 51
218.6866255708721098
  0
ARC
  5
11F65
  8
0
 10
3780.8065905227458643
 20
226.6733346455654896
 30
0.0
 40
0.007197368190672
 50
230.0683205809795879
 51
254.0423344543507937
  0
ARC
  5
11F66
  8
0
 10
3780.8169924689809704
 20
226.7097780839596908
 30
0.0
 40
0.0450962419832168
 50
254.0654299740957072
 51
266.4875966810348018
  0
ARC
  5
11F67
  8
0
 10
3780.821221910182885
 20
226.7540672967803914
 30
0.0
 40
0.0895740721583248
 50
265.5228772135625945
 51
270.051083398160074
  0
ARC
  5
11F68
  8
0
 10
3780.8208123750241612
 20
226.5111847598570023
 30
0.0
 40
0.1738421321903845
 50
89.8387018137180462
 51
96.9261758331461465
  0
ARC
  5
11F69
  8
0
 10
3780.8098957052247897
 20
226.6010510039612882
 30
0.0
 40
0.083315254916772
 50
96.9261758331461465
 51
105.4254471759358012
  0
ARC
  5
11F6A
  8
0
 10
3780.7937095859851979
 20
226.659712562785387
 30
0.0
 40
0.0224615866646342
 50
105.4254471759358012
 51
119.3307988549958054
  0
ARC
  5
11F6B
  8
0
 10
3780.7846784287871742
 20
226.6755792892681995
 30
0.0
 40
0.004206170024021
 50
117.9537229327600016
 51
171.0092396797988954
  0
ARC
  5
11F6C
  8
0
 10
3780.8219632770819771
 20
226.7981204830192894
 30
0.0
 40
0.1362195376142476
 50
269.7217609411047192
 51
277.9485194761086859
  0
ARC
  5
11F6D
  8
0
 10
3780.8334807186038233
 20
226.7156319144019108
 30
0.0
 40
0.0529307904046606
 50
277.9485194761086859
 51
294.5676098099718274
  0
ARC
  5
11F6E
  8
0
 10
3780.8495539057657879
 20
226.678823142258608
 30
0.0
 40
0.012789969910392
 50
297.6411129625299736
 51
348.3325267836415833
  0
LINE
  5
11F6F
  8
0
 10
3780.862079606441057
 20
226.6762366092692105
 30
0.0
 11
3780.8692260533521221
 21
226.7158523932525895
 31
0.0
  0
ARC
  5
11F70
  8
0
 10
3780.8218947694299459
 20
226.5963893647904115
 30
0.0
 40
0.0762916037327328
 50
80.9190260002214359
 51
90.445351625451778
  0
ARC
  5
11F71
  8
0
 10
3780.8302543593467817
 20
226.6486912345779103
 30
0.0
 40
0.0233258758809772
 50
65.6341586946674909
 51
80.9190260002214359
  0
ARC
  5
11F72
  8
0
 10
3780.8390246628400746
 20
226.6680559405664042
 30
0.0
 40
0.0020676995391734
 50
39.322399020385582
 51
65.6341586946688267
  0
ARC
  5
11F73
  8
0
 10
3780.8396712730209401
 20
226.6685856071329113
 30
0.0
 40
0.0012318458446677
 50
321.3133744291266112
 51
39.322399020385582
  0
ARC
  5
11F74
  8
0
 10
3780.8360130213359298
 20
226.6733346455654896
 30
0.0
 40
0.007197368190672
 50
285.9576655456490926
 51
309.9316794190203836
  0
ARC
  5
11F75
  8
0
 10
3780.8256110750999142
 20
226.7097780839596908
 30
0.0
 40
0.0450962419832168
 50
273.5124033189650845
 51
285.9345700259041791
  0
ARC
  5
11F76
  8
0
 10
3780.8213816338989091
 20
226.7540672967803914
 30
0.0
 40
0.0895740721583248
 50
269.948916601839926
 51
274.4771227864374055
  0
ARC
  5
11F77
  8
0
 10
3780.8217911690580877
 20
226.5111847598570023
 30
0.0
 40
0.1738421321903845
 50
83.0738241668538677
 51
90.161298186281968
  0
ARC
  5
11F78
  8
0
 10
3780.8327078388570044
 20
226.6010510039612882
 30
0.0
 40
0.083315254916772
 50
74.574552824064213
 51
83.0738241668538677
  0
ARC
  5
11F79
  8
0
 10
3780.8488939580970509
 20
226.659712562785387
 30
0.0
 40
0.0224615866646342
 50
60.6692011450041875
 51
74.574552824064213
  0
ARC
  5
11F7A
  8
0
 10
3780.8579251152941652
 20
226.6755792892681995
 30
0.0
 40
0.004206170024021
 50
8.9907603202011082
 51
62.046277067239977
  0
ARC
  5
11F7B
  8
0
 10
3780.7966395813909912
 20
226.7685943349308104
 30
0.0
 40
0.1362195376142476
 50
262.0514805238912004
 51
270.2782390588953945
  0
ARC
  5
11F7C
  8
0
 10
3780.7851221398700545
 20
226.6861057663134034
 30
0.0
 40
0.0529307904046606
 50
245.432390190028201
 51
262.0514805238912004
  0
ARC
  5
11F7D
  8
0
 10
3780.7690489527080899
 20
226.6492969941701006
 30
0.0
 40
0.012789969910392
 50
191.667473216358303
 51
242.3588870374699979
  0
LINE
  5
11F7E
  8
0
 10
3780.7565232520319114
 20
226.6467104611807031
 30
0.0
 11
3780.7473904047319593
 21
226.6973377043806863
 31
0.0
  0
ARC
  5
11F7F
  8
0
 10
3780.7408556952032086
 20
226.6967678877543051
 30
0.0
 40
0.0065595060501205
 50
4.9834986157141099
 51
28.0652086423289191
  0
ARC
  5
11F80
  8
0
 10
3780.75583766589898
 20
226.7290443581642876
 30
0.0
 40
0.0306039836963088
 50
240.6554664606007066
 51
252.5176981744453997
  0
ARC
  5
11F81
  8
0
 10
3780.7445522643229197
 20
226.709374910442591
 30
0.0
 40
0.0079303001568359
 50
213.1642603125428934
 51
242.0871916972681959
  0
ARC
  5
11F82
  8
0
 10
3780.7403691722602161
 20
226.706468608761412
 30
0.0
 40
0.0028424215689928
 50
141.5056871298640999
 51
210.2490883257042071
  0
ARC
  5
11F83
  8
0
 10
3780.7604696711719043
 20
226.6779032009858099
 30
0.0
 40
0.0376643553221677
 50
100.3273193370249032
 51
126.3517019286747995
  0
ARC
  5
11F84
  8
0
 10
3780.7949302187348621
 20
226.5011454197127989
 30
0.0
 40
0.2177476531729865
 50
100.6161383034619945
 51
100.9100749210454069
  0
ARC
  5
11F85
  8
0
 10
3780.796708089043932
 20
226.5668632167017904
 30
0.0
 40
0.0762916037327328
 50
89.554648374548222
 51
99.0809739997785641
  0
ARC
  5
11F86
  8
0
 10
3780.7883484991261867
 20
226.6191650864894029
 30
0.0
 40
0.0233258758809772
 50
99.0809739997785641
 51
114.3658413053324949
  0
ARC
  5
11F87
  8
0
 10
3780.7795781956328938
 20
226.6385297924778115
 30
0.0
 40
0.0020676995391734
 50
114.3658413053311023
 51
140.6776009796143967
  0
ARC
  5
11F88
  8
0
 10
3780.7789315854520282
 20
226.6390594590442902
 30
0.0
 40
0.0012318458446677
 50
140.6776009796143967
 51
218.6866255708721098
  0
ARC
  5
11F89
  8
0
 10
3780.7825898371370386
 20
226.6438084974768969
 30
0.0
 40
0.007197368190672
 50
230.0683205809795879
 51
254.0423344543507937
  0
ARC
  5
11F8A
  8
0
 10
3780.7929917833730542
 20
226.6802519358710981
 30
0.0
 40
0.0450962419832168
 50
254.0654299740957072
 51
266.4875966810348018
  0
ARC
  5
11F8B
  8
0
 10
3780.7972212245740593
 20
226.7245411486917988
 30
0.0
 40
0.0895740721583248
 50
265.5228772135625945
 51
270.051083398160074
  0
ARC
  5
11F8C
  8
0
 10
3780.7968116894148807
 20
226.4816586117684096
 30
0.0
 40
0.1738421321903845
 50
89.8387018137180462
 51
96.9261758331461465
  0
ARC
  5
11F8D
  8
0
 10
3780.785895019615964
 20
226.5715248558728092
 30
0.0
 40
0.083315254916772
 50
96.9261758331461465
 51
105.4254471759358012
  0
ARC
  5
11F8E
  8
0
 10
3780.7697089003759174
 20
226.6301864146969081
 30
0.0
 40
0.0224615866646342
 50
105.4254471759358012
 51
119.3307988549958054
  0
ARC
  5
11F8F
  8
0
 10
3780.7606777431788032
 20
226.6460531411796069
 30
0.0
 40
0.004206170024021
 50
117.9537229327600016
 51
171.0092396797988954
  0
ARC
  5
11F90
  8
0
 10
3780.7979625914731514
 20
226.7685943349308104
 30
0.0
 40
0.1362195376142476
 50
269.7217609411047192
 51
277.9485194761086859
  0
ARC
  5
11F91
  8
0
 10
3780.8094800329949976
 20
226.6861057663134034
 30
0.0
 40
0.0529307904046606
 50
277.9485194761086859
 51
294.5676098099718274
  0
ARC
  5
11F92
  8
0
 10
3780.8255532201569622
 20
226.6492969941701006
 30
0.0
 40
0.012789969910392
 50
297.6411129625299736
 51
348.3325267836415833
  0
LINE
  5
11F93
  8
0
 10
3780.8380789208317765
 20
226.6467104611807031
 30
0.0
 11
3780.8410619885130473
 21
226.6632468695950138
 31
0.0
  0
ARC
  5
11F94
  8
0
 10
3780.7978940838202107
 20
226.5668632167017904
 30
0.0
 40
0.0762916037327328
 50
80.9190260002214359
 51
90.445351625451778
  0
ARC
  5
11F95
  8
0
 10
3780.8062536737388655
 20
226.6191650864894029
 30
0.0
 40
0.0233258758809772
 50
65.6341586946674909
 51
80.9190260002214359
  0
ARC
  5
11F96
  8
0
 10
3780.8150239772307941
 20
226.6385297924778115
 30
0.0
 40
0.0020676995391734
 50
39.322399020385582
 51
65.6341586946688267
  0
ARC
  5
11F97
  8
0
 10
3780.8156705874139334
 20
226.6390594590442902
 30
0.0
 40
0.0012318458446677
 50
321.3133744291266112
 51
39.322399020385582
  0
ARC
  5
11F98
  8
0
 10
3780.8120123357271041
 20
226.6438084974768969
 30
0.0
 40
0.007197368190672
 50
285.9576655456490926
 51
309.9316794190203836
  0
ARC
  5
11F99
  8
0
 10
3780.8016103894919979
 20
226.6802519358710981
 30
0.0
 40
0.0450962419832168
 50
273.5124033189650845
 51
285.9345700259041791
  0
ARC
  5
11F9A
  8
0
 10
3780.7973809482891738
 20
226.7245411486917988
 30
0.0
 40
0.0895740721583248
 50
269.948916601839926
 51
274.4771227864374055
  0
ARC
  5
11F9B
  8
0
 10
3780.7977904834488072
 20
226.4816586117684096
 30
0.0
 40
0.1738421321903845
 50
83.0738241668538677
 51
90.161298186281968
  0
ARC
  5
11F9C
  8
0
 10
3780.8087071532481787
 20
226.5715248558728092
 30
0.0
 40
0.083315254916772
 50
74.574552824064213
 51
83.0738241668538677
  0
ARC
  5
11F9D
  8
0
 10
3780.8248932724891347
 20
226.6301864146969081
 30
0.0
 40
0.0224615866646342
 50
60.6692011450041875
 51
74.574552824064213
  0
ARC
  5
11F9E
  8
0
 10
3780.8339244296857942
 20
226.6460531411796069
 30
0.0
 40
0.004206170024021
 50
8.9907603202011082
 51
62.046277067239977
  0
ARC
  5
11F9F
  8
0
 10
3780.8883041950589359
 20
226.7460281206560069
 30
0.0
 40
0.1362195376142476
 50
262.0514805238912004
 51
270.2782390588953945
  0
ARC
  5
11FA0
  8
0
 10
3780.8767867535370897
 20
226.6635395520385998
 30
0.0
 40
0.0529307904046606
 50
245.432390190028201
 51
262.0514805238912004
  0
ARC
  5
11FA1
  8
0
 10
3780.8607135663751251
 20
226.626730779895297
 30
0.0
 40
0.012789969910392
 50
191.667473216358303
 51
242.3588870374699979
  0
LINE
  5
11FA2
  8
0
 10
3780.848187865699856
 20
226.6241442469060132
 30
0.0
 11
3780.8411321496209894
 21
226.6632570714309054
 31
0.0
  0
ARC
  5
11FA3
  8
0
 10
3780.8865948324028068
 20
226.4785792054381091
 30
0.0
 40
0.2177476531729865
 50
89.3761430031111956
 51
95.5542733070669925
  0
ARC
  5
11FA4
  8
0
 10
3780.8883727027118766
 20
226.5442970024271006
 30
0.0
 40
0.0762916037327328
 50
89.554648374548222
 51
99.0809739997785641
  0
ARC
  5
11FA5
  8
0
 10
3780.8800131127932218
 20
226.5965988722145994
 30
0.0
 40
0.0233258758809772
 50
99.0809739997785641
 51
114.3658413053324949
  0
ARC
  5
11FA6
  8
0
 10
3780.8712428092999289
 20
226.6159635782030932
 30
0.0
 40
0.0020676995391734
 50
114.3658413053311023
 51
140.6776009796143967
  0
ARC
  5
11FA7
  8
0
 10
3780.8705961991190634
 20
226.6164932447696003
 30
0.0
 40
0.0012318458446677
 50
140.6776009796143967
 51
218.6866255708721098
  0
ARC
  5
11FA8
  8
0
 10
3780.8742544508040737
 20
226.6212422832022071
 30
0.0
 40
0.007197368190672
 50
230.0683205809795879
 51
254.0423344543507937
  0
ARC
  5
11FA9
  8
0
 10
3780.8846563970400894
 20
226.6576857215964083
 30
0.0
 40
0.0450962419832168
 50
254.0654299740957072
 51
266.4875966810348018
  0
ARC
  5
11FAA
  8
0
 10
3780.8888858382429135
 20
226.7019749344171089
 30
0.0
 40
0.0895740721583248
 50
265.5228772135625945
 51
270.051083398160074
  0
ARC
  5
11FAB
  8
0
 10
3780.8884763030828253
 20
226.4590923974936914
 30
0.0
 40
0.1738421321903845
 50
89.8387018137180462
 51
96.9261758331461465
  0
ARC
  5
11FAC
  8
0
 10
3780.8775596332839086
 20
226.5489586415980057
 30
0.0
 40
0.083315254916772
 50
96.9261758331461465
 51
105.4254471759358012
  0
ARC
  5
11FAD
  8
0
 10
3780.8613735140429526
 20
226.6076202004221045
 30
0.0
 40
0.0224615866646342
 50
105.4254471759358012
 51
119.3307988549958054
  0
ARC
  5
11FAE
  8
0
 10
3780.8523423568458384
 20
226.6234869269048886
 30
0.0
 40
0.004206170024021
 50
117.9537229327600016
 51
171.0092396797988954
  0
ARC
  5
11FAF
  8
0
 10
3780.8896272051410961
 20
226.7460281206560069
 30
0.0
 40
0.1362195376142476
 50
269.7217609411047192
 51
277.9485194761086859
  0
ARC
  5
11FB0
  8
0
 10
3780.9011446466620328
 20
226.6635395520385998
 30
0.0
 40
0.0529307904046606
 50
277.9485194761086859
 51
294.5676098099718274
  0
ARC
  5
11FB1
  8
0
 10
3780.9172178338239974
 20
226.626730779895297
 30
0.0
 40
0.012789969910392
 50
297.6411129625299736
 51
316.5862615884705065
  0
ARC
  5
11FB2
  8
0
 10
3780.8913365677972251
 20
226.4785792054381091
 30
0.0
 40
0.2177476531729865
 50
86.5158844706942318
 51
90.6238569968888044
  0
ARC
  5
11FB3
  8
0
 10
3780.8895586974881553
 20
226.5442970024271006
 30
0.0
 40
0.0762916037327328
 50
80.9190260002214359
 51
90.445351625451778
  0
ARC
  5
11FB4
  8
0
 10
3780.8979182874059006
 20
226.5965988722145994
 30
0.0
 40
0.0233258758809772
 50
65.6341586946674909
 51
80.9190260002214359
  0
ARC
  5
11FB5
  8
0
 10
3780.9066885908991935
 20
226.6159635782030932
 30
0.0
 40
0.0020676995391734
 50
39.322399020385582
 51
65.6341586946688267
  0
ARC
  5
11FB6
  8
0
 10
3780.9073352010800591
 20
226.6164932447696003
 30
0.0
 40
0.0012318458446677
 50
321.3133744291266112
 51
39.322399020385582
  0
ARC
  5
11FB7
  8
0
 10
3780.9036769493950487
 20
226.6212422832022071
 30
0.0
 40
0.007197368190672
 50
285.9576655456490926
 51
309.9316794190203836
  0
ARC
  5
11FB8
  8
0
 10
3780.8932750031599426
 20
226.6576857215964083
 30
0.0
 40
0.0450962419832168
 50
273.5124033189650845
 51
285.9345700259041791
  0
ARC
  5
11FB9
  8
0
 10
3780.8890455619571185
 20
226.7019749344171089
 30
0.0
 40
0.0895740721583248
 50
269.948916601839926
 51
274.4771227864374055
  0
ARC
  5
11FBA
  8
0
 10
3780.8894550971158424
 20
226.4590923974936914
 30
0.0
 40
0.1738421321903845
 50
83.1011817298027609
 51
90.161298186281968
  0
ARC
  5
11FBB
  8
0
 10
3780.9383154721590472
 20
226.7167862051560121
 30
0.0
 40
0.1362195376142476
 50
262.0514805238912004
 51
270.2782390588953945
  0
ARC
  5
11FBC
  8
0
 10
3780.9267980306381105
 20
226.634297636538605
 30
0.0
 40
0.0529307904046606
 50
245.432390190028201
 51
262.0514805238912004
  0
ARC
  5
11FBD
  8
0
 10
3780.9107248434747817
 20
226.5974888643953022
 30
0.0
 40
0.012789969910392
 50
191.667473216358303
 51
242.3588870374699979
  0
LINE
  5
11FBE
  8
0
 10
3780.8981991427999674
 20
226.59490233140599
 30
0.0
 11
3780.8954873957309246
 21
226.6099346946793105
 31
0.0
  0
ARC
  5
11FBF
  8
0
 10
3780.9383839798110785
 20
226.5150550869271058
 30
0.0
 40
0.0762916037327328
 50
89.554648374548222
 51
99.0809739997785641
  0
ARC
  5
11FC0
  8
0
 10
3780.9300243898928784
 20
226.5673569567146046
 30
0.0
 40
0.0233258758809772
 50
99.0809739997785641
 51
114.3658413053324949
  0
ARC
  5
11FC1
  8
0
 10
3780.9212540864009497
 20
226.5867216627030984
 30
0.0
 40
0.0020676995391734
 50
114.3658413053311023
 51
140.6776009796143967
  0
ARC
  5
11FC2
  8
0
 10
3780.9206074762191747
 20
226.5872513292696055
 30
0.0
 40
0.0012318458446677
 50
140.6776009796143967
 51
218.6866255708721098
  0
ARC
  5
11FC3
  8
0
 10
3780.924265727904185
 20
226.5920003677022123
 30
0.0
 40
0.007197368190672
 50
230.0683205809795879
 51
254.0423344543507937
  0
ARC
  5
11FC4
  8
0
 10
3780.9346676741411102
 20
226.6284438060964135
 30
0.0
 40
0.0450962419832168
 50
254.0654299740957072
 51
266.4875966810348018
  0
ARC
  5
11FC5
  8
0
 10
3780.9388971153421153
 20
226.6727330189170004
 30
0.0
 40
0.0895740721583248
 50
265.5228772135625945
 51
270.051083398160074
  0
ARC
  5
11FC6
  8
0
 10
3780.9384875801829367
 20
226.4298504819936966
 30
0.0
 40
0.1738421321903845
 50
89.8387018137180462
 51
96.9261758331461465
  0
ARC
  5
11FC7
  8
0
 10
3780.92757091038402
 20
226.5197167260980109
 30
0.0
 40
0.083315254916772
 50
96.9261758331461465
 51
105.4254471759358012
  0
ARC
  5
11FC8
  8
0
 10
3780.9113847911430639
 20
226.5783782849221097
 30
0.0
 40
0.0224615866646342
 50
105.4254471759358012
 51
119.3307988549958054
  0
ARC
  5
11FC9
  8
0
 10
3780.9023536339459497
 20
226.5942450114048938
 30
0.0
 40
0.004206170024021
 50
117.9537229327600016
 51
171.0092396797988954
  0
ARC
  5
11FCA
  8
0
 10
3780.9396384822412074
 20
226.7167862051560121
 30
0.0
 40
0.1362195376142476
 50
269.7217609411047192
 51
277.9485194761086859
  0
ARC
  5
11FCB
  8
0
 10
3780.9511559237621441
 20
226.634297636538605
 30
0.0
 40
0.0529307904046606
 50
277.9485194761086859
 51
294.5676098099718274
  0
ARC
  5
11FCC
  8
0
 10
3780.9672291109241087
 20
226.5974888643953022
 30
0.0
 40
0.012789969910392
 50
297.6411129625299736
 51
335.7438212222456855
  0
ARC
  5
11FCD
  8
0
 10
3780.9395699745878119
 20
226.5150550869271058
 30
0.0
 40
0.0762916037327328
 50
80.9190260002214359
 51
90.445351625451778
  0
ARC
  5
11FCE
  8
0
 10
3780.947929564506012
 20
226.5673569567146046
 30
0.0
 40
0.0233258758809772
 50
65.6341586946674909
 51
80.9190260002214359
  0
ARC
  5
11FCF
  8
0
 10
3780.9566998679988501
 20
226.5867216627030984
 30
0.0
 40
0.0020676995391734
 50
39.322399020385582
 51
65.6341586946688267
  0
ARC
  5
11FD0
  8
0
 10
3780.9573464781801704
 20
226.5872513292696055
 30
0.0
 40
0.0012318458446677
 50
321.3133744291266112
 51
39.322399020385582
  0
ARC
  5
11FD1
  8
0
 10
3780.9536882264951601
 20
226.5920003677022123
 30
0.0
 40
0.007197368190672
 50
285.9576655456490926
 51
309.9316794190203836
  0
ARC
  5
11FD2
  8
0
 10
3780.9432862802591444
 20
226.6284438060964135
 30
0.0
 40
0.0450962419832168
 50
273.5124033189650845
 51
285.9345700259041791
  0
ARC
  5
11FD3
  8
0
 10
3780.9390568390581393
 20
226.6727330189170004
 30
0.0
 40
0.0895740721583248
 50
269.948916601839926
 51
274.4771227864374055
  0
ARC
  5
11FD4
  8
0
 10
3780.9394663742168632
 20
226.4298504819936966
 30
0.0
 40
0.1738421321903845
 50
86.2400460434371467
 51
90.161298186281968
  0
ARC
  5
11FD5
  8
0
 10
3781.1904826224367753
 20
226.746637659052908
 30
0.0
 40
0.1949869947460197
 50
262.6715076616206943
 51
268.4207608023382932
  0
ARC
  5
11FD6
  8
0
 10
3781.1729299446978985
 20
226.6056657565144121
 30
0.0
 40
0.0529307904046606
 50
245.432390190028201
 51
262.0514805238912004
  0
ARC
  5
11FD7
  8
0
 10
3781.1568567575359339
 20
226.5688569843711093
 30
0.0
 40
0.012789969910392
 50
210.6717069594139957
 51
242.3588870374699979
  0
ARC
  5
11FD8
  8
0
 10
3781.1761563039540306
 20
226.5387250766904117
 30
0.0
 40
0.0233258758809772
 50
112.1268182925689985
 51
114.3658413053324949
  0
ARC
  5
11FD9
  8
0
 10
3781.1673860004611925
 20
226.5580897826787918
 30
0.0
 40
0.0020676995391734
 50
114.3658413053311023
 51
140.6776009796143967
  0
ARC
  5
11FDA
  8
0
 10
3781.1667393902789627
 20
226.5586194492454126
 30
0.0
 40
0.0012318458446677
 50
140.6776009796143967
 51
218.6866255708721098
  0
ARC
  5
11FDB
  8
0
 10
3781.170397641965792
 20
226.5633684876779057
 30
0.0
 40
0.007197368190672
 50
230.0683205809795879
 51
254.0423344543507937
  0
ARC
  5
11FDC
  8
0
 10
3781.1807995882008981
 20
226.5998119260721069
 30
0.0
 40
0.0450962419832168
 50
254.0654299740957072
 51
266.4875966810348018
  0
ARC
  5
11FDD
  8
0
 10
3781.185029029404177
 20
226.6441011388928075
 30
0.0
 40
0.0895740721583248
 50
265.5228772135625945
 51
270.051083398160074
  0
ARC
  5
11FDE
  8
0
 10
3781.1797351600839647
 20
226.7466376590529933
 30
0.0
 40
0.1949869947460434
 50
271.5792391976615932
 51
277.3284923383793057
  0
ARC
  5
11FDF
  8
0
 10
3781.1972878378228415
 20
226.6056657565144121
 30
0.0
 40
0.0529307904046606
 50
277.9485194761086859
 51
294.5676098099718274
  0
ARC
  5
11FE0
  8
0
 10
3781.2133610249848061
 20
226.5688569843711093
 30
0.0
 40
0.012789969910392
 50
297.6411129625299736
 51
314.1500354549513077
  0
ARC
  5
11FE1
  8
0
 10
3781.2028317820600023
 20
226.5580897826787918
 30
0.0
 40
0.0020676995391734
 50
39.322399020385582
 51
50.2686544215251914
  0
ARC
  5
11FE2
  8
0
 10
3781.2034783922408678
 20
226.5586194492454126
 30
0.0
 40
0.0012318458446677
 50
321.3133744291266112
 51
39.322399020385582
  0
ARC
  5
11FE3
  8
0
 10
3781.1998201405558575
 20
226.5633684876779057
 30
0.0
 40
0.007197368190672
 50
285.9576655456490926
 51
309.9316794190203836
  0
ARC
  5
11FE4
  8
0
 10
3781.1894181943198419
 20
226.5998119260721069
 30
0.0
 40
0.0450962419832168
 50
273.5124033189650845
 51
285.9345700259041791
  0
ARC
  5
11FE5
  8
0
 10
3781.1851887531188368
 20
226.6441011388928075
 30
0.0
 40
0.0895740721583248
 50
269.948916601839926
 51
274.4771227864374055
  0
ARC
  5
11FE6
  8
0
 10
3781.3260552037531852
 20
226.6928781907093082
 30
0.0
 40
0.1362195376142476
 50
262.0514805238912004
 51
270.2782390588953945
  0
ARC
  5
11FE7
  8
0
 10
3781.3145377622317937
 20
226.6103896220919012
 30
0.0
 40
0.0529307904046606
 50
253.3428963019748039
 51
262.0514805238912004
  0
ARC
  5
11FE8
  8
0
 10
3781.3273782138348906
 20
226.6928781907093082
 30
0.0
 40
0.1362195376142476
 50
269.7217609411047192
 51
277.9485194761086859
  0
ARC
  5
11FE9
  8
0
 10
3781.3388956553571916
 20
226.6103896220919012
 30
0.0
 40
0.0529307904046606
 50
277.9485194761086859
 51
286.6571036980250824
  0
LINE
  5
11FEA
  8
0
 10
3780.9045694885408011
 20
226.6493310881706122
 30
0.0
 11
3780.9045694885408011
 21
226.7153021968240125
 31
0.0
  0
ARC
  5
11FEB
  8
0
 10
3781.1573266203108687
 20
226.1423415093526046
 30
0.0
 40
0.6711299462092246
 50
101.158965772495506
 51
104.7674340963767037
  0
ARC
  5
11FEC
  8
0
 10
3781.2899781620290014
 20
225.3142872502812111
 30
0.0
 40
1.51021295298743
 50
95.7381724216083967
 51
96.3216313092175085
  0
LINE
  5
11FED
  8
0
 10
3781.232020009768803
 20
226.8198793925693053
 30
0.0
 11
3781.2794916589709828
 21
226.8198793925693053
 31
0.0
  0
LINE
  5
11FEE
  8
0
 10
3781.1717556928410886
 20
226.7728520450557994
 30
0.0
 11
3781.1717556928410886
 21
226.7310426333692988
 31
0.0
  0
LINE
  5
11FEF
  8
0
 10
3781.2723171164948326
 20
226.8849268297335868
 30
0.0
 11
3781.2723171165489475
 21
226.8935177173368913
 31
0.0
  0
LINE
  5
11FF0
  8
0
 10
3782.5462072838417953
 20
218.5933611285693132
 30
0.0
 11
3782.5462072838417953
 21
218.9189514134693013
 31
0.0
  0
LINE
  5
11FF1
  8
0
 10
3782.401207283840904
 20
219.0033611285691961
 30
0.0
 11
3782.401207283840904
 21
219.0633611285693121
 31
0.0
  0
LINE
  5
11FF2
  8
0
 10
3782.2772072838401982
 20
222.9865219263693064
 30
0.0
 11
3782.2772072838401982
 21
223.3893378989693019
 31
0.0
  0
LINE
  5
11FF3
  8
0
 10
3782.1987072838401218
 20
223.4393611285692884
 30
0.0
 11
3782.1987072838401218
 21
223.4953742573692921
 31
0.0
  0
LINE
  5
11FF4
  8
0
 10
3781.8897072838408349
 20
226.6210804672693087
 30
0.0
 11
3781.8897072838408349
 21
223.8333611285692939
 31
0.0
  0
LINE
  5
11FF5
  8
0
 10
3781.8897072838408349
 20
229.8354953455967973
 30
0.0
 11
3781.8897072838408349
 21
234.2039646213692095
 31
0.0
  0
ARC
  5
11FF6
  8
0
 10
3782.5462072839050052
 20
219.0033611286324913
 30
0.0
 40
0.0750000000894414
 50
186.7563265159851937
 51
263.2436729288555171
  0
ARC
  5
11FF7
  8
0
 10
3782.526207283840904
 20
218.5933611285693132
 30
0.0
 40
0.02
 50
270.0
 51
0.0
  0
ARC
  5
11FF8
  8
0
 10
3782.3912072562388857
 20
219.0633611171361963
 30
0.0
 40
0.0100000276019316
 50
0.0000655066105839
 51
90.1030330415491107
  0
ARC
  5
11FF9
  8
0
 10
3782.4617975686051068
 20
218.9933611284984067
 30
0.0
 40
0.0100000001430906
 50
6.7563315059112821
 51
90.0068873210207556
  0
ARC
  5
11FFA
  8
0
 10
3782.5362072838411223
 20
218.9189514134693013
 30
0.0
 40
0.01
 50
0.0
 51
83.2436729693921933
  0
ARC
  5
11FFB
  8
0
 10
3782.2772234527460569
 20
222.927332776353694
 30
0.0
 40
0.0500306517379146
 50
99.6069220242368232
 51
179.9675306572904958
  0
ARC
  5
11FFC
  8
0
 10
3782.2820932880918008
 20
223.4370148048971032
 30
0.0
 40
0.0399467792350472
 50
188.8050317152462014
 51
252.6697507097431128
  0
ARC
  5
11FFD
  8
0
 10
3782.2327633971008254
 20
223.4293926477963907
 30
0.0
 40
0.009968517311437
 50
8.6973995055486117
 51
90.1551308069981161
  0
ARC
  5
11FFE
  8
0
 10
3782.2672072838408894
 20
223.3893378989693019
 30
0.0
 40
0.01
 50
0.0
 51
72.6222522741053211
  0
ARC
  5
11FFF
  8
0
 10
3782.2672072839059183
 20
222.9865219263456027
 30
0.0
 40
0.0099999999353193
 50
279.5940304124499107
 51
0.0000001356282152
  0
ARC
  5
12000
  8
0
 10
3781.9312079768719741
 20
223.8233611166762955
 30
0.0
 40
0.010000024167344
 50
6.4997025543360252
 51
90.0897710263738531
  0
ARC
  5
12001
  8
0
 10
3782.188707283840813
 20
223.4953742573692921
 30
0.0
 40
0.01
 50
0.0
 51
76.5500393762117
  0
ARC
  5
12002
  8
0
 10
3781.3272088797020842
 20
234.2058595327085868
 30
0.0
 40
0.5625015958629019
 50
359.8069860984497268
 51
90.0001625525564748
  0
ARC
  5
12003
  8
0
 10
3793.6129140553371144
 20
220.8914941707091089
 30
0.0
 40
11.4001218333191296
 50
179.4723354022960109
 51
189.1769267101778951
  0
ARC
  5
12004
  8
0
 10
3888.1487090162709137
 20
222.569207178566586
 30
0.0
 40
105.9471071034582934
 50
179.8063113812486051
 51
180.8505548771155134
  0
ARC
  5
12005
  8
0
 10
3782.2797461148238654
 20
223.8319598345983934
 30
0.0
 40
0.3386847063355378
 50
181.2632605963154049
 51
254.8151798378088984
  0
ARC
  5
12006
  8
0
 10
3781.3324550846759848
 20
227.4689502287716891
 30
0.0
 40
2.4659938555644052
 50
84.4135154588009868
 51
90.1219293656650251
  0
ARC
  5
12007
  8
0
 10
3781.4263892420708544
 20
228.4292974221658028
 30
0.0
 40
1.501063620891685
 50
77.4076023414322947
 51
84.4135154588009868
  0
ARC
  5
12008
  8
0
 10
3781.6494574911048403
 20
229.4278697547908052
 30
0.0
 40
0.4778793035711432
 50
66.8715672423280836
 51
77.4076023414322947
  0
ARC
  5
12009
  8
0
 10
3781.7774323564308361
 20
229.7274905327483054
 30
0.0
 40
0.1520723411847948
 50
48.0209317544879823
 51
66.8715672423287231
  0
ARC
  5
1200A
  8
0
 10
3780.9724355281678072
 20
219.3547496823248935
 30
0.0
 40
10.5655072827835408
 50
86.6986434376854191
 51
88.075743505666793
  0
ARC
  5
1200B
  8
0
 10
3781.426274458628086
 20
228.2325355919662115
 30
0.0
 40
1.677327757567675
 50
78.0518492713161578
 51
84.711382354811974
  0
ARC
  5
1200C
  8
0
 10
3781.6517067790318833
 20
229.2978507621149902
 30
0.0
 40
0.5884218190994216
 50
67.2614688920231742
 51
78.0518492713161578
  0
ARC
  5
1200D
  8
0
 10
3781.8181489936828257
 20
229.6992626945379925
 30
0.0
 40
0.1538828258929467
 50
62.2886103968190525
 51
66.6470173535184642
  0
ARC
  5
1200E
  8
0
 10
3781.8281672209150202
 20
229.706796340418208
 30
0.0
 40
0.1426555757020713
 50
47.9960043121474413
 51
64.4442506184793871
  0
ARC
  5
1200F
  8
0
 10
3781.8824535458848004
 20
229.7682941743192089
 30
0.0
 40
0.060634647002104
 50
26.0312891022581603
 51
47.2275587624887976
  0
ARC
  5
12010
  8
0
 10
3781.3337447388457804
 20
226.9789268326350964
 30
0.0
 40
2.8987769244281099
 50
84.1372803926512773
 51
90.1292161859268504
  0
ARC
  5
12011
  8
0
 10
3781.4525724290901962
 20
228.1361623125669951
 30
0.0
 40
1.735456686496144
 50
77.7771801479195801
 51
84.1372803926512773
  0
ARC
  5
12012
  8
0
 10
3781.6755948220279606
 20
229.1656963769652862
 30
0.0
 40
0.6820434829011385
 50
71.5706006593584192
 51
77.7771801479192249
  0
ARC
  5
12013
  8
0
 10
3781.7379714856060673
 20
229.3528868012622866
 30
0.0
 40
0.4847338199151466
 50
65.7660382645437949
 51
71.5706006593584192
  0
ARC
  5
12014
  8
0
 10
3781.8583628548331035
 20
229.6203456297386936
 30
0.0
 40
0.1914279953666689
 50
52.4136953761122726
 51
65.7660382645437949
  0
ARC
  5
12015
  8
0
 10
3781.9293242636967989
 20
229.7125364738184885
 30
0.0
 40
0.0750893806239746
 50
29.6824049553834683
 51
52.4136953761122726
  0
ARC
  5
12016
  8
0
 10
3781.9604837880751802
 20
229.7302968729676991
 30
0.0
 40
0.0392236903701985
 50
0.4997800115369692
 51
29.6824049553705684
  0
LINE
  5
12017
  8
0
 10
3781.9997059862412243
 20
229.7306390092996082
 30
0.0
 11
3781.9997059862412243
 21
229.4524649410693087
 31
0.0
  0
ARC
  5
12018
  8
0
 10
3781.3381713315147863
 20
226.7570753541442912
 30
0.0
 40
2.8352313984923332
 50
83.568367460177754
 51
90.2215675320768753
  0
ARC
  5
12019
  8
0
 10
3781.4732005191817734
 20
227.9549173424586002
 30
0.0
 40
1.6298027152054479
 50
76.9534918456795083
 51
83.568367460177754
  0
ARC
  5
1201A
  8
0
 10
3781.7123463668967815
 20
228.9869491223873865
 30
0.0
 40
0.5704253833437588
 50
66.1513684145628247
 51
76.9534918456795083
  0
ARC
  5
1201B
  8
0
 10
3781.8961578679459308
 20
229.39309205163309
 30
0.0
 40
0.1247023885608337
 50
37.8281461072837502
 51
67.9457017401902732
  0
ARC
  5
1201C
  8
0
 10
3781.9660331847690031
 20
229.4518206038023891
 30
0.0
 40
0.0336789656835276
 50
1.0962349267041169
 51
31.8069865697044811
  0
ARC
  5
1201D
  8
0
 10
3781.9550118964762078
 20
229.45338241081609
 30
0.0
 40
0.0447035055749498
 50
322.60768378074971
 51
358.8240108988662769
  0
ARC
  5
1201E
  8
0
 10
3781.9113009687630438
 20
229.4874368465114003
 30
0.0
 40
0.1001131872440785
 50
301.3908578302161914
 51
322.3147680268634758
  0
ARC
  5
1201F
  8
0
 10
3781.8460060019219782
 20
229.5858176296850957
 30
0.0
 40
0.2181510695199655
 50
295.2047524706749755
 51
302.5712738553027066
  0
ARC
  5
12020
  8
0
 10
3781.3380623497400848
 20
227.0198668350163871
 30
0.0
 40
2.5035122869921769
 50
81.7288191617551405
 51
90.2484315393397054
  0
ARC
  5
12021
  8
0
 10
3781.5632689590001974
 20
228.5690567035740912
 30
0.0
 40
0.9380387913058624
 50
71.7406966240644266
 51
81.7288191617551405
  0
ARC
  5
12022
  8
0
 10
3781.7850325213339602
 20
229.2412088802614107
 30
0.0
 40
0.2302481257806907
 50
53.080568558414889
 51
71.7406966240644266
  0
ARC
  5
12023
  8
0
 10
3781.8972750051038929
 20
229.3905962890409
 30
0.0
 40
0.0433926386666018
 50
17.7986886715904191
 51
53.080568558414889
  0
ARC
  5
12024
  8
0
 10
3781.9091322277658946
 20
229.3955417924003086
 30
0.0
 40
0.0306104484133182
 50
346.5777949526342923
 51
15.7685990089707708
  0
ARC
  5
12025
  8
0
 10
3781.8897869048978464
 20
229.4011445153620912
 30
0.0
 40
0.0507369714344129
 50
307.9203647718647971
 51
345.4945798955836267
  0
ARC
  5
12026
  8
0
 10
3781.334440869627997
 20
226.9579930701135879
 30
0.0
 40
2.5521787656751478
 50
83.721949254216085
 51
90.1623924220539834
  0
ARC
  5
12027
  8
0
 10
3781.4579376524889085
 20
228.080555488210706
 30
0.0
 40
1.4228436347681279
 50
76.5675169316463666
 51
83.721949254216085
  0
ARC
  5
12028
  8
0
 10
3781.6828964596579681
 20
229.0224646766041872
 30
0.0
 40
0.4544432092709496
 50
64.5503290971358723
 51
76.5675169316463666
  0
ARC
  5
12029
  8
0
 10
3781.8293645295289025
 20
229.3302368297885039
 30
0.0
 40
0.113596331966973
 50
42.5245388368201276
 51
64.5503290971358723
  0
ARC
  5
1202A
  8
0
 10
3781.8903074852451027
 20
229.3861287955874957
 30
0.0
 40
0.0309043995175917
 50
0.9886682119970465
 51
42.5245388368201276
  0
ARC
  5
1202B
  8
0
 10
3807.0987328673591037
 20
229.1381241486467957
 30
0.0
 40
25.1787522643070787
 50
179.4344277523906896
 51
180.3569574912245059
  0
ARC
  5
1202C
  8
0
 10
3791.6218396511299034
 20
228.9820769925597972
 30
0.0
 40
9.7013704408106491
 50
180.004828457015094
 51
186.2005361195234912
  0
ARC
  5
1202D
  8
0
 10
3785.385052967908905
 20
228.3770049952701982
 30
0.0
 40
3.4364725657256039
 50
187.4026475449215923
 51
193.1566807893466091
  0
ARC
  5
1202E
  8
0
 10
3783.9550710867401904
 20
228.1790715271064016
 30
0.0
 40
2.003376171642564
 50
196.9559757872457055
 51
204.9861589684720968
  0
ARC
  5
1202F
  8
0
 10
3781.3455765519238412
 20
223.9958302656004037
 30
0.0
 40
3.4618034799709481
 50
82.5983622350012467
 51
90.3040283710865737
  0
ARC
  5
12030
  8
0
 10
3781.574279735411892
 20
225.7563532299932092
 30
0.0
 40
1.6864876617877069
 50
74.5276325578833934
 51
82.5983622350012467
  0
ARC
  5
12031
  8
0
 10
3781.8973817991209216
 20
226.9236073630380019
 30
0.0
 40
0.4753406208867416
 50
59.4222181366620887
 51
74.5276325578833934
  0
ARC
  5
12032
  8
0
 10
3782.0875127691538182
 20
227.2453859949102082
 30
0.0
 40
0.101587662777409
 50
25.0184483813801002
 51
59.4222181366620887
  0
ARC
  5
12033
  8
0
 10
3781.3469181229588685
 20
223.7582913439017034
 30
0.0
 40
3.6536856832981659
 50
81.651066045715325
 51
90.309099760677455
  0
ARC
  5
12034
  8
0
 10
3781.8049976733209405
 20
226.5532303278185964
 30
0.0
 40
0.8232188781100607
 50
69.6119958584600909
 51
84.9516535960850234
  0
ARC
  5
12035
  8
0
 10
3781.9414197597520797
 20
226.839814346845003
 30
0.0
 40
0.507836308908968
 50
62.0339631081326672
 51
72.776830200934512
  0
ARC
  5
12036
  8
0
 10
3782.1045872003351178
 20
227.1433957399146948
 30
0.0
 40
0.1631977325230832
 50
41.056538040699607
 51
62.6482856097480791
  0
ARC
  5
12037
  8
0
 10
3782.1689768895262205
 20
227.2055319579162926
 30
0.0
 40
0.0739735219280764
 50
6.4555428464200002
 51
37.5199061915800129
  0
LINE
  5
12038
  8
0
 10
3782.2424813744701169
 20
227.2138489669692945
 30
0.0
 11
3782.2424813744701169
 21
226.8270542554691929
 31
0.0
  0
ARC
  5
12039
  8
0
 10
3781.3366315342318558
 20
223.0813758421876969
 30
0.0
 40
3.9358437053290269
 50
83.2778944448301246
 51
90.1371930210770245
  0
ARC
  5
1203A
  8
0
 10
3781.5632145581921577
 20
225.0037840421813087
 30
0.0
 40
2.0001285521750418
 50
76.3360756149065054
 51
83.2778944448301246
  0
ARC
  5
1203B
  8
0
 10
3781.8671049327608671
 20
226.2538124724609929
 30
0.0
 40
0.7136914428444586
 50
63.2619074367949423
 51
76.3360756149065054
  0
ARC
  5
1203C
  8
0
 10
3782.1326513675708156
 20
226.7809194661732874
 30
0.0
 40
0.1234739474577005
 50
33.3265129053977915
 51
63.2619074367949423
  0
ARC
  5
1203D
  8
0
 10
3782.1840495014698718
 20
226.8209943352050004
 30
0.0
 40
0.0587452671789188
 50
5.9209298145493721
 51
28.2030678472649399
  0
ARC
  5
1203E
  8
0
 10
3782.1743398807197991
 20
226.8330335971556906
 30
0.0
 40
0.0684033310405895
 50
316.68884701344831
 51
354.9852026727425027
  0
ARC
  5
1203F
  8
0
 10
3782.0946212254821148
 20
226.9119639724040098
 30
0.0
 40
0.1805737604200661
 50
298.5841623113050218
 51
315.8165504485477868
  0
ARC
  5
12040
  8
0
 10
3781.3382765278001898
 20
223.294654356516304
 30
0.0
 40
3.644854659448006
 50
83.3704245374443929
 51
90.1740047259510362
  0
ARC
  5
12041
  8
0
 10
3781.5361535530651054
 20
224.9971580041357981
 30
0.0
 40
1.930890252791394
 50
76.343094900421633
 51
83.3704245374443929
  0
ARC
  5
12042
  8
0
 10
3781.8385208996778601
 20
226.241585734069389
 30
0.0
 40
0.6502551028265264
 50
63.520956219009939
 51
76.343094900421633
  0
ARC
  5
12043
  8
0
 10
3782.0716360669148344
 20
226.7095709987121097
 30
0.0
 40
0.1274234959794209
 50
35.304997648518551
 51
63.520956219009939
  0
ARC
  5
12044
  8
0
 10
3782.1408108177402028
 20
226.7615222690249084
 30
0.0
 40
0.0410181050869725
 50
348.526184026192027
 51
31.9245186561166712
  0
ARC
  5
12045
  8
0
 10
3782.1067055916228128
 20
226.7730701516047986
 30
0.0
 40
0.0768726286395226
 50
305.0088629529445257
 51
345.1457050337995156
  0
ARC
  5
12046
  8
0
 10
3781.9388107480071994
 20
227.0127699128491088
 30
0.0
 40
0.3695237076628741
 50
285.4227712903891074
 51
305.0088629529445257
  0
ARC
  5
12047
  8
0
 10
3781.6748953650599105
 20
227.8374217412529106
 30
0.0
 40
1.235164060052929
 50
280.015446811346294
 51
287.0513864454097757
  0
ARC
  5
12048
  8
0
 10
3781.4994516432279852
 20
228.7498663334787921
 30
0.0
 40
2.1642617053406261
 50
276.8429401074203042
 51
280.3882909804950145
  0
ARC
  5
12049
  8
0
 10
3781.3307971494518824
 20
223.6634390660078964
 30
0.0
 40
3.230486002867647
 50
84.3068305184705622
 51
90.0636697359802554
  0
ARC
  5
1204A
  8
0
 10
3781.470142200510054
 20
225.0611824916238106
 30
0.0
 40
1.825813896251095
 50
76.7658615758791143
 51
84.3068305184705622
  0
ARC
  5
1204B
  8
0
 10
3781.7654488703878997
 20
226.316863114026205
 30
0.0
 40
0.5358759695464493
 50
63.6679042602591494
 51
76.7658615758791143
  0
ARC
  5
1204C
  8
0
 10
3781.9526760270759951
 20
226.6951548308271072
 30
0.0
 40
0.1137875532138672
 50
35.152560983756068
 51
63.6679042602591494
  0
ARC
  5
1204D
  8
0
 10
3782.0160770787329056
 20
226.7429285714169964
 30
0.0
 40
0.0345382777091318
 50
317.0394228150519211
 51
30.9062723965238817
  0
ARC
  5
1204E
  8
0
 10
3781.3246925321309391
 20
227.0658290599783129
 30
0.0
 40
0.1897918376519143
 50
270.759194271014394
 51
287.6055684756348114
  0
ARC
  5
1204F
  8
0
 10
3781.3375311834629429
 20
223.7829432954810045
 30
0.0
 40
3.1023036600231251
 50
84.4205854155026145
 51
89.176886867651163
  0
ARC
  5
12050
  8
0
 10
3781.4608064764611299
 20
224.9891267897118894
 30
0.0
 40
1.889856876770615
 50
78.1767706076778666
 51
84.5848969540630122
  0
ARC
  5
12051
  8
0
 10
3781.7229655096080023
 20
226.2008152622321973
 30
0.0
 40
0.6502139501005546
 50
65.7755361410622754
 51
78.9108879947500128
  0
ARC
  5
12052
  8
0
 10
3781.941385881745191
 20
226.6788573919527892
 30
0.0
 40
0.1246823033079932
 50
38.7166392656666076
 51
67.1729943787010058
  0
ARC
  5
12053
  8
0
 10
3782.0083892736870439
 20
226.7350017122583949
 30
0.0
 40
0.0373347146582324
 50
1.498464999738744
 51
35.802652142122561
  0
ARC
  5
12054
  8
0
 10
3782.0095729225690775
 20
226.7366071968469043
 30
0.0
 40
0.0361437748979303
 50
331.554155125024181
 51
359.0025688754773228
  0
ARC
  5
12055
  8
0
 10
3781.9617017299137842
 20
226.7711839118996124
 30
0.0
 40
0.0950096648530701
 50
299.1645473511338196
 51
326.9661752846199079
  0
ARC
  5
12056
  8
0
 10
3781.7961805242421178
 20
227.069717683443713
 30
0.0
 40
0.4363591750985265
 50
283.4276465252992807
 51
299.0405626503206236
  0
LINE
  5
12057
  8
0
 10
3782.0457112208409853
 20
226.7359780212692897
 30
0.0
 11
3782.0457112208409853
 21
226.760668646069206
 31
0.0
  0
ARC
  5
12058
  8
0
 10
3781.3777061516739195
 20
225.4055222627185913
 30
0.0
 40
1.3296688787476589
 50
80.6297374826040425
 51
85.4728505791605215
  0
ARC
  5
12059
  8
0
 10
3781.5114794618361884
 20
226.1700325731007126
 30
0.0
 40
0.5536304436232602
 50
69.5836212560154905
 51
81.4075425766882717
  0
ARC
  5
1205A
  8
0
 10
3781.6676814367638144
 20
226.5865400478467961
 30
0.0
 40
0.1088030285482912
 50
46.0996682694967177
 51
70.1604030202094719
  0
ARC
  5
1205B
  8
0
 10
3781.7253690866259603
 20
226.6480433589406118
 30
0.0
 40
0.024509844066716
 50
3.0116648697793269
 51
43.5739481342466277
  0
ARC
  5
1205C
  8
0
 10
3781.7170332047007832
 20
226.6502793004027865
 30
0.0
 40
0.0328255725120184
 50
320.8274464968885127
 51
358.3447016099131019
  0
ARC
  5
1205D
  8
0
 10
3781.6240525422799692
 20
226.7633405255832031
 30
0.0
 40
0.1786802663784811
 50
281.5256411625967985
 51
311.51347407747528
  0
ARC
  5
1205E
  8
0
 10
3781.4245389858870112
 20
227.5079104148406941
 30
0.0
 40
0.9492507387538225
 50
275.3509644388888091
 51
284.3467858117476794
  0
ARC
  5
1205F
  8
0
 10
3781.3761184560498805
 20
227.8706070457654107
 30
0.0
 40
1.3149609989754429
 50
274.4890542504548989
 51
275.9777980311844772
  0
ARC
  5
12060
  8
0
 10
3781.5244260924760056
 20
226.4029177309516001
 30
0.0
 40
0.2909292421392054
 50
64.7875429697132432
 51
77.4289678847065659
  0
ARC
  5
12061
  8
0
 10
3781.6222649926048689
 20
226.6107186946175887
 30
0.0
 40
0.061247525672698
 50
41.4025943452002423
 51
64.7875429697132432
  0
ARC
  5
12062
  8
0
 10
3781.6552029318008863
 20
226.639760044951089
 30
0.0
 40
0.0173350232649808
 50
323.7139239928408756
 51
41.4025943452002423
  0
ARC
  5
12063
  8
0
 10
3781.5618927829141285
 20
226.7576661533672109
 30
0.0
 40
0.1671408737628711
 50
278.9092405924328091
 51
309.9317222379884811
  0
ARC
  5
12064
  8
0
 10
3781.3893729583928689
 20
227.4810796766633132
 30
0.0
 40
0.9104196650651706
 50
274.5202509062025911
 51
282.5872957353388983
  0
ARC
  5
12065
  8
0
 10
3781.3328339814679566
 20
228.0612693494514929
 30
0.0
 40
1.4932984886598211
 50
271.6244978283735918
 51
274.9284014469087083
  0
ARC
  5
12066
  8
0
 10
3781.3273633456428797
 20
228.2124120945730112
 30
0.0
 40
1.6445360005354841
 50
269.9945631447122878
 51
271.6657375493534232
  0
ARC
  5
12067
  8
0
 10
3781.3313555561107933
 20
227.7620770206536065
 30
0.0
 40
1.157274666146128
 50
269.7946217874750232
 51
277.0091761298477877
  0
ARC
  5
12068
  8
0
 10
3781.4055107118188062
 20
227.1589303319705948
 30
0.0
 40
0.5495864934890164
 50
277.0091761298477877
 51
286.195217555947977
  0
ARC
  5
12069
  8
0
 10
3781.5250541779528248
 20
226.7473307904191131
 30
0.0
 40
0.1209784873801844
 50
286.195217555947977
 51
303.6776753107341733
  0
ARC
  5
1206A
  8
0
 10
3781.5838946887029124
 20
226.6619383536435066
 30
0.0
 40
0.0173643140137409
 50
298.3460693714707759
 51
32.9886867326779267
  0
ARC
  5
1206B
  8
0
 10
3781.532019465852045
 20
226.5989850648369952
 30
0.0
 40
0.0982708092386887
 50
47.4610546604600287
 51
69.4913010513234752
  0
ARC
  5
1206C
  8
0
 10
3781.3279439853131407
 20
228.0359181973585976
 30
0.0
 40
1.4383838559305739
 50
269.9706546778912752
 51
273.4581800610156961
  0
LINE
  5
1206D
  8
0
 10
3781.4147072838409258
 20
226.6001535066693009
 30
0.0
 11
3781.4147072838409258
 21
226.5958303383692964
 31
0.0
  0
ARC
  5
1206E
  8
0
 10
3781.3443073248868131
 20
227.855598009573697
 30
0.0
 40
1.26173322839365
 50
273.1985496592766935
 51
276.6457679774202916
  0
LINE
  5
1206F
  8
0
 10
3781.4908110709411631
 20
226.6072395589692974
 30
0.0
 11
3781.4903284959409575
 21
226.6023428251693019
 31
0.0
  0
LINE
  5
12070
  8
0
 10
3781.4903284959409575
 20
226.6023428251693019
 30
0.0
 11
3781.4756254188409912
 21
226.6053997667692954
 31
0.0
  0
ARC
  5
12071
  8
0
 10
3781.3830107043668249
 20
227.4400379505999865
 30
0.0
 40
0.8397609083812877
 50
276.3318603379393039
 51
280.2151472987425791
  0
ARC
  5
12072
  8
0
 10
3781.4714420960322059
 20
226.9845619642750023
 30
0.0
 40
0.3758739442187208
 50
279.2618926029783779
 51
289.8979258413040156
  0
LINE
  5
12073
  8
0
 10
3781.5993691055409727
 20
226.6311275259691911
 30
0.0
 11
3781.614072182640939
 21
226.6280705843691976
 31
0.0
  0
ARC
  5
12074
  8
0
 10
3781.5767414555530195
 20
226.7415063277668992
 30
0.0
 40
0.1194204800905791
 50
288.2159305453835145
 51
305.0921748143564969
  0
LINE
  5
12075
  8
0
 10
3781.645395514241045
 20
226.6437931183693024
 30
0.0
 11
3781.6483549689410211
 21
226.6661314416693074
 31
0.0
  0
LINE
  5
12076
  8
0
 10
3781.645395514241045
 20
226.6437931183693024
 30
0.0
 11
3781.6246022232407995
 21
226.6437931183693024
 31
0.0
  0
ARC
  5
12077
  8
0
 10
3781.6086278775001119
 20
226.6696993597765868
 30
0.0
 40
0.0304353916630919
 50
301.6588766632686998
 51
335.1211881362125951
  0
ARC
  5
12078
  8
0
 10
3781.6233880412878534
 20
226.6619764348562001
 30
0.0
 40
0.0138189199362552
 50
338.4259888740552924
 51
19.0469009570465992
  0
ARC
  5
12079
  8
0
 10
3781.6169601504188904
 20
226.6594702313915946
 30
0.0
 40
0.0207145513064149
 50
19.7973358340710206
 51
40.6137666441324967
  0
ARC
  5
1207A
  8
0
 10
3781.3286599348480195
 20
227.8694974744090871
 30
0.0
 40
1.2402348457640431
 50
269.9328911043419907
 51
274.7335790992214015
  0
ARC
  5
1207B
  8
0
 10
3781.3613321775469558
 20
227.4749291002933944
 30
0.0
 40
0.8443160696303209
 50
274.7335790992214015
 51
280.7693132273140009
  0
ARC
  5
1207C
  8
0
 10
3781.4601271363408159
 20
226.9555165547548086
 30
0.0
 40
0.3155913431931189
 50
280.7693132273140009
 51
290.9783306020519831
  0
ARC
  5
1207D
  8
0
 10
3781.5443221661121243
 20
226.7359328155764899
 30
0.0
 40
0.080419445319024
 50
290.9783306020519831
 51
309.5788155972358027
  0
ARC
  5
1207E
  8
0
 10
3781.4698403209608841
 20
226.908467114661903
 30
0.0
 40
0.1362195376142476
 50
269.7217609411047192
 51
277.9485194761086859
  0
ARC
  5
1207F
  8
0
 10
3781.4813577624831851
 20
226.8259785460444959
 30
0.0
 40
0.0529307904046606
 50
277.9485194761086859
 51
294.5676098099718274
  0
ARC
  5
12080
  8
0
 10
3781.4974309496451497
 20
226.7891697739011931
 30
0.0
 40
0.012789969910392
 50
297.6411129625299736
 51
348.3325267836415833
  0
LINE
  5
12081
  8
0
 10
3781.509956650319964
 20
226.7865832409117957
 30
0.0
 11
3781.5190894976199161
 21
226.8372104841118073
 31
0.0
  0
ARC
  5
12082
  8
0
 10
3781.5256242071491215
 20
226.8366406674855114
 30
0.0
 40
0.0065595060501205
 50
151.934791357671088
 51
175.0165013842859025
  0
ARC
  5
12083
  8
0
 10
3781.5106422364528953
 20
226.8689171378954086
 30
0.0
 40
0.0306039836963088
 50
287.4823018255546003
 51
299.3445335393992082
  0
ARC
  5
12084
  8
0
 10
3781.5219276380280462
 20
226.8492476901737973
 30
0.0
 40
0.0079303001568359
 50
297.9128083027317757
 51
326.8357396874557139
  0
ARC
  5
12085
  8
0
 10
3781.526110730092114
 20
226.8463413884925899
 30
0.0
 40
0.0028424215689928
 50
329.7509116742958213
 51
38.494312870135893
  0
ARC
  5
12086
  8
0
 10
3781.5060102311808805
 20
226.8177759807169878
 30
0.0
 40
0.0376643553221677
 50
53.6482980713251507
 51
79.6726806629750826
  0
ARC
  5
12087
  8
0
 10
3781.4715496836170132
 20
226.6410181994438915
 30
0.0
 40
0.2177476531729865
 50
79.0899250789545505
 51
90.6238569968888044
  0
ARC
  5
12088
  8
0
 10
3781.4697718133079434
 20
226.7067359964329967
 30
0.0
 40
0.0762916037327328
 50
80.9190260002214359
 51
90.445351625451778
  0
ARC
  5
12089
  8
0
 10
3781.4781314032261434
 20
226.7590378662204955
 30
0.0
 40
0.0233258758809772
 50
65.6341586946674909
 51
80.9190260002214359
  0
ARC
  5
1208A
  8
0
 10
3781.4869017067189816
 20
226.7784025722089893
 30
0.0
 40
0.0020676995391734
 50
39.322399020385582
 51
65.6341586946688267
  0
ARC
  5
1208B
  8
0
 10
3781.4875483169012114
 20
226.7789322387754964
 30
0.0
 40
0.0012318458446677
 50
321.3133744291266112
 51
39.322399020385582
  0
ARC
  5
1208C
  8
0
 10
3781.4838900652148368
 20
226.7836812772081032
 30
0.0
 40
0.007197368190672
 50
285.9576655456490926
 51
309.9316794190203836
  0
ARC
  5
1208D
  8
0
 10
3781.4734881189788211
 20
226.8201247156023044
 30
0.0
 40
0.0450962419832168
 50
273.5124033189650845
 51
285.9345700259041791
  0
ARC
  5
1208E
  8
0
 10
3781.4692586777769066
 20
226.8644139284228913
 30
0.0
 40
0.0895740721583248
 50
269.948916601839926
 51
274.4771227864374055
  0
ARC
  5
1208F
  8
0
 10
3781.4696682129369947
 20
226.6215313914995875
 30
0.0
 40
0.1738421321903845
 50
83.0738241668538677
 51
90.161298186281968
  0
ARC
  5
12090
  8
0
 10
3781.4805848827359114
 20
226.7113976356039018
 30
0.0
 40
0.083315254916772
 50
74.574552824064213
 51
83.0738241668538677
  0
ARC
  5
12091
  8
0
 10
3781.4967710019759579
 20
226.7700591944280006
 30
0.0
 40
0.0224615866646342
 50
60.6692011450041875
 51
74.574552824064213
  0
ARC
  5
12092
  8
0
 10
3781.5058021591730721
 20
226.7859259209108131
 30
0.0
 40
0.004206170024021
 50
8.9907603202011082
 51
62.046277067239977
  0
ARC
  5
12093
  8
0
 10
3781.4685173108791787
 20
226.908467114661903
 30
0.0
 40
0.1362195376142476
 50
262.0514805238912004
 51
270.2782390588953945
  0
ARC
  5
12094
  8
0
 10
3781.4569998693568778
 20
226.8259785460444959
 30
0.0
 40
0.0529307904046606
 50
245.432390190028201
 51
262.0514805238912004
  0
ARC
  5
12095
  8
0
 10
3781.4409266821949132
 20
226.7891697739011931
 30
0.0
 40
0.012789969910392
 50
191.667473216358303
 51
242.3588870374699979
  0
LINE
  5
12096
  8
0
 10
3781.4284009815200989
 20
226.7865832409117957
 30
0.0
 11
3781.4192681342201467
 21
226.8372104841118073
 31
0.0
  0
ARC
  5
12097
  8
0
 10
3781.4127334246900318
 20
226.8366406674855114
 30
0.0
 40
0.0065595060501205
 50
4.9834986157141099
 51
28.0652086423289191
  0
ARC
  5
12098
  8
0
 10
3781.4277153953858033
 20
226.8689171378954086
 30
0.0
 40
0.0306039836963088
 50
240.6554664606007066
 51
252.5176981744453997
  0
ARC
  5
12099
  8
0
 10
3781.4164299938111071
 20
226.8492476901737973
 30
0.0
 40
0.0079303001568359
 50
213.1642603125428934
 51
242.0871916972681959
  0
ARC
  5
1209A
  8
0
 10
3781.4122469017479489
 20
226.8463413884925899
 30
0.0
 40
0.0028424215689928
 50
141.5056871298640999
 51
210.2490883257042071
  0
ARC
  5
1209B
  8
0
 10
3781.4323474006591823
 20
226.8177759807169878
 30
0.0
 40
0.0376643553221677
 50
100.3273193370249032
 51
126.3517019286747995
  0
ARC
  5
1209C
  8
0
 10
3781.4668079482221401
 20
226.6410181994438915
 30
0.0
 40
0.2177476531729865
 50
89.3761430031111956
 51
100.9100749210454069
  0
ARC
  5
1209D
  8
0
 10
3781.4685858185321194
 20
226.7067359964329967
 30
0.0
 40
0.0762916037327328
 50
89.554648374548222
 51
99.0809739997785641
  0
ARC
  5
1209E
  8
0
 10
3781.4602262286139194
 20
226.7590378662204955
 30
0.0
 40
0.0233258758809772
 50
99.0809739997785641
 51
114.3658413053324949
  0
ARC
  5
1209F
  8
0
 10
3781.4514559251201717
 20
226.7784025722089893
 30
0.0
 40
0.0020676995391734
 50
114.3658413053311023
 51
140.6776009796143967
  0
ARC
  5
120A0
  8
0
 10
3781.4508093149388515
 20
226.7789322387754964
 30
0.0
 40
0.0012318458446677
 50
140.6776009796143967
 51
218.6866255708721098
  0
ARC
  5
120A1
  8
0
 10
3781.4544675666238618
 20
226.7836812772081032
 30
0.0
 40
0.007197368190672
 50
230.0683205809795879
 51
254.0423344543507937
  0
ARC
  5
120A2
  8
0
 10
3781.4648695128598774
 20
226.8201247156023044
 30
0.0
 40
0.0450962419832168
 50
254.0654299740957072
 51
266.4875966810348018
  0
ARC
  5
120A3
  8
0
 10
3781.469098954061792
 20
226.8644139284228913
 30
0.0
 40
0.0895740721583248
 50
265.5228772135625945
 51
270.051083398160074
  0
ARC
  5
120A4
  8
0
 10
3781.4686894189030681
 20
226.6215313914995875
 30
0.0
 40
0.1738421321903845
 50
89.8387018137180462
 51
96.9261758331461465
  0
ARC
  5
120A5
  8
0
 10
3781.4577727491041514
 20
226.7113976356039018
 30
0.0
 40
0.083315254916772
 50
96.9261758331461465
 51
105.4254471759358012
  0
ARC
  5
120A6
  8
0
 10
3781.4415866298641049
 20
226.7700591944280006
 30
0.0
 40
0.0224615866646342
 50
105.4254471759358012
 51
119.3307988549958054
  0
ARC
  5
120A7
  8
0
 10
3781.4325554726669907
 20
226.7859259209108131
 30
0.0
 40
0.004206170024021
 50
117.9537229327600016
 51
171.0092396797988954
  0
ARC
  5
120A8
  8
0
 10
3781.5808215447818839
 20
226.8892122137193041
 30
0.0
 40
0.1362195376142476
 50
269.7217609411047192
 51
277.9485194761086859
  0
ARC
  5
120A9
  8
0
 10
3781.5923389863028206
 20
226.8067236451018971
 30
0.0
 40
0.0529307904046606
 50
277.9485194761086859
 51
294.5676098099718274
  0
ARC
  5
120AA
  8
0
 10
3781.6084121734647852
 20
226.7699148729585943
 30
0.0
 40
0.012789969910392
 50
297.6411129625299736
 51
348.3325267836415833
  0
LINE
  5
120AB
  8
0
 10
3781.6209378741409637
 20
226.7673283399691968
 30
0.0
 11
3781.6300707214409158
 21
226.8179555831692937
 31
0.0
  0
ARC
  5
120AC
  8
0
 10
3781.6366054309701212
 20
226.8173857665429125
 30
0.0
 40
0.0065595060501205
 50
151.934791357671088
 51
175.0165013842859025
  0
ARC
  5
120AD
  8
0
 10
3781.621623460273895
 20
226.849662236952895
 30
0.0
 40
0.0306039836963088
 50
287.4823018255546003
 51
299.3445335393992082
  0
ARC
  5
120AE
  8
0
 10
3781.6329088618499554
 20
226.8299927892311985
 30
0.0
 40
0.0079303001568359
 50
297.9128083027317757
 51
326.8357396874557139
  0
ARC
  5
120AF
  8
0
 10
3781.6370919539131137
 20
226.827086487549991
 30
0.0
 40
0.0028424215689928
 50
329.7509116742958213
 51
38.494312870135893
  0
ARC
  5
120B0
  8
0
 10
3781.6169914550018802
 20
226.7985210797743889
 30
0.0
 40
0.0376643553221677
 50
53.6482980713251507
 51
79.6726806629750826
  0
ARC
  5
120B1
  8
0
 10
3781.5825309074380129
 20
226.6217632985012926
 30
0.0
 40
0.2177476531729865
 50
79.0899250789545505
 51
90.6238569968888044
  0
ARC
  5
120B2
  8
0
 10
3781.5807530371289431
 20
226.6874810954903978
 30
0.0
 40
0.0762916037327328
 50
80.9190260002214359
 51
90.445351625451778
  0
ARC
  5
120B3
  8
0
 10
3781.5891126270471432
 20
226.7397829652778967
 30
0.0
 40
0.0233258758809772
 50
65.6341586946674909
 51
80.9190260002214359
  0
ARC
  5
120B4
  8
0
 10
3781.5978829305399813
 20
226.7591476712663052
 30
0.0
 40
0.0020676995391734
 50
39.322399020385582
 51
65.6341586946688267
  0
ARC
  5
120B5
  8
0
 10
3781.5985295407222111
 20
226.7596773378328976
 30
0.0
 40
0.0012318458446677
 50
321.3133744291266112
 51
39.322399020385582
  0
ARC
  5
120B6
  8
0
 10
3781.5948712890358365
 20
226.7644263762655044
 30
0.0
 40
0.007197368190672
 50
285.9576655456490926
 51
309.9316794190203836
  0
ARC
  5
120B7
  8
0
 10
3781.5844693428011851
 20
226.8008698146597055
 30
0.0
 40
0.0450962419832168
 50
273.5124033189650845
 51
285.9345700259041791
  0
ARC
  5
120B8
  8
0
 10
3781.5802399015988158
 20
226.8451590274802925
 30
0.0
 40
0.0895740721583248
 50
269.948916601839926
 51
274.4771227864374055
  0
ARC
  5
120B9
  8
0
 10
3781.5806494367579944
 20
226.6022764905569034
 30
0.0
 40
0.1738421321903845
 50
83.0738241668538677
 51
90.161298186281968
  0
ARC
  5
120BA
  8
0
 10
3781.5915661065569111
 20
226.6921427346613029
 30
0.0
 40
0.083315254916772
 50
74.574552824064213
 51
83.0738241668538677
  0
ARC
  5
120BB
  8
0
 10
3781.6077522257969576
 20
226.7508042934854018
 30
0.0
 40
0.0224615866646342
 50
60.6692011450041875
 51
74.574552824064213
  0
ARC
  5
120BC
  8
0
 10
3781.6167833829949814
 20
226.7666710199681006
 30
0.0
 40
0.004206170024021
 50
8.9907603202011082
 51
62.046277067239977
  0
ARC
  5
120BD
  8
0
 10
3781.5794985347001784
 20
226.8892122137193041
 30
0.0
 40
0.1362195376142476
 50
262.0514805238912004
 51
270.2782390588953945
  0
ARC
  5
120BE
  8
0
 10
3781.567981093178787
 20
226.8067236451018971
 30
0.0
 40
0.0529307904046606
 50
245.432390190028201
 51
262.0514805238912004
  0
ARC
  5
120BF
  8
0
 10
3781.5519079060159129
 20
226.7699148729585943
 30
0.0
 40
0.012789969910392
 50
191.667473216358303
 51
242.3588870374699979
  0
LINE
  5
120C0
  8
0
 10
3781.5393822053410986
 20
226.7673283399691968
 30
0.0
 11
3781.5302493580411465
 21
226.8179555831692937
 31
0.0
  0
ARC
  5
120C1
  8
0
 10
3781.523714648511941
 20
226.8173857665429125
 30
0.0
 40
0.0065595060501205
 50
4.9834986157141099
 51
28.0652086423289191
  0
ARC
  5
120C2
  8
0
 10
3781.538696619206803
 20
226.849662236952895
 30
0.0
 40
0.0306039836963088
 50
240.6554664606007066
 51
252.5176981744453997
  0
ARC
  5
120C3
  8
0
 10
3781.5274112176321069
 20
226.8299927892311985
 30
0.0
 40
0.0079303001568359
 50
213.1642603125428934
 51
242.0871916972681959
  0
ARC
  5
120C4
  8
0
 10
3781.5232281255689486
 20
226.827086487549991
 30
0.0
 40
0.0028424215689928
 50
141.5056871298640999
 51
210.2490883257042071
  0
ARC
  5
120C5
  8
0
 10
3781.543328624480182
 20
226.7985210797743889
 30
0.0
 40
0.0376643553221677
 50
100.3273193370249032
 51
126.3517019286747995
  0
ARC
  5
120C6
  8
0
 10
3781.5777891720440493
 20
226.6217632985012926
 30
0.0
 40
0.2177476531729865
 50
89.3761430031111956
 51
100.9100749210454069
  0
ARC
  5
120C7
  8
0
 10
3781.5795670423531192
 20
226.6874810954903978
 30
0.0
 40
0.0762916037327328
 50
89.554648374548222
 51
99.0809739997785641
  0
ARC
  5
120C8
  8
0
 10
3781.5712074524349191
 20
226.7397829652778967
 30
0.0
 40
0.0233258758809772
 50
99.0809739997785641
 51
114.3658413053324949
  0
ARC
  5
120C9
  8
0
 10
3781.562437148942081
 20
226.7591476712663052
 30
0.0
 40
0.0020676995391734
 50
114.3658413053311023
 51
140.6776009796143967
  0
ARC
  5
120CA
  8
0
 10
3781.5617905387598512
 20
226.7596773378328976
 30
0.0
 40
0.0012318458446677
 50
140.6776009796143967
 51
218.6866255708721098
  0
ARC
  5
120CB
  8
0
 10
3781.5654487904462258
 20
226.7644263762655044
 30
0.0
 40
0.007197368190672
 50
230.0683205809795879
 51
254.0423344543507937
  0
ARC
  5
120CC
  8
0
 10
3781.5758507366817867
 20
226.8008698146597055
 30
0.0
 40
0.0450962419832168
 50
254.0654299740957072
 51
266.4875966810348018
  0
ARC
  5
120CD
  8
0
 10
3781.580080177884156
 20
226.8451590274802925
 30
0.0
 40
0.0895740721583248
 50
265.5228772135625945
 51
270.051083398160074
  0
ARC
  5
120CE
  8
0
 10
3781.5796706427240679
 20
226.6022764905569034
 30
0.0
 40
0.1738421321903845
 50
89.8387018137180462
 51
96.9261758331461465
  0
ARC
  5
120CF
  8
0
 10
3781.5687539729251512
 20
226.6921427346613029
 30
0.0
 40
0.083315254916772
 50
96.9261758331461465
 51
105.4254471759358012
  0
ARC
  5
120D0
  8
0
 10
3781.5525678536851046
 20
226.7508042934854018
 30
0.0
 40
0.0224615866646342
 50
105.4254471759358012
 51
119.3307988549958054
  0
ARC
  5
120D1
  8
0
 10
3781.5435366964879904
 20
226.7666710199681006
 30
0.0
 40
0.004206170024021
 50
117.9537229327600016
 51
171.0092396797988954
  0
ARC
  5
120D2
  8
0
 10
3781.7158031587819096
 20
226.8787765739193105
 30
0.0
 40
0.1362195376142476
 50
269.7217609411047192
 51
277.9485194761086859
  0
ARC
  5
120D3
  8
0
 10
3781.7273206003042105
 20
226.7962880053019035
 30
0.0
 40
0.0529307904046606
 50
277.9485194761086859
 51
294.5676098099718274
  0
ARC
  5
120D4
  8
0
 10
3781.7433937874661751
 20
226.7594792331586007
 30
0.0
 40
0.012789969910392
 50
297.6411129625299736
 51
348.3325267836415833
  0
LINE
  5
120D5
  8
0
 10
3781.7559194881409894
 20
226.7568927001692032
 30
0.0
 11
3781.7650523354409415
 21
226.8075199433693001
 31
0.0
  0
ARC
  5
120D6
  8
0
 10
3781.771587044970147
 20
226.8069501267428905
 30
0.0
 40
0.0065595060501205
 50
151.934791357671088
 51
175.0165013842859025
  0
ARC
  5
120D7
  8
0
 10
3781.7566050742748303
 20
226.8392265971527877
 30
0.0
 40
0.0306039836963088
 50
287.4823018255546003
 51
299.3445335393992082
  0
ARC
  5
120D8
  8
0
 10
3781.7678904758499812
 20
226.8195571494312048
 30
0.0
 40
0.0079303001568359
 50
297.9128083027317757
 51
326.8357396874557139
  0
ARC
  5
120D9
  8
0
 10
3781.7720735679131394
 20
226.8166508477499974
 30
0.0
 40
0.0028424215689928
 50
329.7509116742958213
 51
38.494312870135893
  0
ARC
  5
120DA
  8
0
 10
3781.7519730690028155
 20
226.7880854399743953
 30
0.0
 40
0.0376643553221677
 50
53.6482980713251507
 51
79.6726806629750826
  0
ARC
  5
120DB
  8
0
 10
3781.7175125214380387
 20
226.6113276587014127
 30
0.0
 40
0.2177476531729865
 50
79.0899250789545505
 51
90.6238569968888044
  0
ARC
  5
120DC
  8
0
 10
3781.7157346511289688
 20
226.6770454556904042
 30
0.0
 40
0.0762916037327328
 50
80.9190260002214359
 51
90.445351625451778
  0
ARC
  5
120DD
  8
0
 10
3781.7240942410471689
 20
226.729347325477903
 30
0.0
 40
0.0233258758809772
 50
65.6341586946674909
 51
80.9190260002214359
  0
ARC
  5
120DE
  8
0
 10
3781.732864544540007
 20
226.7487120314663969
 30
0.0
 40
0.0020676995391734
 50
39.322399020385582
 51
65.6341586946688267
  0
ARC
  5
120DF
  8
0
 10
3781.7335111547217821
 20
226.749241698032904
 30
0.0
 40
0.0012318458446677
 50
321.3133744291266112
 51
39.322399020385582
  0
ARC
  5
120E0
  8
0
 10
3781.7298529030358623
 20
226.7539907364655107
 30
0.0
 40
0.007197368190672
 50
285.9576655456490926
 51
309.9316794190203836
  0
ARC
  5
120E1
  8
0
 10
3781.7194509568012109
 20
226.7904341748597119
 30
0.0
 40
0.0450962419832168
 50
273.5124033189650845
 51
285.9345700259041791
  0
ARC
  5
120E2
  8
0
 10
3781.7152215155988415
 20
226.8347233876804125
 30
0.0
 40
0.0895740721583248
 50
269.948916601839926
 51
274.4771227864374055
  0
ARC
  5
120E3
  8
0
 10
3781.7156310507580201
 20
226.591840850756995
 30
0.0
 40
0.1738421321903845
 50
83.0738241668538677
 51
90.161298186281968
  0
ARC
  5
120E4
  8
0
 10
3781.7265477205569368
 20
226.6817070948613093
 30
0.0
 40
0.083315254916772
 50
74.574552824064213
 51
83.0738241668538677
  0
ARC
  5
120E5
  8
0
 10
3781.7427338397969834
 20
226.7403686536854082
 30
0.0
 40
0.0224615866646342
 50
60.6692011450041875
 51
74.574552824064213
  0
ARC
  5
120E6
  8
0
 10
3781.7517649969940976
 20
226.7562353801681923
 30
0.0
 40
0.004206170024021
 50
8.9907603202011082
 51
62.046277067239977
  0
ARC
  5
120E7
  8
0
 10
3781.7144801487002042
 20
226.8787765739193105
 30
0.0
 40
0.1362195376142476
 50
262.0514805238912004
 51
270.2782390588953945
  0
ARC
  5
120E8
  8
0
 10
3781.7029627071779032
 20
226.7962880053019035
 30
0.0
 40
0.0529307904046606
 50
245.432390190028201
 51
262.0514805238912004
  0
ARC
  5
120E9
  8
0
 10
3781.6868895200159386
 20
226.7594792331586007
 30
0.0
 40
0.012789969910392
 50
191.667473216358303
 51
242.3588870374699979
  0
LINE
  5
120EA
  8
0
 10
3781.6743638193411243
 20
226.7568927001692032
 30
0.0
 11
3781.6652309720411722
 21
226.8075199433693001
 31
0.0
  0
ARC
  5
120EB
  8
0
 10
3781.6586962625119668
 20
226.8069501267428905
 30
0.0
 40
0.0065595060501205
 50
4.9834986157141099
 51
28.0652086423289191
  0
ARC
  5
120EC
  8
0
 10
3781.6736782332068287
 20
226.8392265971527877
 30
0.0
 40
0.0306039836963088
 50
240.6554664606007066
 51
252.5176981744453997
  0
ARC
  5
120ED
  8
0
 10
3781.6623928316330421
 20
226.8195571494312048
 30
0.0
 40
0.0079303001568359
 50
213.1642603125428934
 51
242.0871916972681959
  0
ARC
  5
120EE
  8
0
 10
3781.6582097395689743
 20
226.8166508477499974
 30
0.0
 40
0.0028424215689928
 50
141.5056871298640999
 51
210.2490883257042071
  0
ARC
  5
120EF
  8
0
 10
3781.6783102384802078
 20
226.7880854399743953
 30
0.0
 40
0.0376643553221677
 50
100.3273193370249032
 51
126.3517019286747995
  0
ARC
  5
120F0
  8
0
 10
3781.7127707860440751
 20
226.6113276587014127
 30
0.0
 40
0.2177476531729865
 50
89.3761430031111956
 51
100.9100749210454069
  0
ARC
  5
120F1
  8
0
 10
3781.7145486563531449
 20
226.6770454556904042
 30
0.0
 40
0.0762916037327328
 50
89.554648374548222
 51
99.0809739997785641
  0
ARC
  5
120F2
  8
0
 10
3781.7061890664349448
 20
226.729347325477903
 30
0.0
 40
0.0233258758809772
 50
99.0809739997785641
 51
114.3658413053324949
  0
ARC
  5
120F3
  8
0
 10
3781.6974187629421067
 20
226.7487120314663969
 30
0.0
 40
0.0020676995391734
 50
114.3658413053311023
 51
140.6776009796143967
  0
ARC
  5
120F4
  8
0
 10
3781.6967721527598769
 20
226.749241698032904
 30
0.0
 40
0.0012318458446677
 50
140.6776009796143967
 51
218.6866255708721098
  0
ARC
  5
120F5
  8
0
 10
3781.7004304044457967
 20
226.7539907364655107
 30
0.0
 40
0.007197368190672
 50
230.0683205809795879
 51
254.0423344543507937
  0
ARC
  5
120F6
  8
0
 10
3781.7108323506818124
 20
226.7904341748597119
 30
0.0
 40
0.0450962419832168
 50
254.0654299740957072
 51
266.4875966810348018
  0
ARC
  5
120F7
  8
0
 10
3781.7150617918841817
 20
226.8347233876804125
 30
0.0
 40
0.0895740721583248
 50
265.5228772135625945
 51
270.051083398160074
  0
ARC
  5
120F8
  8
0
 10
3781.7146522567240936
 20
226.591840850756995
 30
0.0
 40
0.1738421321903845
 50
89.8387018137180462
 51
96.9261758331461465
  0
ARC
  5
120F9
  8
0
 10
3781.7037355869251769
 20
226.6817070948613093
 30
0.0
 40
0.083315254916772
 50
96.9261758331461465
 51
105.4254471759358012
  0
ARC
  5
120FA
  8
0
 10
3781.6875494676851304
 20
226.7403686536854082
 30
0.0
 40
0.0224615866646342
 50
105.4254471759358012
 51
119.3307988549958054
  0
ARC
  5
120FB
  8
0
 10
3781.6785183104871066
 20
226.7562353801681923
 30
0.0
 40
0.004206170024021
 50
117.9537229327600016
 51
171.0092396797988954
  0
ARC
  5
120FC
  8
0
 10
3781.7659958140820891
 20
226.8507123183192959
 30
0.0
 40
0.1362195376142476
 50
269.7217609411047192
 51
277.9485194761086859
  0
ARC
  5
120FD
  8
0
 10
3781.7775132556030258
 20
226.7682237497018889
 30
0.0
 40
0.0529307904046606
 50
277.9485194761086859
 51
294.5676098099718274
  0
ARC
  5
120FE
  8
0
 10
3781.7935864427649904
 20
226.7314149775585861
 30
0.0
 40
0.012789969910392
 50
297.6411129625299736
 51
348.3325267836415833
  0
LINE
  5
120FF
  8
0
 10
3781.8061121434411689
 20
226.7288284445693023
 30
0.0
 11
3781.815244990741121
 21
226.779455687769314
 31
0.0
  0
ARC
  5
12100
  8
0
 10
3781.8217797002698717
 20
226.7788858711429043
 30
0.0
 40
0.0065595060501205
 50
151.934791357671088
 51
175.0165013842859025
  0
ARC
  5
12101
  8
0
 10
3781.8067977295741002
 20
226.8111623415528868
 30
0.0
 40
0.0306039836963088
 50
287.4823018255546003
 51
299.3445335393992082
  0
ARC
  5
12102
  8
0
 10
3781.8180831311487964
 20
226.7914928938311903
 30
0.0
 40
0.0079303001568359
 50
297.9128083027317757
 51
326.8357396874557139
  0
ARC
  5
12103
  8
0
 10
3781.8222662232119546
 20
226.7885865921500113
 30
0.0
 40
0.0028424215689928
 50
329.7509116742958213
 51
38.494312870135893
  0
ARC
  5
12104
  8
0
 10
3781.8021657243020854
 20
226.7600211843744091
 30
0.0
 40
0.0376643553221677
 50
53.6482980713251507
 51
79.6726806629750826
  0
ARC
  5
12105
  8
0
 10
3781.7677051767382181
 20
226.5832634031013129
 30
0.0
 40
0.2177476531729865
 50
79.0899250789545505
 51
90.6238569968888044
  0
ARC
  5
12106
  8
0
 10
3781.7659273064291483
 20
226.6489812000903896
 30
0.0
 40
0.0762916037327328
 50
80.9190260002214359
 51
90.445351625451778
  0
ARC
  5
12107
  8
0
 10
3781.7742868963468936
 20
226.7012830698778885
 30
0.0
 40
0.0233258758809772
 50
65.6341586946674909
 51
80.9190260002214359
  0
ARC
  5
12108
  8
0
 10
3781.7830571998401865
 20
226.7206477758664107
 30
0.0
 40
0.0020676995391734
 50
39.322399020385582
 51
65.6341586946688267
  0
ARC
  5
12109
  8
0
 10
3781.7837038100219615
 20
226.7211774424328894
 30
0.0
 40
0.0012318458446677
 50
321.3133744291266112
 51
39.322399020385582
  0
ARC
  5
1210A
  8
0
 10
3781.7800455583360417
 20
226.7259264808654962
 30
0.0
 40
0.007197368190672
 50
285.9576655456490926
 51
309.9316794190203836
  0
ARC
  5
1210B
  8
0
 10
3781.7696436121009356
 20
226.7623699192596973
 30
0.0
 40
0.0450962419832168
 50
273.5124033189650845
 51
285.9345700259041791
  0
ARC
  5
1210C
  8
0
 10
3781.7654141708981115
 20
226.806659132080398
 30
0.0
 40
0.0895740721583248
 50
269.948916601839926
 51
274.4771227864374055
  0
ARC
  5
1210D
  8
0
 10
3781.7658237060581996
 20
226.5637765951570088
 30
0.0
 40
0.1738421321903845
 50
83.0738241668538677
 51
90.161298186281968
  0
ARC
  5
1210E
  8
0
 10
3781.7767403758571163
 20
226.6536428392612947
 30
0.0
 40
0.083315254916772
 50
74.574552824064213
 51
83.0738241668538677
  0
ARC
  5
1210F
  8
0
 10
3781.7929264950971628
 20
226.7123043980853936
 30
0.0
 40
0.0224615866646342
 50
60.6692011450041875
 51
74.574552824064213
  0
ARC
  5
12110
  8
0
 10
3781.8019576522938223
 20
226.7281711245682061
 30
0.0
 40
0.004206170024021
 50
8.9907603202011082
 51
62.046277067239977
  0
ARC
  5
12111
  8
0
 10
3781.7646728039999289
 20
226.8507123183192959
 30
0.0
 40
0.1362195376142476
 50
262.0514805238912004
 51
270.2782390588953945
  0
ARC
  5
12112
  8
0
 10
3781.7531553624789922
 20
226.7682237497018889
 30
0.0
 40
0.0529307904046606
 50
245.432390190028201
 51
262.0514805238912004
  0
ARC
  5
12113
  8
0
 10
3781.7370821753161181
 20
226.7314149775585861
 30
0.0
 40
0.012789969910392
 50
191.667473216358303
 51
242.3588870374699979
  0
LINE
  5
12114
  8
0
 10
3781.724556474640849
 20
226.7288284445693023
 30
0.0
 11
3781.7220540341581909
 21
226.7427005327332097
 31
0.0
  0
ARC
  5
12115
  8
0
 10
3781.7629634413437998
 20
226.5832634031013129
 30
0.0
 40
0.2177476531729865
 50
89.3761430031111956
 51
89.7593980925523027
  0
ARC
  5
12116
  8
0
 10
3781.7647413116528696
 20
226.6489812000903896
 30
0.0
 40
0.0762916037327328
 50
89.554648374548222
 51
99.0809739997785641
  0
ARC
  5
12117
  8
0
 10
3781.7563817217351243
 20
226.7012830698778885
 30
0.0
 40
0.0233258758809772
 50
99.0809739997785641
 51
114.3658413053324949
  0
ARC
  5
12118
  8
0
 10
3781.7476114182418314
 20
226.7206477758664107
 30
0.0
 40
0.0020676995391734
 50
114.3658413053311023
 51
140.6776009796143967
  0
ARC
  5
12119
  8
0
 10
3781.7469648080609659
 20
226.7211774424328894
 30
0.0
 40
0.0012318458446677
 50
140.6776009796143967
 51
218.6866255708721098
  0
ARC
  5
1211A
  8
0
 10
3781.7506230597459762
 20
226.7259264808654962
 30
0.0
 40
0.007197368190672
 50
230.0683205809795879
 51
254.0423344543507937
  0
ARC
  5
1211B
  8
0
 10
3781.7610250059819919
 20
226.7623699192596973
 30
0.0
 40
0.0450962419832168
 50
254.0654299740957072
 51
266.4875966810348018
  0
ARC
  5
1211C
  8
0
 10
3781.765254447182997
 20
226.806659132080398
 30
0.0
 40
0.0895740721583248
 50
265.5228772135625945
 51
270.051083398160074
  0
ARC
  5
1211D
  8
0
 10
3781.7648449120238183
 20
226.5637765951570088
 30
0.0
 40
0.1738421321903845
 50
89.8387018137180462
 51
96.9261758331461465
  0
ARC
  5
1211E
  8
0
 10
3781.7539282422249016
 20
226.6536428392612947
 30
0.0
 40
0.083315254916772
 50
96.9261758331461465
 51
105.4254471759358012
  0
ARC
  5
1211F
  8
0
 10
3781.7377421229839456
 20
226.7123043980853936
 30
0.0
 40
0.0224615866646342
 50
105.4254471759358012
 51
119.3307988549958054
  0
ARC
  5
12120
  8
0
 10
3781.7287109657881956
 20
226.7281711245682061
 30
0.0
 40
0.004206170024021
 50
117.9537229327600016
 51
171.0092396797988954
  0
ARC
  5
12121
  8
0
 10
3781.8577904439821395
 20
226.8276657691193066
 30
0.0
 40
0.1362195376142476
 50
269.7217609411047192
 51
277.9485194761086859
  0
ARC
  5
12122
  8
0
 10
3781.8693078855039857
 20
226.7451772005018995
 30
0.0
 40
0.0529307904046606
 50
277.9485194761086859
 51
294.5676098099718274
  0
ARC
  5
12123
  8
0
 10
3781.8853810726659503
 20
226.7083684283585967
 30
0.0
 40
0.012789969910392
 50
297.6411129625299736
 51
348.3325267836415833
  0
LINE
  5
12124
  8
0
 10
3781.8979067733412194
 20
226.7057818953693129
 30
0.0
 11
3781.9070396206411715
 21
226.7564091385692961
 31
0.0
  0
ARC
  5
12125
  8
0
 10
3781.9135743301699222
 20
226.7558393219428865
 30
0.0
 40
0.0065595060501205
 50
151.934791357671088
 51
175.0165013842859025
  0
ARC
  5
12126
  8
0
 10
3781.8985923594750602
 20
226.7881157923528974
 30
0.0
 40
0.0306039836963088
 50
287.4823018255546003
 51
299.3445335393992082
  0
ARC
  5
12127
  8
0
 10
3781.9098777610488469
 20
226.7684463446312009
 30
0.0
 40
0.0079303001568359
 50
297.9128083027317757
 51
326.8357396874557139
  0
ARC
  5
12128
  8
0
 10
3781.9140608531129146
 20
226.7655400429499934
 30
0.0
 40
0.0028424215689928
 50
329.7509116742958213
 51
38.494312870135893
  0
ARC
  5
12129
  8
0
 10
3781.8939603542021359
 20
226.7369746351743061
 30
0.0
 40
0.0376643553221677
 50
53.6482980713251507
 51
79.6726806629750826
  0
ARC
  5
1212A
  8
0
 10
3781.8594998066378139
 20
226.5602168539014087
 30
0.0
 40
0.2177476531729865
 50
79.0899250789545505
 51
90.6238569968888044
  0
ARC
  5
1212B
  8
0
 10
3781.8577219363291988
 20
226.6259346508904002
 30
0.0
 40
0.0762916037327328
 50
80.9190260002214359
 51
90.445351625451778
  0
ARC
  5
1212C
  8
0
 10
3781.8660815262469441
 20
226.6782365206778991
 30
0.0
 40
0.0233258758809772
 50
65.6341586946674909
 51
80.9190260002214359
  0
ARC
  5
1212D
  8
0
 10
3781.8748518297397823
 20
226.6976012266663929
 30
0.0
 40
0.0020676995391734
 50
39.322399020385582
 51
65.6341586946688267
  0
ARC
  5
1212E
  8
0
 10
3781.875498439922012
 20
226.6981308932329
 30
0.0
 40
0.0012318458446677
 50
321.3133744291266112
 51
39.322399020385582
  0
ARC
  5
1212F
  8
0
 10
3781.8718401882360922
 20
226.7028799316655068
 30
0.0
 40
0.007197368190672
 50
285.9576655456490926
 51
309.9316794190203836
  0
ARC
  5
12130
  8
0
 10
3781.8614382420000766
 20
226.7393233700595943
 30
0.0
 40
0.0450962419832168
 50
273.5124033189650845
 51
285.9345700259041791
  0
ARC
  5
12131
  8
0
 10
3781.857208800798162
 20
226.7836125828804086
 30
0.0
 40
0.0895740721583248
 50
269.948916601839926
 51
274.4771227864374055
  0
ARC
  5
12132
  8
0
 10
3781.8576183359577954
 20
226.540730045956991
 30
0.0
 40
0.1738421321903845
 50
83.0738241668538677
 51
90.161298186281968
  0
ARC
  5
12133
  8
0
 10
3781.8685350057558026
 20
226.6305962900613054
 30
0.0
 40
0.083315254916772
 50
74.574552824064213
 51
83.0738241668538677
  0
ARC
  5
12134
  8
0
 10
3781.8847211249972133
 20
226.6892578488854042
 30
0.0
 40
0.0224615866646342
 50
60.6692011450041875
 51
74.574552824064213
  0
ARC
  5
12135
  8
0
 10
3781.8937522821947823
 20
226.7051245753681883
 30
0.0
 40
0.004206170024021
 50
8.9907603202011082
 51
62.046277067239977
  0
ARC
  5
12136
  8
0
 10
3781.8564674338990699
 20
226.8276657691193066
 30
0.0
 40
0.1362195376142476
 50
262.0514805238912004
 51
270.2782390588953945
  0
ARC
  5
12137
  8
0
 10
3781.8449499923781332
 20
226.7451772005018995
 30
0.0
 40
0.0529307904046606
 50
245.432390190028201
 51
262.0514805238912004
  0
ARC
  5
12138
  8
0
 10
3781.8288768052161686
 20
226.7083684283585967
 30
0.0
 40
0.012789969910392
 50
191.667473216358303
 51
242.3588870374699979
  0
LINE
  5
12139
  8
0
 10
3781.8163511045408995
 20
226.7057818953693129
 30
0.0
 11
3781.8091528952149929
 21
226.745684620358503
 31
0.0
  0
ARC
  5
1213A
  8
0
 10
3781.8547580712438503
 20
226.5602168539014087
 30
0.0
 40
0.2177476531729865
 50
89.3761430031111956
 51
100.7101433190497062
  0
ARC
  5
1213B
  8
0
 10
3781.8565359415520106
 20
226.6259346508904002
 30
0.0
 40
0.0762916037327328
 50
89.554648374548222
 51
99.0809739997785641
  0
ARC
  5
1213C
  8
0
 10
3781.8481763516351748
 20
226.6782365206778991
 30
0.0
 40
0.0233258758809772
 50
99.0809739997785641
 51
114.3658413053324949
  0
ARC
  5
1213D
  8
0
 10
3781.8394060481418819
 20
226.6976012266663929
 30
0.0
 40
0.0020676995391734
 50
114.3658413053311023
 51
140.6776009796143967
  0
ARC
  5
1213E
  8
0
 10
3781.8387594379601069
 20
226.6981308932329
 30
0.0
 40
0.0012318458446677
 50
140.6776009796143967
 51
218.6866255708721098
  0
ARC
  5
1213F
  8
0
 10
3781.8424176896460267
 20
226.7028799316655068
 30
0.0
 40
0.007197368190672
 50
230.0683205809795879
 51
254.0423344543507937
  0
ARC
  5
12140
  8
0
 10
3781.8528196358820423
 20
226.7393233700595943
 30
0.0
 40
0.0450962419832168
 50
254.0654299740957072
 51
266.4875966810348018
  0
ARC
  5
12141
  8
0
 10
3781.8570490770830475
 20
226.7836125828804086
 30
0.0
 40
0.0895740721583248
 50
265.5228772135625945
 51
270.051083398160074
  0
ARC
  5
12142
  8
0
 10
3781.8566395419238688
 20
226.540730045956991
 30
0.0
 40
0.1738421321903845
 50
89.8387018137180462
 51
96.9261758331461465
  0
ARC
  5
12143
  8
0
 10
3781.8457228721249521
 20
226.6305962900613054
 30
0.0
 40
0.083315254916772
 50
96.9261758331461465
 51
105.4254471759358012
  0
ARC
  5
12144
  8
0
 10
3781.8295367528849056
 20
226.6892578488854042
 30
0.0
 40
0.0224615866646342
 50
105.4254471759358012
 51
119.3307988549958054
  0
ARC
  5
12145
  8
0
 10
3781.8205055956877914
 20
226.7051245753681883
 30
0.0
 40
0.004206170024021
 50
117.9537229327600016
 51
171.0092396797988954
  0
ARC
  5
12146
  8
0
 10
3781.8337743006818528
 20
226.7981204830192894
 30
0.0
 40
0.1362195376142476
 50
269.7217609411047192
 51
277.9485194761086859
  0
ARC
  5
12147
  8
0
 10
3781.8452917422041537
 20
226.7156319144019108
 30
0.0
 40
0.0529307904046606
 50
277.9485194761086859
 51
294.5676098099718274
  0
ARC
  5
12148
  8
0
 10
3781.8613649293661183
 20
226.678823142258608
 30
0.0
 40
0.012789969910392
 50
297.6411129625299736
 51
348.3325267836415833
  0
LINE
  5
12149
  8
0
 10
3781.8738906300409326
 20
226.6762366092692105
 30
0.0
 11
3781.8768768285522128
 21
226.6927903732074014
 31
0.0
  0
ARC
  5
1214A
  8
0
 10
3781.8337057930298215
 20
226.5963893647904115
 30
0.0
 40
0.0762916037327328
 50
80.9190260002214359
 51
90.445351625451778
  0
ARC
  5
1214B
  8
0
 10
3781.8420653829471121
 20
226.6486912345779103
 30
0.0
 40
0.0233258758809772
 50
65.6341586946674909
 51
80.9190260002214359
  0
ARC
  5
1214C
  8
0
 10
3781.8508356864399502
 20
226.6680559405664042
 30
0.0
 40
0.0020676995391734
 50
39.322399020385582
 51
65.6341586946688267
  0
ARC
  5
1214D
  8
0
 10
3781.85148229662218
 20
226.6685856071329113
 30
0.0
 40
0.0012318458446677
 50
321.3133744291266112
 51
39.322399020385582
  0
ARC
  5
1214E
  8
0
 10
3781.8478240449358054
 20
226.6733346455654896
 30
0.0
 40
0.007197368190672
 50
285.9576655456490926
 51
309.9316794190203836
  0
ARC
  5
1214F
  8
0
 10
3781.8374220986997898
 20
226.7097780839596908
 30
0.0
 40
0.0450962419832168
 50
273.5124033189650845
 51
285.9345700259041791
  0
ARC
  5
12150
  8
0
 10
3781.8331926574987847
 20
226.7540672967803914
 30
0.0
 40
0.0895740721583248
 50
269.948916601839926
 51
274.4771227864374055
  0
ARC
  5
12151
  8
0
 10
3781.8336021926588728
 20
226.5111847598570023
 30
0.0
 40
0.1738421321903845
 50
83.0738241668538677
 51
90.161298186281968
  0
ARC
  5
12152
  8
0
 10
3781.8445188624559705
 20
226.6010510039612882
 30
0.0
 40
0.083315254916772
 50
74.574552824064213
 51
83.0738241668538677
  0
ARC
  5
12153
  8
0
 10
3781.8607049816969266
 20
226.659712562785387
 30
0.0
 40
0.0224615866646342
 50
60.6692011450041875
 51
74.574552824064213
  0
ARC
  5
12154
  8
0
 10
3781.8697361388940408
 20
226.6755792892681995
 30
0.0
 40
0.004206170024021
 50
8.9907603202011082
 51
62.046277067239977
  0
ARC
  5
12155
  8
0
 10
3781.8324512906001473
 20
226.7981204830192894
 30
0.0
 40
0.1362195376142476
 50
262.0514805238912004
 51
270.2782390588953945
  0
ARC
  5
12156
  8
0
 10
3781.8209338490778464
 20
226.7156319144019108
 30
0.0
 40
0.0529307904046606
 50
245.432390190028201
 51
262.0514805238912004
  0
ARC
  5
12157
  8
0
 10
3781.8048606619158818
 20
226.678823142258608
 30
0.0
 40
0.012789969910392
 50
191.667473216358303
 51
242.3588870374699979
  0
LINE
  5
12158
  8
0
 10
3781.7923349612410675
 20
226.6762366092692105
 30
0.0
 11
3781.7851885143300024
 21
226.7158523932525895
 31
0.0
  0
ARC
  5
12159
  8
0
 10
3781.8325197982521786
 20
226.5963893647904115
 30
0.0
 40
0.0762916037327328
 50
89.554648374548222
 51
99.0809739997785641
  0
ARC
  5
1215A
  8
0
 10
3781.824160208334888
 20
226.6486912345779103
 30
0.0
 40
0.0233258758809772
 50
99.0809739997785641
 51
114.3658413053324949
  0
ARC
  5
1215B
  8
0
 10
3781.8153899048420499
 20
226.6680559405664042
 30
0.0
 40
0.0020676995391734
 50
114.3658413053311023
 51
140.6776009796143967
  0
ARC
  5
1215C
  8
0
 10
3781.8147432946598201
 20
226.6685856071329113
 30
0.0
 40
0.0012318458446677
 50
140.6776009796143967
 51
218.6866255708721098
  0
ARC
  5
1215D
  8
0
 10
3781.8184015463461947
 20
226.6733346455654896
 30
0.0
 40
0.007197368190672
 50
230.0683205809795879
 51
254.0423344543507937
  0
ARC
  5
1215E
  8
0
 10
3781.8288034925822103
 20
226.7097780839596908
 30
0.0
 40
0.0450962419832168
 50
254.0654299740957072
 51
266.4875966810348018
  0
ARC
  5
1215F
  8
0
 10
3781.8330329337832154
 20
226.7540672967803914
 30
0.0
 40
0.0895740721583248
 50
265.5228772135625945
 51
270.051083398160074
  0
ARC
  5
12160
  8
0
 10
3781.8326233986231273
 20
226.5111847598570023
 30
0.0
 40
0.1738421321903845
 50
89.8387018137180462
 51
96.9261758331461465
  0
ARC
  5
12161
  8
0
 10
3781.8217067288260296
 20
226.6010510039612882
 30
0.0
 40
0.083315254916772
 50
96.9261758331461465
 51
105.4254471759358012
  0
ARC
  5
12162
  8
0
 10
3781.8055206095850735
 20
226.659712562785387
 30
0.0
 40
0.0224615866646342
 50
105.4254471759358012
 51
119.3307988549958054
  0
ARC
  5
12163
  8
0
 10
3781.7964894523879593
 20
226.6755792892681995
 30
0.0
 40
0.004206170024021
 50
117.9537229327600016
 51
171.0092396797988954
  0
ARC
  5
12164
  8
0
 10
3781.8577749862911332
 20
226.7685943349308104
 30
0.0
 40
0.1362195376142476
 50
269.7217609411047192
 51
277.9485194761086859
  0
ARC
  5
12165
  8
0
 10
3781.8692924278120699
 20
226.6861057663134034
 30
0.0
 40
0.0529307904046606
 50
277.9485194761086859
 51
294.5676098099718274
  0
ARC
  5
12166
  8
0
 10
3781.8853656149740345
 20
226.6492969941701006
 30
0.0
 40
0.012789969910392
 50
297.6411129625299736
 51
348.3325267836415833
  0
LINE
  5
12167
  8
0
 10
3781.8978913156502131
 20
226.6467104611807031
 30
0.0
 11
3781.9070241629501652
 21
226.6973377043806863
 31
0.0
  0
ARC
  5
12168
  8
0
 10
3781.9135588724789159
 20
226.6967678877543051
 30
0.0
 40
0.0065595060501205
 50
151.934791357671088
 51
175.0165013842859025
  0
ARC
  5
12169
  8
0
 10
3781.8985769017831444
 20
226.7290443581642876
 30
0.0
 40
0.0306039836963088
 50
287.4823018255546003
 51
299.3445335393992082
  0
ARC
  5
1216A
  8
0
 10
3781.9098623033578406
 20
226.709374910442591
 30
0.0
 40
0.0079303001568359
 50
297.9128083027317757
 51
326.8357396874557139
  0
ARC
  5
1216B
  8
0
 10
3781.9140453954209988
 20
226.706468608761412
 30
0.0
 40
0.0028424215689928
 50
329.7509116742958213
 51
38.494312870135893
  0
ARC
  5
1216C
  8
0
 10
3781.8939448965102201
 20
226.6779032009858099
 30
0.0
 40
0.0376643553221677
 50
53.6482980713251507
 51
79.6726806629750826
  0
ARC
  5
1216D
  8
0
 10
3781.8594843489468076
 20
226.5011454197127989
 30
0.0
 40
0.2177476531729865
 50
79.0899250789545505
 51
79.3838616965380197
  0
ARC
  5
1216E
  8
0
 10
3781.8577064786381925
 20
226.5668632167017904
 30
0.0
 40
0.0762916037327328
 50
80.9190260002214359
 51
90.445351625451778
  0
ARC
  5
1216F
  8
0
 10
3781.8660660685559378
 20
226.6191650864894029
 30
0.0
 40
0.0233258758809772
 50
65.6341586946674909
 51
80.9190260002214359
  0
ARC
  5
12170
  8
0
 10
3781.874836372048776
 20
226.6385297924778115
 30
0.0
 40
0.0020676995391734
 50
39.322399020385582
 51
65.6341586946688267
  0
ARC
  5
12171
  8
0
 10
3781.8754829822300962
 20
226.6390594590442902
 30
0.0
 40
0.0012318458446677
 50
321.3133744291266112
 51
39.322399020385582
  0
ARC
  5
12172
  8
0
 10
3781.8718247305450859
 20
226.6438084974768969
 30
0.0
 40
0.007197368190672
 50
285.9576655456490926
 51
309.9316794190203836
  0
ARC
  5
12173
  8
0
 10
3781.8614227843090703
 20
226.6802519358710981
 30
0.0
 40
0.0450962419832168
 50
273.5124033189650845
 51
285.9345700259041791
  0
ARC
  5
12174
  8
0
 10
3781.8571933431071557
 20
226.7245411486917988
 30
0.0
 40
0.0895740721583248
 50
269.948916601839926
 51
274.4771227864374055
  0
ARC
  5
12175
  8
0
 10
3781.857602878266789
 20
226.4816586117684096
 30
0.0
 40
0.1738421321903845
 50
83.0738241668538677
 51
90.161298186281968
  0
ARC
  5
12176
  8
0
 10
3781.8685195480647963
 20
226.5715248558728092
 30
0.0
 40
0.083315254916772
 50
74.574552824064213
 51
83.0738241668538677
  0
ARC
  5
12177
  8
0
 10
3781.884705667306207
 20
226.6301864146969081
 30
0.0
 40
0.0224615866646342
 50
60.6692011450041875
 51
74.574552824064213
  0
ARC
  5
12178
  8
0
 10
3781.8937368245028665
 20
226.6460531411796069
 30
0.0
 40
0.004206170024021
 50
8.9907603202011082
 51
62.046277067239977
  0
ARC
  5
12179
  8
0
 10
3781.8564519762089731
 20
226.7685943349308104
 30
0.0
 40
0.1362195376142476
 50
262.0514805238912004
 51
270.2782390588953945
  0
ARC
  5
1217A
  8
0
 10
3781.8449345346871269
 20
226.6861057663134034
 30
0.0
 40
0.0529307904046606
 50
245.432390190028201
 51
262.0514805238912004
  0
ARC
  5
1217B
  8
0
 10
3781.8288613475251623
 20
226.6492969941701006
 30
0.0
 40
0.012789969910392
 50
191.667473216358303
 51
242.3588870374699979
  0
LINE
  5
1217C
  8
0
 10
3781.8163356468498932
 20
226.6467104611807031
 30
0.0
 11
3781.8133525791690772
 21
226.6632468695950138
 31
0.0
  0
ARC
  5
1217D
  8
0
 10
3781.8565204838619138
 20
226.5668632167017904
 30
0.0
 40
0.0762916037327328
 50
89.554648374548222
 51
99.0809739997785641
  0
ARC
  5
1217E
  8
0
 10
3781.8481608939441685
 20
226.6191650864894029
 30
0.0
 40
0.0233258758809772
 50
99.0809739997785641
 51
114.3658413053324949
  0
ARC
  5
1217F
  8
0
 10
3781.8393905904499661
 20
226.6385297924778115
 30
0.0
 40
0.0020676995391734
 50
114.3658413053311023
 51
140.6776009796143967
  0
ARC
  5
12180
  8
0
 10
3781.8387439802681911
 20
226.6390594590442902
 30
0.0
 40
0.0012318458446677
 50
140.6776009796143967
 51
218.6866255708721098
  0
ARC
  5
12181
  8
0
 10
3781.8424022319541109
 20
226.6438084974768969
 30
0.0
 40
0.007197368190672
 50
230.0683205809795879
 51
254.0423344543507937
  0
ARC
  5
12182
  8
0
 10
3781.8528041781901265
 20
226.6802519358710981
 30
0.0
 40
0.0450962419832168
 50
254.0654299740957072
 51
266.4875966810348018
  0
ARC
  5
12183
  8
0
 10
3781.8570336193920411
 20
226.7245411486917988
 30
0.0
 40
0.0895740721583248
 50
265.5228772135625945
 51
270.051083398160074
  0
ARC
  5
12184
  8
0
 10
3781.8566240842328625
 20
226.4816586117684096
 30
0.0
 40
0.1738421321903845
 50
89.8387018137180462
 51
96.9261758331461465
  0
ARC
  5
12185
  8
0
 10
3781.8457074144330363
 20
226.5715248558728092
 30
0.0
 40
0.083315254916772
 50
96.9261758331461465
 51
105.4254471759358012
  0
ARC
  5
12186
  8
0
 10
3781.8295212951929898
 20
226.6301864146969081
 30
0.0
 40
0.0224615866646342
 50
105.4254471759358012
 51
119.3307988549958054
  0
ARC
  5
12187
  8
0
 10
3781.8204901379958756
 20
226.6460531411796069
 30
0.0
 40
0.004206170024021
 50
117.9537229327600016
 51
171.0092396797988954
  0
ARC
  5
12188
  8
0
 10
3781.7661103726231886
 20
226.7460281206560069
 30
0.0
 40
0.1362195376142476
 50
269.7217609411047192
 51
277.9485194761086859
  0
ARC
  5
12189
  8
0
 10
3781.7776278141450348
 20
226.6635395520385998
 30
0.0
 40
0.0529307904046606
 50
277.9485194761086859
 51
294.5676098099718274
  0
ARC
  5
1218A
  8
0
 10
3781.7937010013069994
 20
226.626730779895297
 30
0.0
 40
0.012789969910392
 50
297.6411129625299736
 51
348.3325267836415833
  0
LINE
  5
1218B
  8
0
 10
3781.8062267019818137
 20
226.6241442469060132
 30
0.0
 11
3781.8132824180611351
 21
226.6632570714309054
 31
0.0
  0
ARC
  5
1218C
  8
0
 10
3781.7678197352788629
 20
226.4785792054381091
 30
0.0
 40
0.2177476531729865
 50
84.4457266929329933
 51
90.6238569968888044
  0
ARC
  5
1218D
  8
0
 10
3781.7660418649697931
 20
226.5442970024271006
 30
0.0
 40
0.0762916037327328
 50
80.9190260002214359
 51
90.445351625451778
  0
ARC
  5
1218E
  8
0
 10
3781.7744014548889027
 20
226.5965988722145994
 30
0.0
 40
0.0233258758809772
 50
65.6341586946674909
 51
80.9190260002214359
  0
ARC
  5
1218F
  8
0
 10
3781.7831717583821955
 20
226.6159635782030932
 30
0.0
 40
0.0020676995391734
 50
39.322399020385582
 51
65.6341586946688267
  0
ARC
  5
12190
  8
0
 10
3781.7838183685630611
 20
226.6164932447696003
 30
0.0
 40
0.0012318458446677
 50
321.3133744291266112
 51
39.322399020385582
  0
ARC
  5
12191
  8
0
 10
3781.7801601168771413
 20
226.6212422832022071
 30
0.0
 40
0.007197368190672
 50
285.9576655456490926
 51
309.9316794190203836
  0
ARC
  5
12192
  8
0
 10
3781.7697581706420351
 20
226.6576857215964083
 30
0.0
 40
0.0450962419832168
 50
273.5124033189650845
 51
285.9345700259041791
  0
ARC
  5
12193
  8
0
 10
3781.7655287294401205
 20
226.7019749344171089
 30
0.0
 40
0.0895740721583248
 50
269.948916601839926
 51
274.4771227864374055
  0
ARC
  5
12194
  8
0
 10
3781.7659382645988444
 20
226.4590923974936914
 30
0.0
 40
0.1738421321903845
 50
83.0738241668538677
 51
90.161298186281968
  0
ARC
  5
12195
  8
0
 10
3781.7768549343982158
 20
226.5489586415980057
 30
0.0
 40
0.083315254916772
 50
74.574552824064213
 51
83.0738241668538677
  0
ARC
  5
12196
  8
0
 10
3781.7930410536391719
 20
226.6076202004221045
 30
0.0
 40
0.0224615866646342
 50
60.6692011450041875
 51
74.574552824064213
  0
ARC
  5
12197
  8
0
 10
3781.8020722108358314
 20
226.6234869269048886
 30
0.0
 40
0.004206170024021
 50
8.9907603202011082
 51
62.046277067239977
  0
ARC
  5
12198
  8
0
 10
3781.7647873625410284
 20
226.7460281206560069
 30
0.0
 40
0.1362195376142476
 50
262.0514805238912004
 51
270.2782390588953945
  0
ARC
  5
12199
  8
0
 10
3781.7532699210200917
 20
226.6635395520385998
 30
0.0
 40
0.0529307904046606
 50
245.432390190028201
 51
262.0514805238912004
  0
ARC
  5
1219A
  8
0
 10
3781.7371967338572176
 20
226.626730779895297
 30
0.0
 40
0.012789969910392
 50
223.4137384115294935
 51
242.3588870374699979
  0
ARC
  5
1219B
  8
0
 10
3781.7630779998848993
 20
226.4785792054381091
 30
0.0
 40
0.2177476531729865
 50
89.3761430031111956
 51
93.4841155293057824
  0
ARC
  5
1219C
  8
0
 10
3781.7648558701939692
 20
226.5442970024271006
 30
0.0
 40
0.0762916037327328
 50
89.554648374548222
 51
99.0809739997785641
  0
ARC
  5
1219D
  8
0
 10
3781.7564962802762238
 20
226.5965988722145994
 30
0.0
 40
0.0233258758809772
 50
99.0809739997785641
 51
114.3658413053324949
  0
ARC
  5
1219E
  8
0
 10
3781.747725976782931
 20
226.6159635782030932
 30
0.0
 40
0.0020676995391734
 50
114.3658413053311023
 51
140.6776009796143967
  0
ARC
  5
1219F
  8
0
 10
3781.7470793666011559
 20
226.6164932447696003
 30
0.0
 40
0.0012318458446677
 50
140.6776009796143967
 51
218.6866255708721098
  0
ARC
  5
121A0
  8
0
 10
3781.7507376182870757
 20
226.6212422832022071
 30
0.0
 40
0.007197368190672
 50
230.0683205809795879
 51
254.0423344543507937
  0
ARC
  5
121A1
  8
0
 10
3781.7611395645230914
 20
226.6576857215964083
 30
0.0
 40
0.0450962419832168
 50
254.0654299740957072
 51
266.4875966810348018
  0
ARC
  5
121A2
  8
0
 10
3781.765369005725006
 20
226.7019749344171089
 30
0.0
 40
0.0895740721583248
 50
265.5228772135625945
 51
270.051083398160074
  0
ARC
  5
121A3
  8
0
 10
3781.7649594705649179
 20
226.4590923974936914
 30
0.0
 40
0.1738421321903845
 50
89.8387018137180462
 51
96.8988182701972534
  0
ARC
  5
121A4
  8
0
 10
3781.7160990955230773
 20
226.7167862051560121
 30
0.0
 40
0.1362195376142476
 50
269.7217609411047192
 51
277.9485194761086859
  0
ARC
  5
121A5
  8
0
 10
3781.7276165370449235
 20
226.634297636538605
 30
0.0
 40
0.0529307904046606
 50
277.9485194761086859
 51
294.5676098099718274
  0
ARC
  5
121A6
  8
0
 10
3781.7436897242068881
 20
226.5974888643953022
 30
0.0
 40
0.012789969910392
 50
297.6411129625299736
 51
348.3325267836415833
  0
LINE
  5
121A7
  8
0
 10
3781.7562154248830666
 20
226.59490233140599
 30
0.0
 11
3781.7589271719511999
 21
226.6099346946793105
 31
0.0
  0
ARC
  5
121A8
  8
0
 10
3781.7160305878701365
 20
226.5150550869271058
 30
0.0
 40
0.0762916037327328
 50
80.9190260002214359
 51
90.445351625451778
  0
ARC
  5
121A9
  8
0
 10
3781.7243901777887913
 20
226.5673569567146046
 30
0.0
 40
0.0233258758809772
 50
65.6341586946674909
 51
80.9190260002214359
  0
ARC
  5
121AA
  8
0
 10
3781.7331604812820842
 20
226.5867216627030984
 30
0.0
 40
0.0020676995391734
 50
39.322399020385582
 51
65.6341586946688267
  0
ARC
  5
121AB
  8
0
 10
3781.7338070914629498
 20
226.5872513292696055
 30
0.0
 40
0.0012318458446677
 50
321.3133744291266112
 51
39.322399020385582
  0
ARC
  5
121AC
  8
0
 10
3781.7301488397770299
 20
226.5920003677022123
 30
0.0
 40
0.007197368190672
 50
285.9576655456490926
 51
309.9316794190203836
  0
ARC
  5
121AD
  8
0
 10
3781.7197468935419238
 20
226.6284438060964135
 30
0.0
 40
0.0450962419832168
 50
273.5124033189650845
 51
285.9345700259041791
  0
ARC
  5
121AE
  8
0
 10
3781.7155174523400092
 20
226.6727330189170004
 30
0.0
 40
0.0895740721583248
 50
269.948916601839926
 51
274.4771227864374055
  0
ARC
  5
121AF
  8
0
 10
3781.7159269874991878
 20
226.4298504819936966
 30
0.0
 40
0.1738421321903845
 50
83.0738241668538677
 51
90.161298186281968
  0
ARC
  5
121B0
  8
0
 10
3781.7268436572981045
 20
226.5197167260980109
 30
0.0
 40
0.083315254916772
 50
74.574552824064213
 51
83.0738241668538677
  0
ARC
  5
121B1
  8
0
 10
3781.7430297765390605
 20
226.5783782849221097
 30
0.0
 40
0.0224615866646342
 50
60.6692011450041875
 51
74.574552824064213
  0
ARC
  5
121B2
  8
0
 10
3781.7520609337348105
 20
226.5942450114048938
 30
0.0
 40
0.004206170024021
 50
8.9907603202011082
 51
62.046277067239977
  0
ARC
  5
121B3
  8
0
 10
3781.7147760854409171
 20
226.7167862051560121
 30
0.0
 40
0.1362195376142476
 50
262.0514805238912004
 51
270.2782390588953945
  0
ARC
  5
121B4
  8
0
 10
3781.7032586439199804
 20
226.634297636538605
 30
0.0
 40
0.0529307904046606
 50
245.432390190028201
 51
262.0514805238912004
  0
ARC
  5
121B5
  8
0
 10
3781.6871854567571063
 20
226.5974888643953022
 30
0.0
 40
0.012789969910392
 50
204.2561787777542861
 51
242.3588870374699979
  0
ARC
  5
121B6
  8
0
 10
3781.7148445930938578
 20
226.5150550869271058
 30
0.0
 40
0.0762916037327328
 50
89.554648374548222
 51
99.0809739997785641
  0
ARC
  5
121B7
  8
0
 10
3781.7064850031761125
 20
226.5673569567146046
 30
0.0
 40
0.0233258758809772
 50
99.0809739997785641
 51
114.3658413053324949
  0
ARC
  5
121B8
  8
0
 10
3781.6977146996828196
 20
226.5867216627030984
 30
0.0
 40
0.0020676995391734
 50
114.3658413053311023
 51
140.6776009796143967
  0
ARC
  5
121B9
  8
0
 10
3781.6970680895010446
 20
226.5872513292696055
 30
0.0
 40
0.0012318458446677
 50
140.6776009796143967
 51
218.6866255708721098
  0
ARC
  5
121BA
  8
0
 10
3781.7007263411869644
 20
226.5920003677022123
 30
0.0
 40
0.007197368190672
 50
230.0683205809795879
 51
254.0423344543507937
  0
ARC
  5
121BB
  8
0
 10
3781.7111282874229801
 20
226.6284438060964135
 30
0.0
 40
0.0450962419832168
 50
254.0654299740957072
 51
266.4875966810348018
  0
ARC
  5
121BC
  8
0
 10
3781.7153577286248947
 20
226.6727330189170004
 30
0.0
 40
0.0895740721583248
 50
265.5228772135625945
 51
270.051083398160074
  0
ARC
  5
121BD
  8
0
 10
3781.7149481934648065
 20
226.4298504819936966
 30
0.0
 40
0.1738421321903845
 50
89.8387018137180462
 51
93.7599539565628533
  0
ARC
  5
121BE
  8
0
 10
3781.4639319452448945
 20
226.746637659052908
 30
0.0
 40
0.1949869947460148
 50
271.5792391976615932
 51
277.3284923383793057
  0
ARC
  5
121BF
  8
0
 10
3781.481484622984226
 20
226.6056657565144121
 30
0.0
 40
0.0529307904046606
 50
277.9485194761086859
 51
294.5676098099718274
  0
ARC
  5
121C0
  8
0
 10
3781.4975578101461906
 20
226.5688569843711093
 30
0.0
 40
0.012789969910392
 50
297.6411129625299736
 51
329.3282930405845832
  0
ARC
  5
121C1
  8
0
 10
3781.4782582637280939
 20
226.5387250766904117
 30
0.0
 40
0.0233258758809772
 50
65.6341586946674909
 51
67.8731817074309589
  0
ARC
  5
121C2
  8
0
 10
3781.487028567220932
 20
226.5580897826787918
 30
0.0
 40
0.0020676995391734
 50
39.322399020385582
 51
65.6341586946688267
  0
ARC
  5
121C3
  8
0
 10
3781.4876751774017976
 20
226.5586194492454126
 30
0.0
 40
0.0012318458446677
 50
321.3133744291266112
 51
39.322399020385582
  0
ARC
  5
121C4
  8
0
 10
3781.4840169257167872
 20
226.5633684876779057
 30
0.0
 40
0.007197368190672
 50
285.9576655456490926
 51
309.9316794190203836
  0
ARC
  5
121C5
  8
0
 10
3781.4736149794812263
 20
226.5998119260721069
 30
0.0
 40
0.0450962419832168
 50
273.5124033189650845
 51
285.9345700259041791
  0
ARC
  5
121C6
  8
0
 10
3781.469385538278857
 20
226.6441011388928075
 30
0.0
 40
0.0895740721583248
 50
269.948916601839926
 51
274.4771227864374055
  0
ARC
  5
121C7
  8
0
 10
3781.4746794075981597
 20
226.7466376590529933
 30
0.0
 40
0.1949869947460474
 50
262.6715076616206943
 51
268.4207608023382932
  0
ARC
  5
121C8
  8
0
 10
3781.4571267298588282
 20
226.6056657565144121
 30
0.0
 40
0.0529307904046606
 50
245.432390190028201
 51
262.0514805238912004
  0
ARC
  5
121C9
  8
0
 10
3781.4410535426959541
 20
226.5688569843711093
 30
0.0
 40
0.012789969910392
 50
225.8499645450486923
 51
242.3588870374699979
  0
ARC
  5
121CA
  8
0
 10
3781.4515827856221222
 20
226.5580897826787918
 30
0.0
 40
0.0020676995391734
 50
129.7313455784747873
 51
140.6776009796143967
  0
ARC
  5
121CB
  8
0
 10
3781.4509361754408019
 20
226.5586194492454126
 30
0.0
 40
0.0012318458446677
 50
140.6776009796143967
 51
218.6866255708721098
  0
ARC
  5
121CC
  8
0
 10
3781.4545944271271765
 20
226.5633684876779057
 30
0.0
 40
0.007197368190672
 50
230.0683205809795879
 51
254.0423344543507937
  0
ARC
  5
121CD
  8
0
 10
3781.4649963733618279
 20
226.5998119260721069
 30
0.0
 40
0.0450962419832168
 50
254.0654299740957072
 51
266.4875966810348018
  0
ARC
  5
121CE
  8
0
 10
3781.4692258145641972
 20
226.6441011388928075
 30
0.0
 40
0.0895740721583248
 50
265.5228772135625945
 51
270.051083398160074
  0
LINE
  5
121CF
  8
0
 10
3781.7498450791408686
 20
226.6493310881706122
 30
0.0
 11
3781.7498450791408686
 21
226.7153021968240125
 31
0.0
  0
ARC
  5
121D0
  8
0
 10
3781.497087947370801
 20
226.1423415093526046
 30
0.0
 40
0.6711299462092246
 50
75.2325659036232395
 51
78.8410342275044655
  0
ARC
  5
121D1
  8
0
 10
3781.3644364056531231
 20
225.3142872502812111
 30
0.0
 40
1.51021295298743
 50
83.6783686907824915
 51
84.2618275783656685
  0
LINE
  5
121D2
  8
0
 10
3781.4223945579119572
 20
226.8198793925693053
 30
0.0
 11
3781.3749229087120511
 21
226.8198793925693053
 31
0.0
  0
LINE
  5
121D3
  8
0
 10
3781.4826588748410359
 20
226.7728520450557994
 30
0.0
 11
3781.4826588748410359
 21
226.7310426333692988
 31
0.0
  0
LINE
  5
121D4
  8
0
 10
3781.3820974511868371
 20
226.8849268297335868
 30
0.0
 11
3781.3820974511331769
 21
226.8935177173368913
 31
0.0
  0
LINE
  5
121D5
  8
0
 10
3780.1170308132532227
 20
218.9288819681846121
 30
0.0
 11
3782.5373837544289017
 21
218.9288819681846121
 31
0.0
  0
LINE
  5
121D6
  8
0
 10
3780.4633813233031105
 20
223.5050999916641103
 30
0.0
 11
3782.1910332443790139
 21
223.5050999916641103
 31
0.0
  0
LINE
  5
121D7
  8
0
 10
3780.3842205821788411
 20
223.3988814629356909
 30
0.0
 11
3782.2701939855028286
 21
223.3988814629356909
 31
0.0
  0
LINE
  5
121D8
  8
0
 10
3780.3855406236270937
 20
222.9766617923376089
 30
0.0
 11
3782.2688739440541212
 21
222.9766617923376089
 31
0.0
  0
LINE
  5
121D9
  8
0
 10
3786.5448615670911749
 20
218.573361128569303
 30
0.0
 11
3784.1095530005909495
 21
218.573361128569303
 31
0.0
  0
LINE
  5
121DA
  8
0
 10
3784.1938735215908309
 20
219.0046012829693041
 30
0.0
 11
3786.4605567725911897
 21
219.0046012829693041
 31
0.0
  0
LINE
  5
121DB
  8
0
 10
3784.2641624589909952
 20
219.074604300869197
 30
0.0
 11
3786.3902678351910254
 21
219.074604300869197
 31
0.0
  0
LINE
  5
121DC
  8
0
 10
3786.2350790100908853
 20
222.4098721643692045
 30
0.0
 11
3784.4213119138908041
 21
222.4098721643692045
 31
0.0
  0
LINE
  5
121DD
  8
0
 10
3784.4213119138908041
 20
223.0537761252691951
 30
0.0
 11
3786.2350790100908853
 21
223.0537761252691951
 31
0.0
  0
LINE
  5
121DE
  8
0
 10
3784.4546850448909936
 20
223.1119853714691885
 30
0.0
 11
3786.2017058790897863
 21
223.1119853714691885
 31
0.0
  0
LINE
  5
121DF
  8
0
 10
3785.7009129339908213
 20
223.6326931453693021
 30
0.0
 11
3785.4451955228660154
 21
223.6326931453693021
 31
0.0
  0
LINE
  5
121E0
  8
0
 10
3785.2086284936158336
 20
223.6326931453693021
 30
0.0
 11
3784.9554774943139819
 21
223.6326931453693021
 31
0.0
  0
LINE
  5
121E1
  8
0
 10
3784.95549317879113
 20
224.2808721643692991
 30
0.0
 11
3785.2086284936158336
 21
224.2808721643692991
 31
0.0
  0
LINE
  5
121E2
  8
0
 10
3785.4451955228660154
 20
224.2808721643692991
 30
0.0
 11
3785.7008977451901046
 21
224.2808721643692991
 31
0.0
  0
LINE
  5
121E3
  8
0
 10
3786.5448772935910711
 20
218.573361128569303
 30
0.0
 11
3786.5448772935910711
 21
218.920199057569306
 31
0.0
  0
LINE
  5
121E4
  8
0
 10
3786.4002738719900663
 20
219.0046012829693041
 30
0.0
 11
3786.4002738719900663
 21
219.0646043021693004
 31
0.0
  0
LINE
  5
121E5
  8
0
 10
3786.2911954619908101
 20
222.4659881157691927
 30
0.0
 11
3786.2911954619908101
 21
222.9976601739691944
 31
0.0
  0
LINE
  5
121E6
  8
0
 10
3786.2017058790897863
 20
223.0537761252691951
 30
0.0
 11
3786.2017058790897863
 21
223.1119853714691885
 31
0.0
  0
LINE
  5
121E7
  8
0
 10
3785.7701954619910794
 20
223.7019751776691976
 30
0.0
 11
3785.7701954619910794
 21
224.2115901320692899
 31
0.0
  0
LINE
  5
121E8
  8
0
 10
3785.6734933148909477
 20
224.2808721643692991
 30
0.0
 11
3785.6734933148909477
 21
224.314609602769309
 31
0.0
  0
ARC
  5
121E9
  8
0
 10
3786.5448772935910711
 20
219.0046012829693041
 30
0.0
 40
0.075
 50
187.794655911197907
 51
262.966349360505717
  0
ARC
  5
121EA
  8
0
 10
3786.5348772935908528
 20
218.920199057569306
 30
0.0
 40
0.01
 50
0.0
 51
85.3189970887033269
  0
ARC
  5
121EB
  8
0
 10
3786.4605717124968578
 20
218.9946012754664935
 30
0.0
 40
0.0100000186627888
 50
359.0160147001795963
 51
90.0855992257669698
  0
ARC
  5
121EC
  8
0
 10
3786.3902738719912122
 20
219.0646043021693004
 30
0.0
 40
0.01
 50
0.0
 51
90.0360073548874738
  0
ARC
  5
121ED
  8
0
 10
3786.2911954619908101
 20
222.4098721643692045
 30
0.0
 40
0.047
 50
100.1041827161885038
 51
169.8958172839004135
  0
ARC
  5
121EE
  8
0
 10
3786.2911954619908101
 20
223.0537761252691951
 30
0.0
 40
0.047
 50
190.1041827160995012
 51
259.8958172839973031
  0
ARC
  5
121EF
  8
0
 10
3786.235079510567175
 20
222.4198721643836052
 30
0.0
 40
0.010000000026833
 50
269.9971324877899974
 51
349.8958172275235938
  0
ARC
  5
121F0
  8
0
 10
3786.2811954619910466
 20
222.4659881157691927
 30
0.0
 40
0.01
 50
280.104182716188518
 51
0.0
  0
ARC
  5
121F1
  8
0
 10
3786.2811954619910466
 20
222.9976601739691944
 30
0.0
 40
0.01
 50
0.0
 51
79.8958172838915885
  0
ARC
  5
121F2
  8
0
 10
3786.235079510567175
 20
223.0437761252549933
 30
0.0
 40
0.0100000000268321
 50
10.1041827724763795
 51
90.0028675122100026
  0
ARC
  5
121F3
  8
0
 10
3785.7701954619910794
 20
223.6326931453693021
 30
0.0
 40
0.06
 50
98.2132107018020548
 51
171.7867892983016134
  0
ARC
  5
121F4
  8
0
 10
3785.7701954619910794
 20
224.2808721643692991
 30
0.0
 40
0.06
 50
188.2132011639988036
 51
261.7867892983031766
  0
ARC
  5
121F5
  8
0
 10
3785.6634933090999766
 20
224.3146096025323004
 30
0.0
 40
0.0100000057909533
 50
0.0000013576419024
 51
68.1806313635985219
  0
ARC
  5
121F6
  8
0
 10
3785.7009134296681623
 20
223.6426931453821112
 30
0.0
 40
0.010000000025165
 50
269.9971599832462061
 51
351.7867892421384113
  0
ARC
  5
121F7
  8
0
 10
3785.7601954619908611
 20
223.7019751776691976
 30
0.0
 40
0.01
 50
278.2132107016968234
 51
0.0
  0
ARC
  5
121F8
  8
0
 10
3785.7601954619908611
 20
224.2115901320692899
 30
0.0
 40
0.01
 50
0.0
 51
81.786789297987454
  0
ARC
  5
121F9
  8
0
 10
3785.7009134266550063
 20
224.270872175238793
 30
0.0
 40
0.0100000014258815
 50
8.2132042133996226
 51
90.0898481988465392
  0
ARC
  5
121FA
  8
0
 10
3793.6775000180527968
 20
220.5262946532000115
 30
0.0
 40
7.4439146916084278
 50
180.1016029302176946
 51
191.2457201466681056
  0
ARC
  5
121FB
  8
0
 10
3846.9196958775091844
 20
222.5118272820135132
 30
0.0
 40
60.719004658337532
 50
180.0962071219485949
 51
181.8863888713152051
  0
ARC
  5
121FC
  8
0
 10
3786.2087075411300248
 20
223.5912775825005099
 30
0.0
 40
0.5249720543547012
 50
175.4751775815971087
 51
221.3460110402832868
  0
ARC
  5
121FD
  8
0
 10
3786.1769120046769785
 20
223.673397611213602
 30
0.0
 40
0.5614681244490447
 50
229.8113749213538028
 51
269.191602131227512
  0
ARC
  5
121FE
  8
0
 10
3785.3281954619910721
 20
223.4910704932696888
 30
0.0
 40
0.8991799718427381
 50
67.8503823861199606
 51
112.1496176138799967
  0
LINE
  5
121FF
  8
0
 10
3784.1095530005909495
 20
218.573361128569303
 30
0.0
 11
3784.1095530005909495
 21
218.920199057569306
 31
0.0
  0
LINE
  5
12200
  8
0
 10
3784.2541564221901353
 20
219.0046012829693041
 30
0.0
 11
3784.2541564221901353
 21
219.0646043021693004
 31
0.0
  0
LINE
  5
12201
  8
0
 10
3784.3651954619908793
 20
222.4659881157691927
 30
0.0
 11
3784.3651954619908793
 21
222.9976601739691944
 31
0.0
  0
LINE
  5
12202
  8
0
 10
3784.4546850448909936
 20
223.0537761252691951
 30
0.0
 11
3784.4546850448909936
 21
223.1119853714691885
 31
0.0
  0
LINE
  5
12203
  8
0
 10
3784.8861954619910648
 20
223.7019751776691976
 30
0.0
 11
3784.8861954619910648
 21
224.2115901320692899
 31
0.0
  0
LINE
  5
12204
  8
0
 10
3784.9828976092908306
 20
224.2808721643692991
 30
0.0
 11
3784.9828976092908306
 21
224.314609602769309
 31
0.0
  0
ARC
  5
12205
  8
0
 10
3784.1095530005909495
 20
219.0046012829693041
 30
0.0
 40
0.075
 50
277.033650639494283
 51
352.2053440888021214
  0
ARC
  5
12206
  8
0
 10
3784.1195530005911678
 20
218.920199057569306
 30
0.0
 40
0.01
 50
94.6810029112966731
 51
180.0
  0
ARC
  5
12207
  8
0
 10
3784.1938585816860723
 20
218.9946012754664935
 30
0.0
 40
0.0100000186627888
 50
89.9144007742330444
 51
180.9839852998186984
  0
ARC
  5
12208
  8
0
 10
3784.264157332700961
 20
219.0646033916314934
 30
0.0
 40
0.0100009105516186
 50
89.970631195673775
 51
179.9947834777032938
  0
ARC
  5
12209
  8
0
 10
3784.3651954619908793
 20
222.4098721643692045
 30
0.0
 40
0.047
 50
10.1041827160995403
 51
79.8958172838114962
  0
ARC
  5
1220A
  8
0
 10
3784.3651954619908793
 20
223.0537761252691951
 30
0.0
 40
0.047
 50
280.1041827160026969
 51
349.8958172839004988
  0
ARC
  5
1220B
  8
0
 10
3784.4213114134158786
 20
222.4198721643836052
 30
0.0
 40
0.010000000026833
 50
190.1041827724764062
 51
270.0028675122100026
  0
ARC
  5
1220C
  8
0
 10
3784.3751954619901881
 20
222.4659881157691927
 30
0.0
 40
0.01
 50
180.0
 51
259.895817283811482
  0
ARC
  5
1220D
  8
0
 10
3784.3751954619901881
 20
222.9976601739691944
 30
0.0
 40
0.01
 50
100.1041827161083972
 51
180.0
  0
ARC
  5
1220E
  8
0
 10
3784.4213114134158786
 20
223.0437761252549933
 30
0.0
 40
0.0100000000268321
 50
89.9971324877899974
 51
169.8958172275235938
  0
ARC
  5
1220F
  8
0
 10
3784.8861954619910648
 20
223.6326931453693021
 30
0.0
 40
0.06
 50
8.2132107016984062
 51
81.7867892981979452
  0
ARC
  5
12210
  8
0
 10
3784.8861954619910648
 20
224.2808721643692991
 30
0.0
 40
0.06
 50
278.2132107016968234
 51
351.7867988360013101
  0
ARC
  5
12211
  8
0
 10
3784.9928976145001798
 20
224.314609603006204
 30
0.0
 40
0.010000005209031
 50
111.8193676141890052
 51
180.0000013577266031
  0
ARC
  5
12212
  8
0
 10
3784.9554774942907898
 20
223.642693145369293
 30
0.0
 40
0.0100000000000027
 50
188.2132107041213942
 51
270.0000001350696834
  0
ARC
  5
12213
  8
0
 10
3784.8961954619908283
 20
223.7019751776691976
 30
0.0
 40
0.01
 50
180.0
 51
261.7867892983031766
  0
ARC
  5
12214
  8
0
 10
3784.8961954619908283
 20
224.2115901320692899
 30
0.0
 40
0.01
 50
98.2132107020125744
 51
180.0
  0
ARC
  5
12215
  8
0
 10
3784.9554774973257736
 20
224.270872175238793
 30
0.0
 40
0.0100000014258815
 50
89.9101518011534466
 51
171.7867957866004076
  0
ARC
  5
12216
  8
0
 10
3776.9775208273290446
 20
220.5262946532000115
 30
0.0
 40
7.4439146916084278
 50
348.7542798533302744
 51
359.8983970697822201
  0
ARC
  5
12217
  8
0
 10
3723.7353249678731117
 20
222.5118272820135132
 30
0.0
 40
60.719004658337532
 50
358.1136111286847949
 51
359.903792878049785
  0
ARC
  5
12218
  8
0
 10
3784.4476833828521194
 20
223.5912775825005099
 30
0.0
 40
0.5249720543547012
 50
318.653988959716628
 51
4.5248224184029171
  0
ARC
  5
12219
  8
0
 10
3784.4833098652247827
 20
223.6631504693523027
 30
0.0
 40
0.5511802777877683
 50
270.4252323683297732
 51
310.5717905791069029
  0
LINE
  5
1221A
  8
0
 10
3785.7616240334191389
 20
224.2214875652553872
 30
0.0
 11
3785.5481727377377865
 21
224.2214875652553872
 31
0.0
  0
LINE
  5
1221B
  8
0
 10
3785.1056512787440624
 20
224.2214875652553872
 30
0.0
 11
3784.8947668905630053
 21
224.2214875652553872
 31
0.0
  0
LINE
  5
1221C
  8
0
 10
3785.7616240334191389
 20
223.6920777444859141
 30
0.0
 11
3785.5481727377409698
 21
223.6920777444858004
 31
0.0
  0
LINE
  5
1221D
  8
0
 10
3785.1056512787408792
 20
223.6920777444856014
 30
0.0
 11
3784.8947668905630053
 21
223.6920777444854878
 31
0.0
  0
LINE
  5
1221E
  8
0
 10
3786.2829498479568429
 20
223.007505077634903
 30
0.0
 11
3784.3734410760262108
 21
223.007505077634903
 31
0.0
  0
LINE
  5
1221F
  8
0
 10
3784.3734410760262108
 20
222.4561432120036955
 30
0.0
 11
3786.2829498479559334
 21
222.4561432120171958
 31
0.0
  0
LINE
  5
12220
  8
0
 10
3786.5356933741641114
 20
218.9301657025663985
 30
0.0
 11
3784.1187369200179091
 21
218.9301657025663985
 31
0.0
  0
CIRCLE
  5
12221
  8
0
 10
3785.3269120082409245
 20
223.9567826548693006
 30
0.0
 40
0.2855130295
  0
CIRCLE
  5
12222
  8
0
 10
3785.3269120082409245
 20
223.9567826548693006
 30
0.0
 40
0.3450000000000006
  0
ARC
  5
12224
  8
0
 10
3781.294494144645796
 20
226.6153103896070036
 30
0.0
 40
0.0488353382924472
 50
78.4055344589137064
 51
102.0459665544469061
  0
ARC
  5
12225
  8
0
 10
3781.3030541189091309
 20
226.6571251561962015
 30
0.0
 40
0.0061534326434136
 50
54.5306508876150673
 51
78.2308136809281081
  0
ARC
  5
12226
  8
0
 10
3781.3062132861527971
 20
226.6615591607875899
 30
0.0
 40
0.0007091021615798
 50
314.0915294008676142
 51
54.5306508876160194
  0
ARC
  5
12227
  8
0
 10
3781.296343949266884
 20
226.6852360185968109
 30
0.0
 40
0.0263126661500843
 50
267.0788358377650979
 51
293.1930657065396986
  0
ARC
  5
12228
  8
0
 10
3781.2929351769062123
 20
226.6892887418225087
 30
0.0
 40
0.0304016041969615
 50
250.3447633173261977
 51
273.9001063983279778
  0
ARC
  5
12229
  8
0
 10
3781.2830868497139818
 20
226.6617155719777941
 30
0.0
 40
0.0011224436255952
 50
181.6714464600144083
 51
250.344763317299396
  0
ARC
  5
1222A
  8
0
 10
3781.2848945464547796
 20
226.6594101695804966
 30
0.0
 40
0.003707818827497
 50
99.1898042806371905
 51
142.1977601739089891
  0
ARC
  5
1222B
  8
0
 10
3781.2815868839729774
 20
226.606340268388692
 30
0.0
 40
0.0488353382924472
 50
78.4055344589137064
 51
102.0459665544469061
  0
ARC
  5
1222C
  8
0
 10
3781.290146858234948
 20
226.64815503497789
 30
0.0
 40
0.0061534326434136
 50
54.5306508876150673
 51
78.2308136809281081
  0
ARC
  5
1222D
  8
0
 10
3781.2933060254790689
 20
226.6525890395691931
 30
0.0
 40
0.0007091021615798
 50
314.0915294008676142
 51
54.5306508876160194
  0
ARC
  5
1222E
  8
0
 10
3781.2834366885931558
 20
226.6762658973784141
 30
0.0
 40
0.0263126661500843
 50
267.0788358377650979
 51
293.1930657065396986
  0
ARC
  5
1222F
  8
0
 10
3781.2800279162320294
 20
226.6803186206041971
 30
0.0
 40
0.0304016041969615
 50
250.3447633173261977
 51
273.9001063983279778
  0
ARC
  5
12230
  8
0
 10
3781.2701795890397989
 20
226.652745450759511
 30
0.0
 40
0.0011224436255952
 50
181.6714464600144083
 51
250.344763317299396
  0
ARC
  5
12231
  8
0
 10
3781.271987285781961
 20
226.6504400483620998
 30
0.0
 40
0.003707818827497
 50
99.1898042806371905
 51
142.1977601739089891
  0
ARC
  5
12232
  8
0
 10
3781.3076624693730992
 20
226.6051765306887091
 30
0.0
 40
0.0488353382924472
 50
78.4055344589137064
 51
102.0459665544469061
  0
ARC
  5
12233
  8
0
 10
3781.3162224436350698
 20
226.6469912972779071
 30
0.0
 40
0.0061534326434136
 50
54.5306508876150673
 51
78.2308136809281081
  0
ARC
  5
12234
  8
0
 10
3781.3193816108801002
 20
226.6514253018692955
 30
0.0
 40
0.0007091021615798
 50
314.0915294008676142
 51
54.5306508876160194
  0
ARC
  5
12235
  8
0
 10
3781.3095122739928229
 20
226.6751021596784028
 30
0.0
 40
0.0263126661500843
 50
267.0788358377650979
 51
293.1930657065396986
  0
ARC
  5
12236
  8
0
 10
3781.3061035016321512
 20
226.6791548829041858
 30
0.0
 40
0.0304016041969615
 50
250.3447633173261977
 51
273.9001063983279778
  0
ARC
  5
12237
  8
0
 10
3781.2962551744399207
 20
226.6515817130594996
 30
0.0
 40
0.0011224436255952
 50
181.6714464600144083
 51
250.344763317299396
  0
ARC
  5
12238
  8
0
 10
3781.2980628711820827
 20
226.6492763106620885
 30
0.0
 40
0.003707818827497
 50
99.1898042806371905
 51
142.1977601739089891
  0
ARC
  5
12239
  8
0
 10
3781.2658680416730022
 20
226.6179452180886926
 30
0.0
 40
0.0488353382924472
 50
78.4055344589137064
 51
102.0459665544469061
  0
ARC
  5
1223A
  8
0
 10
3781.2744280159340633
 20
226.6597599846778905
 30
0.0
 40
0.0061534326434136
 50
54.5306508876150673
 51
78.2308136809281081
  0
ARC
  5
1223B
  8
0
 10
3781.2775871831790937
 20
226.6641939892691937
 30
0.0
 40
0.0007091021615798
 50
314.0915294008676142
 51
54.5306508876160194
  0
ARC
  5
1223C
  8
0
 10
3781.2677178462931806
 20
226.6878708470783863
 30
0.0
 40
0.0263126661500843
 50
267.0788358377650979
 51
293.1930657065396986
  0
ARC
  5
1223D
  8
0
 10
3781.2643090739311447
 20
226.6919235703041977
 30
0.0
 40
0.0304016041969615
 50
250.3447633173261977
 51
273.9001063983279778
  0
ARC
  5
1223E
  8
0
 10
3781.2544607467398237
 20
226.6643504004595115
 30
0.0
 40
0.0011224436255952
 50
181.6714464600144083
 51
250.344763317299396
  0
ARC
  5
1223F
  8
0
 10
3781.2562684434819857
 20
226.6620449980621004
 30
0.0
 40
0.003707818827497
 50
99.1898042806371905
 51
142.1977601739089891
  0
ARC
  5
12240
  8
0
 10
3781.2717037849729422
 20
226.6274201075887049
 30
0.0
 40
0.0488353382924472
 50
78.4055344589137064
 51
102.0459665544469061
  0
ARC
  5
12241
  8
0
 10
3781.2802637592349129
 20
226.6692348741779028
 30
0.0
 40
0.0061534326434136
 50
54.5306508876150673
 51
78.2308136809281081
  0
ARC
  5
12242
  8
0
 10
3781.2834229264799433
 20
226.673668878769206
 30
0.0
 40
0.0007091021615798
 50
314.0915294008676142
 51
54.5306508876160194
  0
ARC
  5
12243
  8
0
 10
3781.2735535895922112
 20
226.6973457365783986
 30
0.0
 40
0.0263126661500843
 50
267.0788358377650979
 51
293.1930657065396986
  0
ARC
  5
12244
  8
0
 10
3781.2701448172319942
 20
226.70139845980421
 30
0.0
 40
0.0304016041969615
 50
250.3447633173261977
 51
273.9001063983279778
  0
ARC
  5
12245
  8
0
 10
3781.2602964900402185
 20
226.6738252899594954
 30
0.0
 40
0.0011224436255952
 50
181.6714464600144083
 51
250.344763317299396
  0
ARC
  5
12246
  8
0
 10
3781.2621041867819258
 20
226.6715198875621127
 30
0.0
 40
0.003707818827497
 50
99.1898042806371905
 51
142.1977601739089891
  0
ARC
  5
12247
  8
0
 10
3781.2526507067727835
 20
226.6330774881886896
 30
0.0
 40
0.0488353382924472
 50
78.4055344589137064
 51
102.0459665544469061
  0
ARC
  5
12248
  8
0
 10
3781.2612106810352088
 20
226.6748922547778875
 30
0.0
 40
0.0061534326434136
 50
54.5306508876150673
 51
78.2308136809281081
  0
ARC
  5
12249
  8
0
 10
3781.2643698482797845
 20
226.6793262593691907
 30
0.0
 40
0.0007091021615798
 50
314.0915294008676142
 51
54.5306508876160194
  0
ARC
  5
1224A
  8
0
 10
3781.2545005113929619
 20
226.7030031171784117
 30
0.0
 40
0.0263126661500843
 50
267.0788358377650979
 51
293.1930657065396986
  0
ARC
  5
1224B
  8
0
 10
3781.2510917390318355
 20
226.7070558404041947
 30
0.0
 40
0.0304016041969615
 50
250.3447633173261977
 51
273.9001063983279778
  0
ARC
  5
1224C
  8
0
 10
3781.2412434118400597
 20
226.6794826705595085
 30
0.0
 40
0.0011224436255952
 50
181.6714464600144083
 51
250.344763317299396
  0
ARC
  5
1224D
  8
0
 10
3781.2430511085822218
 20
226.6771772681620973
 30
0.0
 40
0.003707818827497
 50
99.1898042806371905
 51
142.1977601739089891
  0
ARC
  5
1224E
  8
0
 10
3781.2412716682861173
 20
226.6219141691755965
 30
0.0
 40
0.0488353382924472
 50
78.4055344589137064
 51
102.0459665544469061
  0
ARC
  5
1224F
  8
0
 10
3781.249831642548088
 20
226.6637289357649081
 30
0.0
 40
0.0061534326434136
 50
54.5306508876150673
 51
78.2308136809281081
  0
ARC
  5
12250
  8
0
 10
3781.2529908097922089
 20
226.6681629403562965
 30
0.0
 40
0.0007091021615798
 50
314.0915294008676142
 51
54.5306508876160194
  0
ARC
  5
12251
  8
0
 10
3781.2431214729049316
 20
226.6918397981654039
 30
0.0
 40
0.0263126661500843
 50
267.0788358377650979
 51
293.1930657065396986
  0
ARC
  5
12252
  8
0
 10
3781.2397127005451694
 20
226.6958925213911868
 30
0.0
 40
0.0304016041969615
 50
250.3447633173261977
 51
273.9001063983279778
  0
ARC
  5
12253
  8
0
 10
3781.2298643733529389
 20
226.6683193515465007
 30
0.0
 40
0.0011224436255952
 50
181.6714464600144083
 51
250.344763317299396
  0
ARC
  5
12254
  8
0
 10
3781.2316720700941914
 20
226.6660139491490895
 30
0.0
 40
0.003707818827497
 50
99.1898042806371905
 51
142.1977601739089891
  0
ARC
  5
12255
  8
0
 10
3781.2567170947731938
 20
226.6083420263886126
 30
0.0
 40
0.0488353382924472
 50
78.4055344589137064
 51
102.0459665544469061
  0
ARC
  5
12256
  8
0
 10
3781.2652770690351645
 20
226.6501567929778957
 30
0.0
 40
0.0061534326434136
 50
54.5306508876150673
 51
78.2308136809281081
  0
ARC
  5
12257
  8
0
 10
3781.2684362362801949
 20
226.6545907975693126
 30
0.0
 40
0.0007091021615798
 50
314.0915294008676142
 51
54.5306508876160194
  0
ARC
  5
12258
  8
0
 10
3781.2585668993920081
 20
226.6782676553785052
 30
0.0
 40
0.0263126661500843
 50
267.0788358377650979
 51
293.1930657065396986
  0
ARC
  5
12259
  8
0
 10
3781.2551581270317911
 20
226.6823203786042029
 30
0.0
 40
0.0304016041969615
 50
250.3447633173261977
 51
273.9001063983279778
  0
ARC
  5
1225A
  8
0
 10
3781.2453097998400153
 20
226.6547472087594031
 30
0.0
 40
0.0011224436255952
 50
181.6714464600144083
 51
250.344763317299396
  0
ARC
  5
1225B
  8
0
 10
3781.2471174965821774
 20
226.6524418063621056
 30
0.0
 40
0.003707818827497
 50
99.1898042806371905
 51
142.1977601739089891
  0
ARC
  5
1225C
  8
0
 10
3781.2436090120731933
 20
226.6007116208886885
 30
0.0
 40
0.0488353382924472
 50
78.4055344589137064
 51
102.0459665544469061
  0
ARC
  5
1225D
  8
0
 10
3781.2521689863337997
 20
226.6425263874778864
 30
0.0
 40
0.0061534326434136
 50
54.5306508876150673
 51
78.2308136809281081
  0
ARC
  5
1225E
  8
0
 10
3781.2553281535788301
 20
226.6469603920693032
 30
0.0
 40
0.0007091021615798
 50
314.0915294008676142
 51
54.5306508876160194
  0
ARC
  5
1225F
  8
0
 10
3781.2454588166920075
 20
226.6706372498784106
 30
0.0
 40
0.0263126661500843
 50
267.0788358377650979
 51
293.1930657065396986
  0
ARC
  5
12260
  8
0
 10
3781.2420500443317906
 20
226.6746899731041935
 30
0.0
 40
0.0304016041969615
 50
250.3447633173261977
 51
273.9001063983279778
  0
ARC
  5
12261
  8
0
 10
3781.2322017171400148
 20
226.6471168032595074
 30
0.0
 40
0.0011224436255952
 50
181.6714464600144083
 51
250.344763317299396
  0
ARC
  5
12262
  8
0
 10
3781.2340094138808126
 20
226.6448114008620962
 30
0.0
 40
0.003707818827497
 50
99.1898042806371905
 51
142.1977601739089891
  0
ARC
  5
12263
  8
0
 10
3781.2708842601728065
 20
226.5985733433886935
 30
0.0
 40
0.0488353382924472
 50
78.4055344589137064
 51
102.0459665544469061
  0
ARC
  5
12264
  8
0
 10
3781.2794442344347772
 20
226.6403881099778914
 30
0.0
 40
0.0061534326434136
 50
54.5306508876150673
 51
78.2308136809281081
  0
ARC
  5
12265
  8
0
 10
3781.2826034016798076
 20
226.6448221145691946
 30
0.0
 40
0.0007091021615798
 50
314.0915294008676142
 51
54.5306508876160194
  0
ARC
  5
12266
  8
0
 10
3781.2727340647920755
 20
226.6684989723783872
 30
0.0
 40
0.0263126661500843
 50
267.0788358377650979
 51
293.1930657065396986
  0
ARC
  5
12267
  8
0
 10
3781.2693252924318585
 20
226.6725516956041986
 30
0.0
 40
0.0304016041969615
 50
250.3447633173261977
 51
273.9001063983279778
  0
ARC
  5
12268
  8
0
 10
3781.2594769652400828
 20
226.6449785257595124
 30
0.0
 40
0.0011224436255952
 50
181.6714464600144083
 51
250.344763317299396
  0
ARC
  5
12269
  8
0
 10
3781.2612846619817901
 20
226.6426731233621013
 30
0.0
 40
0.003707818827497
 50
99.1898042806371905
 51
142.1977601739089891
  0
ARC
  5
1226A
  8
0
 10
3781.2993308949730817
 20
226.597248783388693
 30
0.0
 40
0.0488353382924472
 50
78.4055344589137064
 51
102.0459665544469061
  0
ARC
  5
1226B
  8
0
 10
3781.3078908692350524
 20
226.6390635499778909
 30
0.0
 40
0.0061534326434136
 50
54.5306508876150673
 51
78.2308136809281081
  0
ARC
  5
1226C
  8
0
 10
3781.3110500364791733
 20
226.6434975545691941
 30
0.0
 40
0.0007091021615798
 50
314.0915294008676142
 51
54.5306508876160194
  0
ARC
  5
1226D
  8
0
 10
3781.3011806995928055
 20
226.6671744123783867
 30
0.0
 40
0.0263126661500843
 50
267.0788358377650979
 51
293.1930657065396986
  0
ARC
  5
1226E
  8
0
 10
3781.2977719272321337
 20
226.6712271356041981
 30
0.0
 40
0.0304016041969615
 50
250.3447633173261977
 51
273.9001063983279778
  0
ARC
  5
1226F
  8
0
 10
3781.2879236000399032
 20
226.6436539657595119
 30
0.0
 40
0.0011224436255952
 50
181.6714464600144083
 51
250.344763317299396
  0
ARC
  5
12270
  8
0
 10
3781.2897312967811558
 20
226.6413485633621008
 30
0.0
 40
0.003707818827497
 50
99.1898042806371905
 51
142.1977601739089891
  0
ARC
  5
12271
  8
0
 10
3781.2823684664372195
 20
226.5889357038441858
 30
0.0
 40
0.0488353382924472
 50
78.4055344589137064
 51
102.0459665544469061
  0
ARC
  5
12272
  8
0
 10
3781.2909284406991901
 20
226.6307504704334974
 30
0.0
 40
0.0061534326434136
 50
54.5306508876150673
 51
78.2308136809281081
  0
ARC
  5
12273
  8
0
 10
3781.2940876079428563
 20
226.6351844750248006
 30
0.0
 40
0.0007091021615798
 50
314.0915294008676142
 51
54.5306508876160194
  0
ARC
  5
12274
  8
0
 10
3781.2842182710569432
 20
226.6588613328339932
 30
0.0
 40
0.0263126661500843
 50
267.0788358377650979
 51
293.1930657065396986
  0
ARC
  5
12275
  8
0
 10
3781.2808094986958167
 20
226.6629140560596909
 30
0.0
 40
0.0304016041969615
 50
250.3447633173261977
 51
273.9001063983279778
  0
ARC
  5
12276
  8
0
 10
3781.270961171504041
 20
226.6353408862150047
 30
0.0
 40
0.0011224436255952
 50
181.6714464600144083
 51
250.344763317299396
  0
ARC
  5
12277
  8
0
 10
3781.2727688682448388
 20
226.6330354838177072
 30
0.0
 40
0.003707818827497
 50
99.1898042806371905
 51
142.1977601739089891
  0
ARC
  5
12278
  8
0
 10
3781.2519666237599267
 20
226.5911477988738056
 30
0.0
 40
0.0488353382924472
 50
78.4055344589137064
 51
102.0459665544469061
  0
ARC
  5
12279
  8
0
 10
3781.2605265980218974
 20
226.6329625654630888
 30
0.0
 40
0.0061534326434136
 50
54.5306508876150673
 51
78.2308136809281081
  0
ARC
  5
1227A
  8
0
 10
3781.2636857652660183
 20
226.637396570054392
 30
0.0
 40
0.0007091021615798
 50
314.0915294008676142
 51
54.5306508876160194
  0
ARC
  5
1227B
  8
0
 10
3781.2538164283791957
 20
226.661073427863613
 30
0.0
 40
0.0263126661500843
 50
267.0788358377650979
 51
293.1930657065396986
  0
ARC
  5
1227C
  8
0
 10
3781.2504076560189787
 20
226.665126151089396
 30
0.0
 40
0.0304016041969615
 50
250.3447633173261977
 51
273.9001063983279778
  0
ARC
  5
1227D
  8
0
 10
3781.240559328827203
 20
226.6375529812445961
 30
0.0
 40
0.0011224436255952
 50
181.6714464600144083
 51
250.344763317299396
  0
ARC
  5
1227E
  8
0
 10
3781.2423670255680008
 20
226.6352475788472987
 30
0.0
 40
0.003707818827497
 50
99.1898042806371905
 51
142.1977601739089891
  0
ARC
  5
1227F
  8
0
 10
3781.2228935731732236
 20
226.5934388554873919
 30
0.0
 40
0.0488353382924472
 50
78.4055344589137064
 51
102.0459665544469061
  0
ARC
  5
12280
  8
0
 10
3781.23145354743383
 20
226.6352536220767036
 30
0.0
 40
0.0061534326434136
 50
54.5306508876150673
 51
78.2308136809281081
  0
ARC
  5
12281
  8
0
 10
3781.2346127146788604
 20
226.6396876266680067
 30
0.0
 40
0.0007091021615798
 50
314.0915294008676142
 51
54.5306508876160194
  0
ARC
  5
12282
  8
0
 10
3781.2247433777929473
 20
226.6633644844771993
 30
0.0
 40
0.0263126661500843
 50
267.0788358377650979
 51
293.1930657065396986
  0
ARC
  5
12283
  8
0
 10
3781.2213346054318208
 20
226.6674172077030107
 30
0.0
 40
0.0304016041969615
 50
250.3447633173261977
 51
273.9001063983279778
  0
ARC
  5
12284
  8
0
 10
3781.2114862782400451
 20
226.6398440378582109
 30
0.0
 40
0.0011224436255952
 50
181.6714464600144083
 51
250.344763317299396
  0
ARC
  5
12285
  8
0
 10
3781.2132939749822071
 20
226.6375386354609134
 30
0.0
 40
0.003707818827497
 50
99.1898042806371905
 51
142.1977601739089891
  0
ARC
  5
12286
  8
0
 10
3781.2336611684731906
 20
226.6111422851886914
 30
0.0
 40
0.0488353382924472
 50
78.4055344589137064
 51
102.0459665544469061
  0
ARC
  5
12287
  8
0
 10
3781.2422211427351613
 20
226.6529570517778893
 30
0.0
 40
0.0061534326434136
 50
54.5306508876150673
 51
78.2308136809281081
  0
ARC
  5
12288
  8
0
 10
3781.2453803099788274
 20
226.6573910563693062
 30
0.0
 40
0.0007091021615798
 50
314.0915294008676142
 51
54.5306508876160194
  0
ARC
  5
12289
  8
0
 10
3781.2355109730920049
 20
226.6810679141784988
 30
0.0
 40
0.0263126661500843
 50
267.0788358377650979
 51
293.1930657065396986
  0
ARC
  5
1228A
  8
0
 10
3781.2321022007317879
 20
226.6851206374041965
 30
0.0
 40
0.0304016041969615
 50
250.3447633173261977
 51
273.9001063983279778
  0
ARC
  5
1228B
  8
0
 10
3781.2222538735400121
 20
226.6575474675593966
 30
0.0
 40
0.0011224436255952
 50
181.6714464600144083
 51
250.344763317299396
  0
ARC
  5
1228C
  8
0
 10
3781.22406157028081
 20
226.6552420651620992
 30
0.0
 40
0.003707818827497
 50
99.1898042806371905
 51
142.1977601739089891
  0
ARC
  5
1228D
  8
0
 10
3781.2993355200728729
 20
226.6334333479886993
 30
0.0
 40
0.0488353382924472
 50
78.4055344589137064
 51
102.0459665544469061
  0
ARC
  5
1228E
  8
0
 10
3781.3078954943348435
 20
226.6752481145778972
 30
0.0
 40
0.0061534326434136
 50
54.5306508876150673
 51
78.2308136809281081
  0
ARC
  5
1228F
  8
0
 10
3781.3110546615789644
 20
226.6796821191693141
 30
0.0
 40
0.0007091021615798
 50
314.0915294008676142
 51
54.5306508876160194
  0
ARC
  5
12290
  8
0
 10
3781.3011853246930514
 20
226.7033589769785067
 30
0.0
 40
0.0263126661500843
 50
267.0788358377650979
 51
293.1930657065396986
  0
ARC
  5
12291
  8
0
 10
3781.2977765523319249
 20
226.7074117002042044
 30
0.0
 40
0.0304016041969615
 50
250.3447633173261977
 51
273.9001063983279778
  0
ARC
  5
12292
  8
0
 10
3781.2879282251401492
 20
226.6798385303594046
 30
0.0
 40
0.0011224436255952
 50
181.6714464600144083
 51
250.344763317299396
  0
ARC
  5
12293
  8
0
 10
3781.2897359218818565
 20
226.6775331279621071
 30
0.0
 40
0.003707818827497
 50
99.1898042806371905
 51
142.1977601739089891
  0
ARC
  5
12294
  8
0
 10
3781.2854306680728769
 20
226.6400436313886928
 30
0.0
 40
0.0488353382924472
 50
78.4055344589137064
 51
102.0459665544469061
  0
ARC
  5
12295
  8
0
 10
3781.2939906423348475
 20
226.6818583979778907
 30
0.0
 40
0.0061534326434136
 50
54.5306508876150673
 51
78.2308136809281081
  0
ARC
  5
12296
  8
0
 10
3781.2971498095789684
 20
226.6862924025693076
 30
0.0
 40
0.0007091021615798
 50
314.0915294008676142
 51
54.5306508876160194
  0
ARC
  5
12297
  8
0
 10
3781.2872804726930553
 20
226.7099692603783865
 30
0.0
 40
0.0263126661500843
 50
267.0788358377650979
 51
293.1930657065396986
  0
ARC
  5
12298
  8
0
 10
3781.2838717003319289
 20
226.7140219836041979
 30
0.0
 40
0.0304016041969615
 50
250.3447633173261977
 51
273.9001063983279778
  0
ARC
  5
12299
  8
0
 10
3781.2740233731401531
 20
226.6864488137595117
 30
0.0
 40
0.0011224436255952
 50
181.6714464600144083
 51
250.344763317299396
  0
ARC
  5
1229A
  8
0
 10
3781.2758310698818605
 20
226.6841434113621006
 30
0.0
 40
0.003707818827497
 50
99.1898042806371905
 51
142.1977601739089891
  0
ARC
  5
1229B
  8
0
 10
3781.2978842603738485
 20
226.6466625739886922
 30
0.0
 40
0.0488353382924472
 50
78.4055344589137064
 51
102.0459665544469061
  0
ARC
  5
1229C
  8
0
 10
3781.3064442346349097
 20
226.6884773405778901
 30
0.0
 40
0.0061534326434136
 50
54.5306508876150673
 51
78.2308136809281081
  0
ARC
  5
1229D
  8
0
 10
3781.3096034018790306
 20
226.692911345169307
 30
0.0
 40
0.0007091021615798
 50
314.0915294008676142
 51
54.5306508876160194
  0
ARC
  5
1229E
  8
0
 10
3781.2997340649931175
 20
226.7165882029784996
 30
0.0
 40
0.0263126661500843
 50
267.0788358377650979
 51
293.1930657065396986
  0
ARC
  5
1229F
  8
0
 10
3781.296325292631991
 20
226.7206409262041973
 30
0.0
 40
0.0304016041969615
 50
250.3447633173261977
 51
273.9001063983279778
  0
ARC
  5
122A0
  8
0
 10
3781.2864769654402153
 20
226.6930677563593974
 30
0.0
 40
0.0011224436255952
 50
181.6714464600144083
 51
250.344763317299396
  0
ARC
  5
122A1
  8
0
 10
3781.2882846621819226
 20
226.6907623539621
 30
0.0
 40
0.003707818827497
 50
99.1898042806371905
 51
142.1977601739089891
  0
ARC
  5
122A2
  8
0
 10
3781.2996905374729977
 20
226.623715036288587
 30
0.0
 40
0.0488353382924472
 50
78.4055344589137064
 51
102.0459665544469061
  0
ARC
  5
122A3
  8
0
 10
3781.3082505117349683
 20
226.6655298028778986
 30
0.0
 40
0.0061534326434136
 50
54.5306508876150673
 51
78.2308136809281081
  0
ARC
  5
122A4
  8
0
 10
3781.3114096789790892
 20
226.6699638074692871
 30
0.0
 40
0.0007091021615798
 50
314.0915294008676142
 51
54.5306508876160194
  0
ARC
  5
122A5
  8
0
 10
3781.3015403420931762
 20
226.6936406652785081
 30
0.0
 40
0.0263126661500843
 50
267.0788358377650979
 51
293.1930657065396986
  0
ARC
  5
122A6
  8
0
 10
3781.2981315697320497
 20
226.6976933885042058
 30
0.0
 40
0.0304016041969615
 50
250.3447633173261977
 51
273.9001063983279778
  0
ARC
  5
122A7
  8
0
 10
3781.2882832425398192
 20
226.6701202186594912
 30
0.0
 40
0.0011224436255952
 50
181.6714464600144083
 51
250.344763317299396
  0
ARC
  5
122A8
  8
0
 10
3781.2900909392819813
 20
226.6678148162621085
 30
0.0
 40
0.003707818827497
 50
99.1898042806371905
 51
142.1977601739089891
  0
ARC
  5
122A9
  8
0
 10
3781.2454410757732148
 20
226.639853928988714
 30
0.0
 40
0.0488353382924472
 50
78.4055344589137064
 51
102.0459665544469061
  0
ARC
  5
122AA
  8
0
 10
3781.2540010500351855
 20
226.6816686955779119
 30
0.0
 40
0.0061534326434136
 50
54.5306508876150673
 51
78.2308136809281081
  0
ARC
  5
122AB
  8
0
 10
3781.2571602172788516
 20
226.6861027001693003
 30
0.0
 40
0.0007091021615798
 50
314.0915294008676142
 51
54.5306508876160194
  0
ARC
  5
122AC
  8
0
 10
3781.2472908803929386
 20
226.7097795579784076
 30
0.0
 40
0.0263126661500843
 50
267.0788358377650979
 51
293.1930657065396986
  0
ARC
  5
122AD
  8
0
 10
3781.2438821080318121
 20
226.7138322812041906
 30
0.0
 40
0.0304016041969615
 50
250.3447633173261977
 51
273.9001063983279778
  0
ARC
  5
122AE
  8
0
 10
3781.2340337808400363
 20
226.6862591113595045
 30
0.0
 40
0.0011224436255952
 50
181.6714464600144083
 51
250.344763317299396
  0
ARC
  5
122AF
  8
0
 10
3781.2358414775808342
 20
226.6839537089620933
 30
0.0
 40
0.003707818827497
 50
99.1898042806371905
 51
142.1977601739089891
  0
ARC
  5
122B0
  8
0
 10
3781.2511655076727948
 20
226.6465695997887053
 30
0.0
 40
0.0488353382924472
 50
78.4055344589137064
 51
102.0459665544469061
  0
ARC
  5
122B1
  8
0
 10
3781.2597254819352202
 20
226.6883843663779032
 30
0.0
 40
0.0061534326434136
 50
54.5306508876150673
 51
78.2308136809281081
  0
ARC
  5
122B2
  8
0
 10
3781.2628846491797958
 20
226.6928183709692917
 30
0.0
 40
0.0007091021615798
 50
314.0915294008676142
 51
54.5306508876160194
  0
ARC
  5
122B3
  8
0
 10
3781.2530153122929732
 20
226.7164952287785127
 30
0.0
 40
0.0263126661500843
 50
267.0788358377650979
 51
293.1930657065396986
  0
ARC
  5
122B4
  8
0
 10
3781.2496065399318468
 20
226.7205479520042104
 30
0.0
 40
0.0304016041969615
 50
250.3447633173261977
 51
273.9001063983279778
  0
ARC
  5
122B5
  8
0
 10
3781.239758212740071
 20
226.6929747821594958
 30
0.0
 40
0.0011224436255952
 50
181.6714464600144083
 51
250.344763317299396
  0
ARC
  5
122B6
  8
0
 10
3781.2415659094817784
 20
226.6906693797621131
 30
0.0
 40
0.003707818827497
 50
99.1898042806371905
 51
142.1977601739089891
  0
ARC
  5
122B7
  8
0
 10
3781.2688370338692039
 20
226.6527724887380089
 30
0.0
 40
0.0488353382924472
 50
78.4055344589137064
 51
102.0459665544469061
  0
ARC
  5
122B8
  8
0
 10
3781.2773970081311745
 20
226.6945872553272068
 30
0.0
 40
0.0061534326434136
 50
54.5306508876150673
 51
78.2308136809281081
  0
ARC
  5
122B9
  8
0
 10
3781.2805561753762049
 20
226.6990212599185952
 30
0.0
 40
0.0007091021615798
 50
314.0915294008676142
 51
54.5306508876160194
  0
ARC
  5
122BA
  8
0
 10
3781.2706868384889276
 20
226.7226981177277878
 30
0.0
 40
0.0263126661500843
 50
267.0788358377650979
 51
293.1930657065396986
  0
ARC
  5
122BB
  8
0
 10
3781.2672780661278011
 20
226.7267508409535139
 30
0.0
 40
0.0304016041969615
 50
250.3447633173261977
 51
273.9001063983279778
  0
ARC
  5
122BC
  8
0
 10
3781.2574297389360254
 20
226.6991776711087994
 30
0.0
 40
0.0011224436255952
 50
181.6714464600144083
 51
250.344763317299396
  0
ARC
  5
122BD
  8
0
 10
3781.2592374356781875
 20
226.6968722687113882
 30
0.0
 40
0.003707818827497
 50
99.1898042806371905
 51
142.1977601739089891
  0
ARC
  5
122BE
  8
0
 10
3781.2961082223191625
 20
226.656342135940406
 30
0.0
 40
0.0488353382924472
 50
78.4055344589137064
 51
102.0459665544469061
  0
ARC
  5
122BF
  8
0
 10
3781.3046681965820426
 20
226.6981569025296039
 30
0.0
 40
0.0061534326434136
 50
54.5306508876150673
 51
78.2308136809281081
  0
ARC
  5
122C0
  8
0
 10
3781.3078273638261635
 20
226.7025909071209924
 30
0.0
 40
0.0007091021615798
 50
314.0915294008676142
 51
54.5306508876160194
  0
ARC
  5
122C1
  8
0
 10
3781.2979580269388862
 20
226.7262677649302134
 30
0.0
 40
0.0263126661500843
 50
267.0788358377650979
 51
293.1930657065396986
  0
ARC
  5
122C2
  8
0
 10
3781.294549254579124
 20
226.7303204881559111
 30
0.0
 40
0.0304016041969615
 50
250.3447633173261977
 51
273.9001063983279778
  0
ARC
  5
122C3
  8
0
 10
3781.2847009273868935
 20
226.7027473183111965
 30
0.0
 40
0.0011224436255952
 50
181.6714464600144083
 51
250.344763317299396
  0
ARC
  5
122C4
  8
0
 10
3781.286508624128146
 20
226.7004419159138138
 30
0.0
 40
0.003707818827497
 50
99.1898042806371905
 51
142.1977601739089891
  0
ARC
  5
122C5
  8
0
 10
3781.2373725625739098
 20
226.657555090888593
 30
0.0
 40
0.0488353382924472
 50
78.4055344589137064
 51
102.0459665544469061
  0
ARC
  5
122C6
  8
0
 10
3781.245932536834971
 20
226.6993698574779046
 30
0.0
 40
0.0061534326434136
 50
54.5306508876150673
 51
78.2308136809281081
  0
ARC
  5
122C7
  8
0
 10
3781.2490917040790919
 20
226.703803862069293
 30
0.0
 40
0.0007091021615798
 50
314.0915294008676142
 51
54.5306508876160194
  0
ARC
  5
122C8
  8
0
 10
3781.2392223671931788
 20
226.7274807198784004
 30
0.0
 40
0.0263126661500843
 50
267.0788358377650979
 51
293.1930657065396986
  0
ARC
  5
122C9
  8
0
 10
3781.2358135948320523
 20
226.7315334431042118
 30
0.0
 40
0.0304016041969615
 50
250.3447633173261977
 51
273.9001063983279778
  0
ARC
  5
122CA
  8
0
 10
3781.2259652676398218
 20
226.7039602732594119
 30
0.0
 40
0.0011224436255952
 50
181.6714464600144083
 51
250.344763317299396
  0
ARC
  5
122CB
  8
0
 10
3781.2277729643819839
 20
226.701654870862086
 30
0.0
 40
0.003707818827497
 50
99.1898042806371905
 51
142.1977601739089891
  0
ARC
  5
122CC
  8
0
 10
3781.2195370309727878
 20
226.6521895004887028
 30
0.0
 40
0.0488353382924472
 50
78.4055344589137064
 51
102.0459665544469061
  0
ARC
  5
122CD
  8
0
 10
3781.2280970052352131
 20
226.6940042670779007
 30
0.0
 40
0.0061534326434136
 50
54.5306508876150673
 51
78.2308136809281081
  0
ARC
  5
122CE
  8
0
 10
3781.2312561724797888
 20
226.6984382716692039
 30
0.0
 40
0.0007091021615798
 50
314.0915294008676142
 51
54.5306508876160194
  0
ARC
  5
122CF
  8
0
 10
3781.2213868355929662
 20
226.7221151294783965
 30
0.0
 40
0.0263126661500843
 50
267.0788358377650979
 51
293.1930657065396986
  0
ARC
  5
122D0
  8
0
 10
3781.2179780632318398
 20
226.7261678527042079
 30
0.0
 40
0.0304016041969615
 50
250.3447633173261977
 51
273.9001063983279778
  0
ARC
  5
122D1
  8
0
 10
3781.208129736040064
 20
226.6985946828594933
 30
0.0
 40
0.0011224436255952
 50
181.6714464600144083
 51
250.344763317299396
  0
ARC
  5
122D2
  8
0
 10
3781.2099374327822261
 20
226.6962892804621106
 30
0.0
 40
0.003707818827497
 50
99.1898042806371905
 51
142.1977601739089891
  0
ARC
  5
122D3
  8
0
 10
3781.2086657625732187
 20
226.6460626425887028
 30
0.0
 40
0.0488353382924472
 50
78.4055344589137064
 51
102.0459665544469061
  0
ARC
  5
122D4
  8
0
 10
3781.2172257368351893
 20
226.6878774091779007
 30
0.0
 40
0.0061534326434136
 50
54.5306508876150673
 51
78.2308136809281081
  0
ARC
  5
122D5
  8
0
 10
3781.2203849040788555
 20
226.6923114137692892
 30
0.0
 40
0.0007091021615798
 50
314.0915294008676142
 51
54.5306508876160194
  0
ARC
  5
122D6
  8
0
 10
3781.2105155671920329
 20
226.7159882715783965
 30
0.0
 40
0.0263126661500843
 50
267.0788358377650979
 51
293.1930657065396986
  0
ARC
  5
122D7
  8
0
 10
3781.2071067948318159
 20
226.7200409948042079
 30
0.0
 40
0.0304016041969615
 50
250.3447633173261977
 51
273.9001063983279778
  0
ARC
  5
122D8
  8
0
 10
3781.1972584676409497
 20
226.6924678249594933
 30
0.0
 40
0.0011224436255952
 50
181.6714464600144083
 51
250.344763317299396
  0
ARC
  5
122D9
  8
0
 10
3781.199066164380838
 20
226.6901624225621106
 30
0.0
 40
0.003707818827497
 50
99.1898042806371905
 51
142.1977601739089891
  0
ARC
  5
122DA
  8
0
 10
3781.205435193051926
 20
226.6394648554959019
 30
0.0
 40
0.0488353382924472
 50
78.4055344589137064
 51
102.0459665544469061
  0
ARC
  5
122DB
  8
0
 10
3781.2139951673138967
 20
226.6812796220852135
 30
0.0
 40
0.0061534326434136
 50
54.5306508876150673
 51
78.2308136809281081
  0
ARC
  5
122DC
  8
0
 10
3781.2171543345580176
 20
226.6857136266764883
 30
0.0
 40
0.0007091021615798
 50
314.0915294008676142
 51
54.5306508876160194
  0
ARC
  5
122DD
  8
0
 10
3781.2072849976721045
 20
226.7093904844857093
 30
0.0
 40
0.0263126661500843
 50
267.0788358377650979
 51
293.1930657065396986
  0
ARC
  5
122DE
  8
0
 10
3781.203876225310978
 20
226.713443207711407
 30
0.0
 40
0.0304016041969615
 50
250.3447633173261977
 51
273.9001063983279778
  0
ARC
  5
122DF
  8
0
 10
3781.1940278981192023
 20
226.6858700378666924
 30
0.0
 40
0.0011224436255952
 50
181.6714464600144083
 51
250.344763317299396
  0
ARC
  5
122E0
  8
0
 10
3781.1958355948609096
 20
226.6835646354693949
 30
0.0
 40
0.003707818827497
 50
99.1898042806371905
 51
142.1977601739089891
  0
ARC
  5
122E1
  8
0
 10
3781.2100711972311728
 20
226.6330462969121982
 30
0.0
 40
0.0488353382924472
 50
78.4055344589137064
 51
102.0459665544469061
  0
ARC
  5
122E2
  8
0
 10
3781.2186311714931435
 20
226.6748610635013961
 30
0.0
 40
0.0061534326434136
 50
54.5306508876150673
 51
78.2308136809281081
  0
ARC
  5
122E3
  8
0
 10
3781.2217903387368096
 20
226.6792950680926992
 30
0.0
 40
0.0007091021615798
 50
314.0915294008676142
 51
54.5306508876160194
  0
ARC
  5
122E4
  8
0
 10
3781.2119210018508966
 20
226.7029719259018918
 30
0.0
 40
0.0263126661500843
 50
267.0788358377650979
 51
293.1930657065396986
  0
ARC
  5
122E5
  8
0
 10
3781.2085122294902249
 20
226.7070246491277032
 30
0.0
 40
0.0304016041969615
 50
250.3447633173261977
 51
273.9001063983279778
  0
ARC
  5
122E6
  8
0
 10
3781.1986639022979944
 20
226.6794514792829887
 30
0.0
 40
0.0011224436255952
 50
181.6714464600144083
 51
250.344763317299396
  0
ARC
  5
122E7
  8
0
 10
3781.2004715990401564
 20
226.6771460768856059
 30
0.0
 40
0.003707818827497
 50
99.1898042806371905
 51
142.1977601739089891
  0
ARC
  5
122E8
  8
0
 10
3781.2222854867732167
 20
226.627161937888701
 30
0.0
 40
0.0488353382924472
 50
78.4055344589137064
 51
102.0459665544469061
  0
ARC
  5
122E9
  8
0
 10
3781.2308454610351873
 20
226.6689767044778989
 30
0.0
 40
0.0061534326434136
 50
54.5306508876150673
 51
78.2308136809281081
  0
ARC
  5
122EA
  8
0
 10
3781.2340046282788535
 20
226.6734107090692873
 30
0.0
 40
0.0007091021615798
 50
314.0915294008676142
 51
54.5306508876160194
  0
ARC
  5
122EB
  8
0
 10
3781.2241352913920309
 20
226.6970875668785084
 30
0.0
 40
0.0263126661500843
 50
267.0788358377650979
 51
293.1930657065396986
  0
ARC
  5
122EC
  8
0
 10
3781.220726519031814
 20
226.7011402901042061
 30
0.0
 40
0.0304016041969615
 50
250.3447633173261977
 51
273.9001063983279778
  0
ARC
  5
122ED
  8
0
 10
3781.2108781918409477
 20
226.6735671202594915
 30
0.0
 40
0.0011224436255952
 50
181.6714464600144083
 51
250.344763317299396
  0
ARC
  5
122EE
  8
0
 10
3781.212685888580836
 20
226.671261717862194
 30
0.0
 40
0.003707818827497
 50
99.1898042806371905
 51
142.1977601739089891
  0
ARC
  5
122EF
  8
0
 10
3781.2129863303161983
 20
226.6146463971992944
 30
0.0
 40
0.0488353382924472
 50
78.4055344589137064
 51
102.0459665544469061
  0
ARC
  5
122F0
  8
0
 10
3781.2215463045781689
 20
226.6564611637884923
 30
0.0
 40
0.0061534326434136
 50
54.5306508876150673
 51
78.2308136809281081
  0
ARC
  5
122F1
  8
0
 10
3781.2247054718218351
 20
226.6608951683799091
 30
0.0
 40
0.0007091021615798
 50
314.0915294008676142
 51
54.5306508876160194
  0
ARC
  5
122F2
  8
0
 10
3781.214836134935922
 20
226.6845720261891017
 30
0.0
 40
0.0263126661500843
 50
267.0788358377650979
 51
293.1930657065396986
  0
ARC
  5
122F3
  8
0
 10
3781.2114273625747956
 20
226.6886247494149131
 30
0.0
 40
0.0304016041969615
 50
250.3447633173261977
 51
273.9001063983279778
  0
ARC
  5
122F4
  8
0
 10
3781.2015790353830198
 20
226.6610515795701133
 30
0.0
 40
0.0011224436255952
 50
181.6714464600144083
 51
250.344763317299396
  0
ARC
  5
122F5
  8
0
 10
3781.2033867321251819
 20
226.6587461771727874
 30
0.0
 40
0.003707818827497
 50
99.1898042806371905
 51
142.1977601739089891
  0
ARC
  5
122F6
  8
0
 10
3781.1952041299869052
 20
226.6187587808271076
 30
0.0
 40
0.0488353382924472
 50
78.4055344589137064
 51
102.0459665544469061
  0
ARC
  5
122F7
  8
0
 10
3781.2037641042488758
 20
226.6605735474163055
 30
0.0
 40
0.0061534326434136
 50
54.5306508876150673
 51
78.2308136809281081
  0
ARC
  5
122F8
  8
0
 10
3781.2069232714929967
 20
226.6650075520076939
 30
0.0
 40
0.0007091021615798
 50
314.0915294008676142
 51
54.5306508876160194
  0
ARC
  5
122F9
  8
0
 10
3781.1970539346070836
 20
226.6886844098168865
 30
0.0
 40
0.0263126661500843
 50
267.0788358377650979
 51
293.1930657065396986
  0
ARC
  5
122FA
  8
0
 10
3781.1936451622459572
 20
226.6927371330426126
 30
0.0
 40
0.0304016041969615
 50
250.3447633173261977
 51
273.9001063983279778
  0
ARC
  5
122FB
  8
0
 10
3781.1837968350541814
 20
226.6651639631978981
 30
0.0
 40
0.0011224436255952
 50
181.6714464600144083
 51
250.344763317299396
  0
ARC
  5
122FC
  8
0
 10
3781.1856045317949793
 20
226.6628585608004869
 30
0.0
 40
0.003707818827497
 50
99.1898042806371905
 51
142.1977601739089891
  0
ARC
  5
122FD
  8
0
 10
3781.218026531013038
 20
226.6037125616120136
 30
0.0
 40
0.0488353382924472
 50
78.4055344589137064
 51
102.0459665544469061
  0
ARC
  5
122FE
  8
0
 10
3781.2265865052750087
 20
226.6455273282012115
 30
0.0
 40
0.0061534326434136
 50
54.5306508876150673
 51
78.2308136809281081
  0
ARC
  5
122FF
  8
0
 10
3781.2297456725191296
 20
226.6499613327925999
 30
0.0
 40
0.0007091021615798
 50
314.0915294008676142
 51
54.5306508876160194
  0
ARC
  5
12300
  8
0
 10
3781.2198763356318523
 20
226.6736381906017073
 30
0.0
 40
0.0263126661500843
 50
267.0788358377650979
 51
293.1930657065396986
  0
ARC
  5
12301
  8
0
 10
3781.21646756327209
 20
226.6776909138274902
 30
0.0
 40
0.0304016041969615
 50
250.3447633173261977
 51
273.9001063983279778
  0
ARC
  5
12302
  8
0
 10
3781.2066192360798595
 20
226.6501177439828041
 30
0.0
 40
0.0011224436255952
 50
181.6714464600144083
 51
250.344763317299396
  0
ARC
  5
12303
  8
0
 10
3781.2084269328211121
 20
226.6478123415853929
 30
0.0
 40
0.003707818827497
 50
99.1898042806371905
 51
142.1977601739089891
  0
ARC
  5
12304
  8
0
 10
3781.1946502775940644
 20
226.6072953600551045
 30
0.0
 40
0.0488353382924472
 50
78.4055344589137064
 51
102.0459665544469061
  0
ARC
  5
12305
  8
0
 10
3781.203210251856035
 20
226.6491101266443025
 30
0.0
 40
0.0061534326434136
 50
54.5306508876150673
 51
78.2308136809281081
  0
ARC
  5
12306
  8
0
 10
3781.2063694191010654
 20
226.6535441312356909
 30
0.0
 40
0.0007091021615798
 50
314.0915294008676142
 51
54.5306508876160194
  0
ARC
  5
12307
  8
0
 10
3781.1965000822137881
 20
226.6772209890449119
 30
0.0
 40
0.0263126661500843
 50
267.0788358377650979
 51
293.1930657065396986
  0
ARC
  5
12308
  8
0
 10
3781.1930913098531164
 20
226.6812737122706096
 30
0.0
 40
0.0304016041969615
 50
250.3447633173261977
 51
273.9001063983279778
  0
ARC
  5
12309
  8
0
 10
3781.1832429826608859
 20
226.653700542425895
 30
0.0
 40
0.0011224436255952
 50
181.6714464600144083
 51
250.344763317299396
  0
ARC
  5
1230A
  8
0
 10
3781.185050679403048
 20
226.6513951400285123
 30
0.0
 40
0.003707818827497
 50
99.1898042806371905
 51
142.1977601739089891
  0
ARC
  5
1230B
  8
0
 10
3781.1739244469731602
 20
226.6115097936886968
 30
0.0
 40
0.0488353382924472
 50
78.4055344589137064
 51
102.0459665544469061
  0
ARC
  5
1230C
  8
0
 10
3781.1824844212351309
 20
226.6533245602778948
 30
0.0
 40
0.0061534326434136
 50
54.5306508876150673
 51
78.2308136809281081
  0
ARC
  5
1230D
  8
0
 10
3781.185643588478797
 20
226.6577585648691979
 30
0.0
 40
0.0007091021615798
 50
314.0915294008676142
 51
54.5306508876160194
  0
ARC
  5
1230E
  8
0
 10
3781.1757742515919745
 20
226.6814354226783905
 30
0.0
 40
0.0263126661500843
 50
267.0788358377650979
 51
293.1930657065396986
  0
ARC
  5
1230F
  8
0
 10
3781.1723654792322122
 20
226.6854881459042019
 30
0.0
 40
0.0304016041969615
 50
250.3447633173261977
 51
273.9001063983279778
  0
ARC
  5
12310
  8
0
 10
3781.1625171520399817
 20
226.6579149760594873
 30
0.0
 40
0.0011224436255952
 50
181.6714464600144083
 51
250.344763317299396
  0
ARC
  5
12311
  8
0
 10
3781.1643248487807796
 20
226.6556095736621046
 30
0.0
 40
0.003707818827497
 50
99.1898042806371905
 51
142.1977601739089891
  0
ARC
  5
12312
  8
0
 10
3781.1562527569608392
 20
226.6163313277276927
 30
0.0
 40
0.0488353382924472
 50
78.4055344589137064
 51
102.0459665544469061
  0
ARC
  5
12313
  8
0
 10
3781.1648127312228098
 20
226.6581460943168906
 30
0.0
 40
0.0061534326434136
 50
54.5306508876150673
 51
78.2308136809281081
  0
ARC
  5
12314
  8
0
 10
3781.1679718984669307
 20
226.6625800989083075
 30
0.0
 40
0.0007091021615798
 50
314.0915294008676142
 51
54.5306508876160194
  0
ARC
  5
12315
  8
0
 10
3781.1581025615810177
 20
226.6862569567175001
 30
0.0
 40
0.0263126661500843
 50
267.0788358377650979
 51
293.1930657065396986
  0
ARC
  5
12316
  8
0
 10
3781.1546937892198912
 20
226.6903096799431978
 30
0.0
 40
0.0304016041969615
 50
250.3447633173261977
 51
273.9001063983279778
  0
ARC
  5
12317
  8
0
 10
3781.1448454620281154
 20
226.6627365100985116
 30
0.0
 40
0.0011224436255952
 50
181.6714464600144083
 51
250.344763317299396
  0
ARC
  5
12318
  8
0
 10
3781.1466531587698228
 20
226.6604311077012142
 30
0.0
 40
0.003707818827497
 50
99.1898042806371905
 51
142.1977601739089891
  0
ARC
  5
12319
  8
0
 10
3781.1419764169568225
 20
226.621594145462808
 30
0.0
 40
0.0488353382924472
 50
78.4055344589137064
 51
102.0459665544469061
  0
ARC
  5
1231A
  8
0
 10
3781.1505363912178836
 20
226.6634089120520912
 30
0.0
 40
0.0061534326434136
 50
54.5306508876150673
 51
78.2308136809281081
  0
ARC
  5
1231B
  8
0
 10
3781.1536955584629141
 20
226.6678429166433943
 30
0.0
 40
0.0007091021615798
 50
314.0915294008676142
 51
54.5306508876160194
  0
ARC
  5
1231C
  8
0
 10
3781.143826221577001
 20
226.6915197744525869
 30
0.0
 40
0.0263126661500843
 50
267.0788358377650979
 51
293.1930657065396986
  0
ARC
  5
1231D
  8
0
 10
3781.140417449214965
 20
226.6955724976783131
 30
0.0
 40
0.0304016041969615
 50
250.3447633173261977
 51
273.9001063983279778
  0
ARC
  5
1231E
  8
0
 10
3781.1305691220231893
 20
226.6679993278335985
 30
0.0
 40
0.0011224436255952
 50
181.6714464600144083
 51
250.344763317299396
  0
ARC
  5
1231F
  8
0
 10
3781.1323768187658061
 20
226.665693925436301
 30
0.0
 40
0.003707818827497
 50
99.1898042806371905
 51
142.1977601739089891
  0
ARC
  5
12320
  8
0
 10
3781.131377996070114
 20
226.6272932555654904
 30
0.0
 40
0.0488353382924472
 50
78.4055344589137064
 51
102.0459665544469061
  0
ARC
  5
12321
  8
0
 10
3781.1399379703311752
 20
226.6691080221546883
 30
0.0
 40
0.0061534326434136
 50
54.5306508876150673
 51
78.2308136809281081
  0
ARC
  5
12322
  8
0
 10
3781.1430971375762056
 20
226.6735420267461052
 30
0.0
 40
0.0007091021615798
 50
314.0915294008676142
 51
54.5306508876160194
  0
ARC
  5
12323
  8
0
 10
3781.1332278006889283
 20
226.6972188845552978
 30
0.0
 40
0.0263126661500843
 50
267.0788358377650979
 51
293.1930657065396986
  0
ARC
  5
12324
  8
0
 10
3781.129819028329166
 20
226.7012716077811092
 30
0.0
 40
0.0304016041969615
 50
250.3447633173261977
 51
273.9001063983279778
  0
ARC
  5
12325
  8
0
 10
3781.1199707011369355
 20
226.6736984379363093
 30
0.0
 40
0.0011224436255952
 50
181.6714464600144083
 51
250.344763317299396
  0
ARC
  5
12326
  8
0
 10
3781.1217783978781881
 20
226.6713930355390119
 30
0.0
 40
0.003707818827497
 50
99.1898042806371905
 51
142.1977601739089891
  0
ARC
  5
12327
  8
0
 10
3781.1246731143728539
 20
226.6331917837887033
 30
0.0
 40
0.0488353382924472
 50
78.4055344589137064
 51
102.0459665544469061
  0
ARC
  5
12328
  8
0
 10
3781.1332330886348245
 20
226.6750065503779012
 30
0.0
 40
0.0061534326434136
 50
54.5306508876150673
 51
78.2308136809281081
  0
ARC
  5
12329
  8
0
 10
3781.1363922558789454
 20
226.6794405549692044
 30
0.0
 40
0.0007091021615798
 50
314.0915294008676142
 51
54.5306508876160194
  0
ARC
  5
1232A
  8
0
 10
3781.1265229189930324
 20
226.703117412778397
 30
0.0
 40
0.0263126661500843
 50
267.0788358377650979
 51
293.1930657065396986
  0
ARC
  5
1232B
  8
0
 10
3781.1231141466328154
 20
226.7071701360042084
 30
0.0
 40
0.0304016041969615
 50
250.3447633173261977
 51
273.9001063983279778
  0
ARC
  5
1232C
  8
0
 10
3781.1132658194401301
 20
226.6795969661594938
 30
0.0
 40
0.0011224436255952
 50
181.6714464600144083
 51
250.344763317299396
  0
ARC
  5
1232D
  8
0
 10
3781.1150735161818375
 20
226.6772915637621111
 30
0.0
 40
0.003707818827497
 50
99.1898042806371905
 51
142.1977601739089891
  0
ARC
  5
1232E
  8
0
 10
3781.1219732095728432
 20
226.6392682230886919
 30
0.0
 40
0.0488353382924472
 50
78.4055344589137064
 51
102.0459665544469061
  0
ARC
  5
1232F
  8
0
 10
3781.1305331838348138
 20
226.6810829896778898
 30
0.0
 40
0.0061534326434136
 50
54.5306508876150673
 51
78.2308136809281081
  0
ARC
  5
12330
  8
0
 10
3781.1336923510789347
 20
226.685516994269193
 30
0.0
 40
0.0007091021615798
 50
314.0915294008676142
 51
54.5306508876160194
  0
ARC
  5
12331
  8
0
 10
3781.1238230141930217
 20
226.709193852078414
 30
0.0
 40
0.0263126661500843
 50
267.0788358377650979
 51
293.1930657065396986
  0
ARC
  5
12332
  8
0
 10
3781.1204142418318952
 20
226.713246575304197
 30
0.0
 40
0.0304016041969615
 50
250.3447633173261977
 51
273.9001063983279778
  0
ARC
  5
12333
  8
0
 10
3781.1105659146401194
 20
226.6856734054595108
 30
0.0
 40
0.0011224436255952
 50
181.6714464600144083
 51
250.344763317299396
  0
ARC
  5
12334
  8
0
 10
3781.1123736113818268
 20
226.6833680030620997
 30
0.0
 40
0.003707818827497
 50
99.1898042806371905
 51
142.1977601739089891
  0
ARC
  5
12335
  8
0
 10
3781.1233437706728182
 20
226.6452447646886128
 30
0.0
 40
0.0488353382924472
 50
78.4055344589137064
 51
102.0459665544469061
  0
ARC
  5
12336
  8
0
 10
3781.1319037449347888
 20
226.687059531277896
 30
0.0
 40
0.0061534326434136
 50
54.5306508876150673
 51
78.2308136809281081
  0
ARC
  5
12337
  8
0
 10
3781.1350629121798193
 20
226.6914935358693128
 30
0.0
 40
0.0007091021615798
 50
314.0915294008676142
 51
54.5306508876160194
  0
ARC
  5
12338
  8
0
 10
3781.1251935752929967
 20
226.7151703936785054
 30
0.0
 40
0.0263126661500843
 50
267.0788358377650979
 51
293.1930657065396986
  0
ARC
  5
12339
  8
0
 10
3781.1217848029327797
 20
226.7192231169042032
 30
0.0
 40
0.0304016041969615
 50
250.3447633173261977
 51
273.9001063983279778
  0
ARC
  5
1233A
  8
0
 10
3781.1119364757400945
 20
226.6916499470594886
 30
0.0
 40
0.0011224436255952
 50
181.6714464600144083
 51
250.344763317299396
  0
ARC
  5
1233B
  8
0
 10
3781.1137441724818018
 20
226.6893445446621058
 30
0.0
 40
0.003707818827497
 50
99.1898042806371905
 51
142.1977601739089891
  0
ARC
  5
1233C
  8
0
 10
3781.0877959929730423
 20
226.6278357435886051
 30
0.0
 40
0.0488353382924472
 50
78.4055344589137064
 51
102.0459665544469061
  0
ARC
  5
1233D
  8
0
 10
3781.0963559672350129
 20
226.6696505101778882
 30
0.0
 40
0.0061534326434136
 50
54.5306508876150673
 51
78.2308136809281081
  0
ARC
  5
1233E
  8
0
 10
3781.0995151344791338
 20
226.6740845147693051
 30
0.0
 40
0.0007091021615798
 50
314.0915294008676142
 51
54.5306508876160194
  0
ARC
  5
1233F
  8
0
 10
3781.0896457975932208
 20
226.6977613725784977
 30
0.0
 40
0.0263126661500843
 50
267.0788358377650979
 51
293.1930657065396986
  0
ARC
  5
12340
  8
0
 10
3781.0862370252320943
 20
226.7018140958041954
 30
0.0
 40
0.0304016041969615
 50
250.3447633173261977
 51
273.9001063983279778
  0
ARC
  5
12341
  8
0
 10
3781.0763886980398638
 20
226.6742409259593956
 30
0.0
 40
0.0011224436255952
 50
181.6714464600144083
 51
250.344763317299396
  0
ARC
  5
12342
  8
0
 10
3781.0781963947811164
 20
226.6719355235620981
 30
0.0
 40
0.003707818827497
 50
99.1898042806371905
 51
142.1977601739089891
  0
ARC
  5
12343
  8
0
 10
3781.0975449529450998
 20
226.6212695697738866
 30
0.0
 40
0.0488353382924472
 50
78.4055344589137064
 51
102.0459665544469061
  0
ARC
  5
12344
  8
0
 10
3781.1061049272070704
 20
226.6630843363631982
 30
0.0
 40
0.0061534326434136
 50
54.5306508876150673
 51
78.2308136809281081
  0
ARC
  5
12345
  8
0
 10
3781.1092640944521008
 20
226.6675183409545014
 30
0.0
 40
0.0007091021615798
 50
314.0915294008676142
 51
54.5306508876160194
  0
ARC
  5
12346
  8
0
 10
3781.0993947575648235
 20
226.691195198763694
 30
0.0
 40
0.0263126661500843
 50
267.0788358377650979
 51
293.1930657065396986
  0
ARC
  5
12347
  8
0
 10
3781.0959859852041518
 20
226.6952479219895054
 30
0.0
 40
0.0304016041969615
 50
250.3447633173261977
 51
273.9001063983279778
  0
ARC
  5
12348
  8
0
 10
3781.0861376580119213
 20
226.6676747521447908
 30
0.0
 40
0.0011224436255952
 50
181.6714464600144083
 51
250.344763317299396
  0
ARC
  5
12349
  8
0
 10
3781.0879453547540834
 20
226.665369349747408
 30
0.0
 40
0.003707818827497
 50
99.1898042806371905
 51
142.1977601739089891
  0
ARC
  5
1234A
  8
0
 10
3781.1107835343241277
 20
226.6153651928989063
 30
0.0
 40
0.0488353382924472
 50
78.4055344589137064
 51
102.0459665544469061
  0
ARC
  5
1234B
  8
0
 10
3781.1193435085851888
 20
226.6571799594881043
 30
0.0
 40
0.0061534326434136
 50
54.5306508876150673
 51
78.2308136809281081
  0
ARC
  5
1234C
  8
0
 10
3781.1225026758302192
 20
226.6616139640794927
 30
0.0
 40
0.0007091021615798
 50
314.0915294008676142
 51
54.5306508876160194
  0
ARC
  5
1234D
  8
0
 10
3781.1126333389429419
 20
226.6852908218886
 30
0.0
 40
0.0263126661500843
 50
267.0788358377650979
 51
293.1930657065396986
  0
ARC
  5
1234E
  8
0
 10
3781.1092245665831797
 20
226.6893435451144114
 30
0.0
 40
0.0304016041969615
 50
250.3447633173261977
 51
273.9001063983279778
  0
ARC
  5
1234F
  8
0
 10
3781.0993762393909492
 20
226.6617703752696968
 30
0.0
 40
0.0011224436255952
 50
181.6714464600144083
 51
250.344763317299396
  0
ARC
  5
12350
  8
0
 10
3781.1011839361322018
 20
226.6594649728723141
 30
0.0
 40
0.003707818827497
 50
99.1898042806371905
 51
142.1977601739089891
  0
ARC
  5
12351
  8
0
 10
3781.1274831048731357
 20
226.6098367356887024
 30
0.0
 40
0.0488353382924472
 50
78.4055344589137064
 51
102.0459665544469061
  0
ARC
  5
12352
  8
0
 10
3781.1360430791351064
 20
226.6516515022779004
 30
0.0
 40
0.0061534326434136
 50
54.5306508876150673
 51
78.2308136809281081
  0
ARC
  5
12353
  8
0
 10
3781.1392022463792273
 20
226.6560855068692888
 30
0.0
 40
0.0007091021615798
 50
314.0915294008676142
 51
54.5306508876160194
  0
ARC
  5
12354
  8
0
 10
3781.12933290949195
 20
226.6797623646783961
 30
0.0
 40
0.0263126661500843
 50
267.0788358377650979
 51
293.1930657065396986
  0
ARC
  5
12355
  8
0
 10
3781.1259241371321878
 20
226.6838150879042075
 30
0.0
 40
0.0304016041969615
 50
250.3447633173261977
 51
273.9001063983279778
  0
ARC
  5
12356
  8
0
 10
3781.1160758099399573
 20
226.6562419180594929
 30
0.0
 40
0.0011224436255952
 50
181.6714464600144083
 51
250.344763317299396
  0
ARC
  5
12357
  8
0
 10
3781.1178835066812098
 20
226.6539365156621102
 30
0.0
 40
0.003707818827497
 50
99.1898042806371905
 51
142.1977601739089891
  0
ARC
  5
12358
  8
0
 10
3781.1473796491268331
 20
226.6048338234280948
 30
0.0
 40
0.0488353382924472
 50
78.4055344589137064
 51
102.0459665544469061
  0
ARC
  5
12359
  8
0
 10
3781.155939623390168
 20
226.6466485900172927
 30
0.0
 40
0.0061534326434136
 50
54.5306508876150673
 51
78.2308136809281081
  0
ARC
  5
1235A
  8
0
 10
3781.1590987906338341
 20
226.6510825946085959
 30
0.0
 40
0.0007091021615798
 50
314.0915294008676142
 51
54.5306508876160194
  0
ARC
  5
1235B
  8
0
 10
3781.1492294537479211
 20
226.6747594524177885
 30
0.0
 40
0.0263126661500843
 50
267.0788358377650979
 51
293.1930657065396986
  0
ARC
  5
1235C
  8
0
 10
3781.1458206813867946
 20
226.6788121756435999
 30
0.0
 40
0.0304016041969615
 50
250.3447633173261977
 51
273.9001063983279778
  0
ARC
  5
1235D
  8
0
 10
3781.1359723541950189
 20
226.6512390057989137
 30
0.0
 40
0.0011224436255952
 50
181.6714464600144083
 51
250.344763317299396
  0
ARC
  5
1235E
  8
0
 10
3781.1377800509358167
 20
226.6489336034015025
 30
0.0
 40
0.003707818827497
 50
99.1898042806371905
 51
142.1977601739089891
  0
ARC
  5
1235F
  8
0
 10
3781.1701661079728183
 20
226.6003075161885931
 30
0.0
 40
0.0488353382924472
 50
78.4055344589137064
 51
102.0459665544469061
  0
ARC
  5
12360
  8
0
 10
3781.1787260822347889
 20
226.6421222827779047
 30
0.0
 40
0.0061534326434136
 50
54.5306508876150673
 51
78.2308136809281081
  0
ARC
  5
12361
  8
0
 10
3781.1818852494798193
 20
226.6465562873692932
 30
0.0
 40
0.0007091021615798
 50
314.0915294008676142
 51
54.5306508876160194
  0
ARC
  5
12362
  8
0
 10
3781.1720159125929968
 20
226.6702331451784005
 30
0.0
 40
0.0263126661500843
 50
267.0788358377650979
 51
293.1930657065396986
  0
ARC
  5
12363
  8
0
 10
3781.1686071402318703
 20
226.6742858684042119
 30
0.0
 40
0.0304016041969615
 50
250.3447633173261977
 51
273.9001063983279778
  0
ARC
  5
12364
  8
0
 10
3781.1587588130400945
 20
226.6467126985594973
 30
0.0
 40
0.0011224436255952
 50
181.6714464600144083
 51
250.344763317299396
  0
ARC
  5
12365
  8
0
 10
3781.1605665097818019
 20
226.6444072961620861
 30
0.0
 40
0.003707818827497
 50
99.1898042806371905
 51
142.1977601739089891
  0
ARC
  5
12366
  8
0
 10
3781.1954694802620907
 20
226.5965438760902941
 30
0.0
 40
0.0488353382924472
 50
78.4055344589137064
 51
102.0459665544469061
  0
ARC
  5
12367
  8
0
 10
3781.2040294545231518
 20
226.638358642679492
 30
0.0
 40
0.0061534326434136
 50
54.5306508876150673
 51
78.2308136809281081
  0
ARC
  5
12368
  8
0
 10
3781.2071886217681822
 20
226.6427926472709089
 30
0.0
 40
0.0007091021615798
 50
314.0915294008676142
 51
54.5306508876160194
  0
ARC
  5
12369
  8
0
 10
3781.1973192848818144
 20
226.6664695050799878
 30
0.0
 40
0.0263126661500843
 50
267.0788358377650979
 51
293.1930657065396986
  0
ARC
  5
1236A
  8
0
 10
3781.1939105125197784
 20
226.6705222283057992
 30
0.0
 40
0.0304016041969615
 50
250.3447633173261977
 51
273.9001063983279778
  0
ARC
  5
1236B
  8
0
 10
3781.1840621853280027
 20
226.6429490584611131
 30
0.0
 40
0.0011224436255952
 50
181.6714464600144083
 51
250.344763317299396
  0
ARC
  5
1236C
  8
0
 10
3781.1858698820701647
 20
226.6406436560637019
 30
0.0
 40
0.003707818827497
 50
99.1898042806371905
 51
142.1977601739089891
  0
ARC
  5
1236D
  8
0
 10
3781.0821583433730666
 20
226.6342380989887033
 30
0.0
 40
0.0488353382924472
 50
78.4055344589137064
 51
102.0459665544469061
  0
ARC
  5
1236E
  8
0
 10
3781.0907183176350372
 20
226.6760528655779012
 30
0.0
 40
0.0061534326434136
 50
54.5306508876150673
 51
78.2308136809281081
  0
ARC
  5
1236F
  8
0
 10
3781.0938774848800676
 20
226.6804868701692897
 30
0.0
 40
0.0007091021615798
 50
314.0915294008676142
 51
54.5306508876160194
  0
ARC
  5
12370
  8
0
 10
3781.0840081479927903
 20
226.704163727978397
 30
0.0
 40
0.0263126661500843
 50
267.0788358377650979
 51
293.1930657065396986
  0
ARC
  5
12371
  8
0
 10
3781.0805993756321186
 20
226.7082164512042084
 30
0.0
 40
0.0304016041969615
 50
250.3447633173261977
 51
273.9001063983279778
  0
ARC
  5
12372
  8
0
 10
3781.0707510484398881
 20
226.6806432813594938
 30
0.0
 40
0.0011224436255952
 50
181.6714464600144083
 51
250.344763317299396
  0
ARC
  5
12373
  8
0
 10
3781.0725587451820502
 20
226.6783378789621111
 30
0.0
 40
0.003707818827497
 50
99.1898042806371905
 51
142.1977601739089891
  0
ARC
  5
12374
  8
0
 10
3781.1604631921732107
 20
226.6394508115886879
 30
0.0
 40
0.0488353382924472
 50
78.4055344589137064
 51
102.0459665544469061
  0
ARC
  5
12375
  8
0
 10
3781.1690231664351813
 20
226.6812655781778858
 30
0.0
 40
0.0061534326434136
 50
54.5306508876150673
 51
78.2308136809281081
  0
ARC
  5
12376
  8
0
 10
3781.1721823336802117
 20
226.685699582769189
 30
0.0
 40
0.0007091021615798
 50
314.0915294008676142
 51
54.5306508876160194
  0
ARC
  5
12377
  8
0
 10
3781.1623129967929344
 20
226.70937644057841
 30
0.0
 40
0.0263126661500843
 50
267.0788358377650979
 51
293.1930657065396986
  0
ARC
  5
12378
  8
0
 10
3781.158904224431808
 20
226.713429163804193
 30
0.0
 40
0.0304016041969615
 50
250.3447633173261977
 51
273.9001063983279778
  0
ARC
  5
12379
  8
0
 10
3781.1490558972400322
 20
226.6858559939595068
 30
0.0
 40
0.0011224436255952
 50
181.6714464600144083
 51
250.344763317299396
  0
ARC
  5
1237A
  8
0
 10
3781.1508635939821943
 20
226.6835505915620956
 30
0.0
 40
0.003707818827497
 50
99.1898042806371905
 51
142.1977601739089891
  0
ARC
  5
1237B
  8
0
 10
3781.1631554076861903
 20
226.633803860100187
 30
0.0
 40
0.0488353382924472
 50
78.4055344589137064
 51
102.0459665544469061
  0
ARC
  5
1237C
  8
0
 10
3781.1717153819467967
 20
226.6756186266894133
 30
0.0
 40
0.0061534326434136
 50
54.5306508876150673
 51
78.2308136809281081
  0
ARC
  5
1237D
  8
0
 10
3781.1748745491918271
 20
226.6800526312808017
 30
0.0
 40
0.0007091021615798
 50
314.0915294008676142
 51
54.5306508876160194
  0
ARC
  5
1237E
  8
0
 10
3781.165005212305914
 20
226.7037294890899943
 30
0.0
 40
0.0263126661500843
 50
267.0788358377650979
 51
293.1930657065396986
  0
ARC
  5
1237F
  8
0
 10
3781.1615964399438781
 20
226.707782212315692
 30
0.0
 40
0.0304016041969615
 50
250.3447633173261977
 51
273.9001063983279778
  0
ARC
  5
12380
  8
0
 10
3781.1517481127530118
 20
226.6802090424710059
 30
0.0
 40
0.0011224436255952
 50
181.6714464600144083
 51
250.344763317299396
  0
ARC
  5
12381
  8
0
 10
3781.1535558094951739
 20
226.6779036400737084
 30
0.0
 40
0.003707818827497
 50
99.1898042806371905
 51
142.1977601739089891
  0
ARC
  5
12382
  8
0
 10
3781.1699741154129697
 20
226.6284517705149995
 30
0.0
 40
0.0488353382924472
 50
78.4055344589137064
 51
102.0459665544469061
  0
ARC
  5
12383
  8
0
 10
3781.1785340896740308
 20
226.6702665371043111
 30
0.0
 40
0.0061534326434136
 50
54.5306508876150673
 51
78.2308136809281081
  0
ARC
  5
12384
  8
0
 10
3781.1816932569190612
 20
226.6747005416955858
 30
0.0
 40
0.0007091021615798
 50
314.0915294008676142
 51
54.5306508876160194
  0
ARC
  5
12385
  8
0
 10
3781.1718239200331482
 20
226.6983773995048068
 30
0.0
 40
0.0263126661500843
 50
267.0788358377650979
 51
293.1930657065396986
  0
ARC
  5
12386
  8
0
 10
3781.1684151476711122
 20
226.7024301227305045
 30
0.0
 40
0.0304016041969615
 50
250.3447633173261977
 51
273.9001063983279778
  0
ARC
  5
12387
  8
0
 10
3781.1585668204788817
 20
226.67485695288579
 30
0.0
 40
0.0011224436255952
 50
181.6714464600144083
 51
250.344763317299396
  0
ARC
  5
12388
  8
0
 10
3781.1603745172210438
 20
226.6725515504884925
 30
0.0
 40
0.003707818827497
 50
99.1898042806371905
 51
142.1977601739089891
  0
ARC
  5
12389
  8
0
 10
3781.1807483943371153
 20
226.6233955019268933
 30
0.0
 40
0.0488353382924472
 50
78.4055344589137064
 51
102.0459665544469061
  0
ARC
  5
1238A
  8
0
 10
3781.189308368599086
 20
226.6652102685162049
 30
0.0
 40
0.0061534326434136
 50
54.5306508876150673
 51
78.2308136809281081
  0
ARC
  5
1238B
  8
0
 10
3781.1924675358441164
 20
226.6696442731075081
 30
0.0
 40
0.0007091021615798
 50
314.0915294008676142
 51
54.5306508876160194
  0
ARC
  5
1238C
  8
0
 10
3781.182598198956839
 20
226.6933211309167007
 30
0.0
 40
0.0263126661500843
 50
267.0788358377650979
 51
293.1930657065396986
  0
ARC
  5
1238D
  8
0
 10
3781.1791894265970768
 20
226.6973738541425121
 30
0.0
 40
0.0304016041969615
 50
250.3447633173261977
 51
273.9001063983279778
  0
ARC
  5
1238E
  8
0
 10
3781.1693410994048463
 20
226.6698006842977975
 30
0.0
 40
0.0011224436255952
 50
181.6714464600144083
 51
250.344763317299396
  0
ARC
  5
1238F
  8
0
 10
3781.1711487961460989
 20
226.6674952819003863
 30
0.0
 40
0.003707818827497
 50
99.1898042806371905
 51
142.1977601739089891
  0
ARC
  5
12390
  8
0
 10
3781.1619519540731744
 20
226.6449108818885918
 30
0.0
 40
0.0488353382924472
 50
78.4055344589137064
 51
102.0459665544469061
  0
ARC
  5
12391
  8
0
 10
3781.1705119283351451
 20
226.6867256484779034
 30
0.0
 40
0.0061534326434136
 50
54.5306508876150673
 51
78.2308136809281081
  0
ARC
  5
12392
  8
0
 10
3781.1736710955788112
 20
226.6911596530692918
 30
0.0
 40
0.0007091021615798
 50
314.0915294008676142
 51
54.5306508876160194
  0
ARC
  5
12393
  8
0
 10
3781.1638017586928981
 20
226.7148365108785129
 30
0.0
 40
0.0263126661500843
 50
267.0788358377650979
 51
293.1930657065396986
  0
ARC
  5
12394
  8
0
 10
3781.1603929863322264
 20
226.7188892341042106
 30
0.0
 40
0.0304016041969615
 50
250.3447633173261977
 51
273.9001063983279778
  0
ARC
  5
12395
  8
0
 10
3781.1505446591409054
 20
226.6913160642594107
 30
0.0
 40
0.0011224436255952
 50
181.6714464600144083
 51
250.344763317299396
  0
ARC
  5
12396
  8
0
 10
3781.1523523558807938
 20
226.6890106618621132
 30
0.0
 40
0.003707818827497
 50
99.1898042806371905
 51
142.1977601739089891
  0
ARC
  5
12397
  8
0
 10
3781.1675798637729713
 20
226.6503287998887117
 30
0.0
 40
0.0488353382924472
 50
78.4055344589137064
 51
102.0459665544469061
  0
ARC
  5
12398
  8
0
 10
3781.1761398380349419
 20
226.6921435664779096
 30
0.0
 40
0.0061534326434136
 50
54.5306508876150673
 51
78.2308136809281081
  0
ARC
  5
12399
  8
0
 10
3781.1792990052790628
 20
226.6965775710692981
 30
0.0
 40
0.0007091021615798
 50
314.0915294008676142
 51
54.5306508876160194
  0
ARC
  5
1239A
  8
0
 10
3781.1694296683931498
 20
226.7202544288784054
 30
0.0
 40
0.0263126661500843
 50
267.0788358377650979
 51
293.1930657065396986
  0
ARC
  5
1239B
  8
0
 10
3781.1660208960320233
 20
226.7243071521041884
 30
0.0
 40
0.0304016041969615
 50
250.3447633173261977
 51
273.9001063983279778
  0
ARC
  5
1239C
  8
0
 10
3781.1561725688397928
 20
226.6967339822595022
 30
0.0
 40
0.0011224436255952
 50
181.6714464600144083
 51
250.344763317299396
  0
ARC
  5
1239D
  8
0
 10
3781.1579802655810454
 20
226.6944285798620911
 30
0.0
 40
0.003707818827497
 50
99.1898042806371905
 51
142.1977601739089891
  0
ARC
  5
1239E
  8
0
 10
3781.1772272071730185
 20
226.6555121451887089
 30
0.0
 40
0.0488353382924472
 50
78.4055344589137064
 51
90.5906909940722329
  0
ARC
  5
1239F
  8
0
 10
3781.1772272071730185
 20
226.6555121451887089
 30
0.0
 40
0.0488353382924472
 50
100.9518397603187054
 51
102.0459665544469061
  0
ARC
  5
123A0
  8
0
 10
3781.1857871814349892
 20
226.6973269117779068
 30
0.0
 40
0.0061534326434136
 50
54.5306508876150673
 51
78.2308136809281081
  0
ARC
  5
123A1
  8
0
 10
3781.1889463486800196
 20
226.7017609163692953
 30
0.0
 40
0.0007091021615798
 50
314.0915294008676142
 51
54.5306508876160194
  0
ARC
  5
123A2
  8
0
 10
3781.179077011793197
 20
226.7254377741784026
 30
0.0
 40
0.0263126661500843
 50
267.0788358377650979
 51
293.1930657065396986
  0
ARC
  5
123A3
  8
0
 10
3781.1756682394320705
 20
226.729490497404214
 30
0.0
 40
0.0304016041969615
 50
250.3447633173261977
 51
273.9001063983279778
  0
ARC
  5
123A4
  8
0
 10
3781.1658199122398401
 20
226.7019173275594994
 30
0.0
 40
0.0011224436255952
 50
181.6714464600144083
 51
250.344763317299396
  0
ARC
  5
123A5
  8
0
 10
3781.1676276089820021
 20
226.6996119251620883
 30
0.0
 40
0.003707818827497
 50
99.1898042806371905
 51
142.1977601739089891
  0
ARC
  5
123A6
  8
0
 10
3781.1287501049728235
 20
226.6511959958885996
 30
0.0
 40
0.0488353382924472
 50
78.4055344589137064
 51
81.519856318110115
  0
ARC
  5
123A7
  8
0
 10
3781.1373100792338846
 20
226.6930107624779112
 30
0.0
 40
0.0061534326434136
 50
54.5306508876150673
 51
78.2308136809281081
  0
ARC
  5
123A8
  8
0
 10
3781.1404692464798245
 20
226.6974447670692996
 30
0.0
 40
0.0007091021615798
 50
314.0915294008676142
 51
54.5306508876160194
  0
ARC
  5
123A9
  8
0
 10
3781.1305999095930019
 20
226.7211216248784069
 30
0.0
 40
0.0263126661500843
 50
267.0788358377650979
 51
293.1930657065396986
  0
ARC
  5
123AA
  8
0
 10
3781.1271911372318755
 20
226.7251743481041899
 30
0.0
 40
0.0304016041969615
 50
250.3447633173261977
 51
273.9001063983279778
  0
ARC
  5
123AB
  8
0
 10
3781.1173428100400997
 20
226.6976011782595037
 30
0.0
 40
0.0011224436255952
 50
245.5409732753358867
 51
250.344763317299396
  0
ARC
  5
123AC
  8
0
 10
3781.313556256773154
 20
226.5883435885887138
 30
0.0
 40
0.0488353382924472
 50
78.4055344589137064
 51
102.0459665544469061
  0
ARC
  5
123AD
  8
0
 10
3781.3221162310351247
 20
226.6301583551779117
 30
0.0
 40
0.0061534326434136
 50
54.5306508876150673
 51
78.2308136809281081
  0
ARC
  5
123AE
  8
0
 10
3781.3252753982801551
 20
226.6345923597693002
 30
0.0
 40
0.0007091021615798
 50
314.0915294008676142
 51
54.5306508876160194
  0
ARC
  5
123AF
  8
0
 10
3781.3154060613928777
 20
226.6582692175784075
 30
0.0
 40
0.0263126661500843
 50
267.0788358377650979
 51
293.1930657065396986
  0
ARC
  5
123B0
  8
0
 10
3781.311997289032206
 20
226.6623219408041905
 30
0.0
 40
0.0304016041969615
 50
250.3447633173261977
 51
273.9001063983279778
  0
ARC
  5
123B1
  8
0
 10
3781.3021489618399755
 20
226.6347487709595043
 30
0.0
 40
0.0011224436255952
 50
181.6714464600144083
 51
250.344763317299396
  0
ARC
  5
123B2
  8
0
 10
3781.3039566585807734
 20
226.6324433685620932
 30
0.0
 40
0.003707818827497
 50
99.1898042806371905
 51
142.1977601739089891
  0
ARC
  5
123B3
  8
0
 10
3781.3008046719801314
 20
226.7112878635693107
 30
0.0
 40
0.0007091021615798
 50
314.0915294008676142
 51
5.8521181265665909
  0
ARC
  5
123B4
  8
0
 10
3781.2909353350928541
 20
226.7349647213785033
 30
0.0
 40
0.0263126661500843
 50
267.0788358377650979
 51
293.1930657065396986
  0
ARC
  5
123B5
  8
0
 10
3781.2875265627321824
 20
226.739017444604201
 30
0.0
 40
0.0304016041969615
 50
250.3447633173261977
 51
273.9001063983279778
  0
ARC
  5
123B6
  8
0
 10
3781.2776782355399519
 20
226.7114442747594012
 30
0.0
 40
0.0011224436255952
 50
215.9413071813227987
 51
250.344763317299396
  0
ARC
  5
123B7
  8
0
 10
3781.2610533220731668
 20
226.6618126715885921
 30
0.0
 40
0.0488353382924472
 50
78.4055344589137064
 51
84.293702763422317
  0
ARC
  5
123B8
  8
0
 10
3781.2610533220731668
 20
226.6618126715885921
 30
0.0
 40
0.0488353382924472
 50
100.6397928384255067
 51
102.0459665544469061
  0
ARC
  5
123B9
  8
0
 10
3781.2696132963351374
 20
226.7036274381779037
 30
0.0
 40
0.0061534326434136
 50
54.5306508876150673
 51
78.2308136809281081
  0
ARC
  5
123BA
  8
0
 10
3781.2727724635788036
 20
226.7080614427692922
 30
0.0
 40
0.0007091021615798
 50
314.0915294008676142
 51
54.5306508876160194
  0
ARC
  5
123BB
  8
0
 10
3781.262903126691981
 20
226.7317383005785132
 30
0.0
 40
0.0263126661500843
 50
267.0788358377650979
 51
293.1930657065396986
  0
ARC
  5
123BC
  8
0
 10
3781.2594943543322188
 20
226.7357910238042109
 30
0.0
 40
0.0304016041969615
 50
250.3447633173261977
 51
273.9001063983279778
  0
ARC
  5
123BD
  8
0
 10
3781.2496460271399883
 20
226.7082178539594963
 30
0.0
 40
0.0011224436255952
 50
181.6714464600144083
 51
250.344763317299396
  0
ARC
  5
123BE
  8
0
 10
3781.2514537238807861
 20
226.7059124515621136
 30
0.0
 40
0.003707818827497
 50
99.1898042806371905
 51
142.1977601739089891
  0
ARC
  5
123BF
  8
0
 10
3781.0804248088729764
 20
226.6404286851887093
 30
0.0
 40
0.0488353382924472
 50
78.4055344589137064
 51
86.5417477931010239
  0
ARC
  5
123C0
  8
0
 10
3781.0889847831349471
 20
226.6822434517779072
 30
0.0
 40
0.0061534326434136
 50
54.5306508876150673
 51
78.2308136809281081
  0
ARC
  5
123C1
  8
0
 10
3781.0921439503799775
 20
226.6866774563692957
 30
0.0
 40
0.0007091021615798
 50
314.0915294008676142
 51
54.5306508876160194
  0
ARC
  5
123C2
  8
0
 10
3781.0822746134917907
 20
226.710354314178403
 30
0.0
 40
0.0263126661500843
 50
267.0788358377650979
 51
293.1930657065396986
  0
ARC
  5
123C3
  8
0
 10
3781.0788658411320284
 20
226.714407037404186
 30
0.0
 40
0.0304016041969615
 50
260.4876912502539881
 51
273.9001063983279778
  0
ARC
  5
123C4
  8
0
 10
3781.1909356650048721
 20
226.7437808715625067
 30
0.0
 40
0.0398165500702773
 50
257.63169735315239
 51
286.2865162868903894
  0
ARC
  5
123C5
  8
0
 10
3781.2016324341389009
 20
226.7071687917755014
 30
0.0
 40
0.0016738540952627
 50
286.2865162868899915
 51
343.6287835888491031
  0
ARC
  5
123C6
  8
0
 10
3781.4163689253009579
 20
226.5997416185055897
 30
0.0
 40
0.0488353382924472
 50
77.9540334455530513
 51
101.5944655410862936
  0
ARC
  5
123C7
  8
0
 10
3781.4078089510389873
 20
226.6415563850947876
 30
0.0
 40
0.0061534326434136
 50
101.7691863190719062
 51
125.4693491123849043
  0
ARC
  5
123C8
  8
0
 10
3781.4046497837939569
 20
226.6459903896862045
 30
0.0
 40
0.0007091021615798
 50
125.4693491123839948
 51
225.9084705991323858
  0
ARC
  5
123C9
  8
0
 10
3781.4145191206807795
 20
226.6696672474953971
 30
0.0
 40
0.0263126661500843
 50
246.8069342934603867
 51
272.9211641622347884
  0
ARC
  5
123CA
  8
0
 10
3781.4179278930419059
 20
226.6737199707210948
 30
0.0
 40
0.0304016041969615
 50
266.0998936016720222
 51
289.6552366826737739
  0
ARC
  5
123CB
  8
0
 10
3781.4277762202332269
 20
226.6461468008764086
 30
0.0
 40
0.0011224436255952
 50
289.6552366827004903
 51
358.3285535399855917
  0
ARC
  5
123CC
  8
0
 10
3781.4259685234919743
 20
226.6438413984789975
 30
0.0
 40
0.003707818827497
 50
37.802239826091018
 51
80.8101957193628238
  0
ARC
  5
123CD
  8
0
 10
3781.3859142646520013
 20
226.5984576299647983
 30
0.0
 40
0.0488353382924472
 50
77.9540334455530513
 51
101.5944655410862936
  0
ARC
  5
123CE
  8
0
 10
3781.3773542903900307
 20
226.6402723965539963
 30
0.0
 40
0.0061534326434136
 50
101.7691863190719062
 51
125.4693491123849043
  0
ARC
  5
123CF
  8
0
 10
3781.3741951231450003
 20
226.6447064011454131
 30
0.0
 40
0.0007091021615798
 50
125.4693491123839948
 51
225.9084705991323858
  0
ARC
  5
123D0
  8
0
 10
3781.3840644600309133
 20
226.668383258954492
 30
0.0
 40
0.0263126661500843
 50
246.8069342934603867
 51
272.9211641622347884
  0
ARC
  5
123D1
  8
0
 10
3781.3874732323920398
 20
226.6724359821803034
 30
0.0
 40
0.0304016041969615
 50
266.0998936016720222
 51
289.6552366826737739
  0
ARC
  5
123D2
  8
0
 10
3781.3973215595838155
 20
226.6448628123355888
 30
0.0
 40
0.0011224436255952
 50
289.6552366827004903
 51
358.3285535399855917
  0
ARC
  5
123D3
  8
0
 10
3781.3955138628430177
 20
226.6425574099382061
 30
0.0
 40
0.003707818827497
 50
37.802239826091018
 51
80.8101957193628238
  0
ARC
  5
123D4
  8
0
 10
3781.3574004598590363
 20
226.5969672364552139
 30
0.0
 40
0.0488353382924472
 50
77.9540334455530513
 51
101.5944655410862936
  0
ARC
  5
123D5
  8
0
 10
3781.3488404855961562
 20
226.6387820030444971
 30
0.0
 40
0.0061534326434136
 50
101.7691863190719062
 51
125.4693491123849043
  0
ARC
  5
123D6
  8
0
 10
3781.3456813183511258
 20
226.6432160076358002
 30
0.0
 40
0.0007091021615798
 50
125.4693491123839948
 51
225.9084705991323858
  0
ARC
  5
123D7
  8
0
 10
3781.3555506552379484
 20
226.6668928654449928
 30
0.0
 40
0.0263126661500843
 50
246.8069342934603867
 51
272.9211641622347884
  0
ARC
  5
123D8
  8
0
 10
3781.3589594275990748
 20
226.6709455886708042
 30
0.0
 40
0.0304016041969615
 50
266.0998936016720222
 51
289.6552366826737739
  0
ARC
  5
123D9
  8
0
 10
3781.3688077547908506
 20
226.6433724188260044
 30
0.0
 40
0.0011224436255952
 50
289.6552366827004903
 51
358.3285535399855917
  0
ARC
  5
123DA
  8
0
 10
3781.3670000580491433
 20
226.6410670164287069
 30
0.0
 40
0.003707818827497
 50
37.802239826091018
 51
80.8101957193628238
  0
ARC
  5
123DB
  8
0
 10
3781.3776094709369318
 20
226.5879657014612008
 30
0.0
 40
0.0488353382924472
 50
77.9540334455530513
 51
101.5944655410862936
  0
ARC
  5
123DC
  8
0
 10
3781.3690494966740516
 20
226.6297804680503987
 30
0.0
 40
0.0061534326434136
 50
101.7691863190719062
 51
125.4693491123849043
  0
ARC
  5
123DD
  8
0
 10
3781.3658903294308402
 20
226.6342144726417871
 30
0.0
 40
0.0007091021615798
 50
125.4693491123839948
 51
225.9084705991323858
  0
ARC
  5
123DE
  8
0
 10
3781.375759666317208
 20
226.6578913304510081
 30
0.0
 40
0.0263126661500843
 50
246.8069342934603867
 51
272.9211641622347884
  0
ARC
  5
123DF
  8
0
 10
3781.3791684386778797
 20
226.6619440536767058
 30
0.0
 40
0.0304016041969615
 50
266.0998936016720222
 51
289.6552366826737739
  0
ARC
  5
123E0
  8
0
 10
3781.3890167658692008
 20
226.6343708838319913
 30
0.0
 40
0.0011224436255952
 50
289.6552366827004903
 51
358.3285535399855917
  0
ARC
  5
123E1
  8
0
 10
3781.3872090691288577
 20
226.6320654814346085
 30
0.0
 40
0.003707818827497
 50
37.802239826091018
 51
80.8101957193628238
  0
ARC
  5
123E2
  8
0
 10
3781.4080113136142245
 20
226.5901777964907069
 30
0.0
 40
0.0488353382924472
 50
77.9540334455530513
 51
101.5944655410862936
  0
ARC
  5
123E3
  8
0
 10
3781.3994513393517991
 20
226.6319925630799901
 30
0.0
 40
0.0061534326434136
 50
101.7691863190719062
 51
125.4693491123849043
  0
ARC
  5
123E4
  8
0
 10
3781.3962921721072235
 20
226.6364265676714069
 30
0.0
 40
0.0007091021615798
 50
125.4693491123839948
 51
225.9084705991323858
  0
ARC
  5
123E5
  8
0
 10
3781.406161508994046
 20
226.6601034254804858
 30
0.0
 40
0.0263126661500843
 50
246.8069342934603867
 51
272.9211641622347884
  0
ARC
  5
123E6
  8
0
 10
3781.4095702813551725
 20
226.6641561487062972
 30
0.0
 40
0.0304016041969615
 50
266.0998936016720222
 51
289.6552366826737739
  0
ARC
  5
123E7
  8
0
 10
3781.4194186085469482
 20
226.6365829788616111
 30
0.0
 40
0.0011224436255952
 50
289.6552366827004903
 51
358.3285535399855917
  0
ARC
  5
123E8
  8
0
 10
3781.4176109118047862
 20
226.6342775764641999
 30
0.0
 40
0.003707818827497
 50
37.802239826091018
 51
80.8101957193628238
  0
ARC
  5
123E9
  8
0
 10
3781.4370843642000182
 20
226.5924688531042932
 30
0.0
 40
0.0488353382924472
 50
77.9540334455530513
 51
101.5944655410862936
  0
ARC
  5
123EA
  8
0
 10
3781.428524389938957
 20
226.6342836196936048
 30
0.0
 40
0.0061534326434136
 50
101.7691863190719062
 51
125.4693491123849043
  0
ARC
  5
123EB
  8
0
 10
3781.4253652226948361
 20
226.6387176242849932
 30
0.0
 40
0.0007091021615798
 50
125.4693491123839948
 51
225.9084705991323858
  0
ARC
  5
123EC
  8
0
 10
3781.4352345595812039
 20
226.6623944820941006
 30
0.0
 40
0.0263126661500843
 50
246.8069342934603867
 51
272.9211641622347884
  0
ARC
  5
123ED
  8
0
 10
3781.4386433319418757
 20
226.666447205319912
 30
0.0
 40
0.0304016041969615
 50
266.0998936016720222
 51
289.6552366826737739
  0
ARC
  5
123EE
  8
0
 10
3781.4484916591341062
 20
226.6388740354751974
 30
0.0
 40
0.0011224436255952
 50
289.6552366827004903
 51
358.3285535399855917
  0
ARC
  5
123EF
  8
0
 10
3781.4466839623919441
 20
226.6365686330777862
 30
0.0
 40
0.003707818827497
 50
37.802239826091018
 51
80.8101957193628238
  0
ARC
  5
123F0
  8
0
 10
3781.4419514063611132
 20
226.6027425592288864
 30
0.0
 40
0.0488353382924472
 50
77.9540334455530513
 51
101.5944655410862936
  0
ARC
  5
123F1
  8
0
 10
3781.4333914320991425
 20
226.6445573258181128
 30
0.0
 40
0.0061534326434136
 50
101.7691863190719062
 51
125.4693491123849043
  0
ARC
  5
123F2
  8
0
 10
3781.4302322648550216
 20
226.6489913304095012
 30
0.0
 40
0.0007091021615798
 50
125.4693491123839948
 51
225.9084705991323858
  0
ARC
  5
123F3
  8
0
 10
3781.4401016017418442
 20
226.6726681882186085
 30
0.0
 40
0.0263126661500843
 50
246.8069342934603867
 51
272.9211641622347884
  0
ARC
  5
123F4
  8
0
 10
3781.4435103741020612
 20
226.6767209114443915
 30
0.0
 40
0.0304016041969615
 50
266.0998936016720222
 51
289.6552366826737739
  0
ARC
  5
123F5
  8
0
 10
3781.4533587012938369
 20
226.6491477415997053
 30
0.0
 40
0.0011224436255952
 50
289.6552366827004903
 51
358.3285535399855917
  0
ARC
  5
123F6
  8
0
 10
3781.4515510045530391
 20
226.6468423392022942
 30
0.0
 40
0.003707818827497
 50
37.802239826091018
 51
80.8101957193628238
  0
ARC
  5
123F7
  8
0
 10
3781.4653276597800868
 20
226.6063253576720058
 30
0.0
 40
0.0488353382924472
 50
77.9540334455530513
 51
101.5944655410862936
  0
ARC
  5
123F8
  8
0
 10
3781.4567676855181162
 20
226.648140124261289
 30
0.0
 40
0.0061534326434136
 50
101.7691863190719062
 51
125.4693491123849043
  0
ARC
  5
123F9
  8
0
 10
3781.4536085182730858
 20
226.6525741288525921
 30
0.0
 40
0.0007091021615798
 50
125.4693491123839948
 51
225.9084705991323858
  0
ARC
  5
123FA
  8
0
 10
3781.4634778551589989
 20
226.6762509866618132
 30
0.0
 40
0.0263126661500843
 50
246.8069342934603867
 51
272.9211641622347884
  0
ARC
  5
123FB
  8
0
 10
3781.4668866275210348
 20
226.6803037098875961
 30
0.0
 40
0.0304016041969615
 50
266.0998936016720222
 51
289.6552366826737739
  0
ARC
  5
123FC
  8
0
 10
3781.4767349547128106
 20
226.6527305400427963
 30
0.0
 40
0.0011224436255952
 50
289.6552366827004903
 51
358.3285535399855917
  0
ARC
  5
123FD
  8
0
 10
3781.4749272579711032
 20
226.6504251376454988
 30
0.0
 40
0.003707818827497
 50
37.802239826091018
 51
80.8101957193628238
  0
ARC
  5
123FE
  8
0
 10
3781.486053490400991
 20
226.6105397913055981
 30
0.0
 40
0.0488353382924472
 50
77.9540334455530513
 51
101.5944655410862936
  0
ARC
  5
123FF
  8
0
 10
3781.4774935161390204
 20
226.652354557894796
 30
0.0
 40
0.0061534326434136
 50
101.7691863190719062
 51
125.4693491123849043
  0
ARC
  5
12400
  8
0
 10
3781.4743343488948994
 20
226.6567885624862129
 30
0.0
 40
0.0007091021615798
 50
125.4693491123839948
 51
225.9084705991323858
  0
ARC
  5
12401
  8
0
 10
3781.4842036857808125
 20
226.6804654202954055
 30
0.0
 40
0.0263126661500843
 50
246.8069342934603867
 51
272.9211641622347884
  0
ARC
  5
12402
  8
0
 10
3781.487612458141939
 20
226.6845181435211032
 30
0.0
 40
0.0304016041969615
 50
266.0998936016720222
 51
289.6552366826737739
  0
ARC
  5
12403
  8
0
 10
3781.4974607853341695
 20
226.6569449736763886
 30
0.0
 40
0.0011224436255952
 50
289.6552366827004903
 51
358.3285535399855917
  0
ARC
  5
12404
  8
0
 10
3781.4956530885929169
 20
226.6546395712790058
 30
0.0
 40
0.003707818827497
 50
37.802239826091018
 51
80.8101957193628238
  0
ARC
  5
12405
  8
0
 10
3781.5037251804128573
 20
226.615361325344594
 30
0.0
 40
0.0488353382924472
 50
77.9540334455530513
 51
101.5944655410862936
  0
ARC
  5
12406
  8
0
 10
3781.4951652061508867
 20
226.6571760919339056
 30
0.0
 40
0.0061534326434136
 50
101.7691863190719062
 51
125.4693491123849043
  0
ARC
  5
12407
  8
0
 10
3781.4920060389058563
 20
226.661610096525294
 30
0.0
 40
0.0007091021615798
 50
125.4693491123839948
 51
225.9084705991323858
  0
ARC
  5
12408
  8
0
 10
3781.5018753757931336
 20
226.6852869543344013
 30
0.0
 40
0.0263126661500843
 50
246.8069342934603867
 51
272.9211641622347884
  0
ARC
  5
12409
  8
0
 10
3781.5052841481538053
 20
226.6893396775602127
 30
0.0
 40
0.0304016041969615
 50
266.0998936016720222
 51
289.6552366826737739
  0
ARC
  5
1240A
  8
0
 10
3781.5151324753460358
 20
226.6617665077154129
 30
0.0
 40
0.0011224436255952
 50
289.6552366827004903
 51
358.3285535399855917
  0
ARC
  5
1240B
  8
0
 10
3781.5133247786038737
 20
226.659461105318087
 30
0.0
 40
0.003707818827497
 50
37.802239826091018
 51
80.8101957193628238
  0
ARC
  5
1240C
  8
0
 10
3781.5180276015848904
 20
226.6272435442677988
 30
0.0
 40
0.042377948125795
 50
76.1204668465093164
 51
103.4280321385670049
  0
ARC
  5
1240D
  8
0
 10
3781.5094415461549033
 20
226.6624389096689924
 30
0.0
 40
0.0061534326434136
 50
101.7691863190719062
 51
125.4693491123849043
  0
ARC
  5
1240E
  8
0
 10
3781.5062823789107824
 20
226.6668729142604093
 30
0.0
 40
0.0007091021615798
 50
125.4693491123839948
 51
225.9084705991323858
  0
ARC
  5
1240F
  8
0
 10
3781.5161517157971502
 20
226.6905497720694882
 30
0.0
 40
0.0263126661500843
 50
246.8069342934603867
 51
272.9211641622347884
  0
ARC
  5
12410
  8
0
 10
3781.519560488157822
 20
226.6946024952952996
 30
0.0
 40
0.0304016041969615
 50
266.0998936016720222
 51
289.6552366826737739
  0
ARC
  5
12411
  8
0
 10
3781.5294088153500525
 20
226.6670293254504998
 30
0.0
 40
0.0011224436255952
 50
289.6552366827004903
 51
358.3285535399855917
  0
ARC
  5
12412
  8
0
 10
3781.5276011186078904
 20
226.6647239230532023
 30
0.0
 40
0.003707818827497
 50
37.802239826091018
 51
80.8101957193628238
  0
ARC
  5
12413
  8
0
 10
3781.5285999413031277
 20
226.6263232531823917
 30
0.0
 40
0.0488353382924472
 50
77.9540334455530513
 51
101.5944655410862936
  0
ARC
  5
12414
  8
0
 10
3781.5200399670429761
 20
226.6681380197717033
 30
0.0
 40
0.0061534326434136
 50
101.7691863190719062
 51
125.4693491123849043
  0
ARC
  5
12415
  8
0
 10
3781.5168807997979457
 20
226.6725720243630917
 30
0.0
 40
0.0007091021615798
 50
125.4693491123839948
 51
225.9084705991323858
  0
ARC
  5
12416
  8
0
 10
3781.5267501366838587
 20
226.696248882172199
 30
0.0
 40
0.0263126661500843
 50
246.8069342934603867
 51
272.9211641622347884
  0
ARC
  5
12417
  8
0
 10
3781.5301589090449852
 20
226.7003016053980105
 30
0.0
 40
0.0304016041969615
 50
266.0998936016720222
 51
289.6552366826737739
  0
ARC
  5
12418
  8
0
 10
3781.5400072362372157
 20
226.6727284355532106
 30
0.0
 40
0.0011224436255952
 50
289.6552366827004903
 51
358.3285535399855917
  0
ARC
  5
12419
  8
0
 10
3781.5381995394950536
 20
226.6704230331559131
 30
0.0
 40
0.003707818827497
 50
37.802239826091018
 51
80.8101957193628238
  0
ARC
  5
1241A
  8
0
 10
3781.5353048229999331
 20
226.6322217814056046
 30
0.0
 40
0.0488353382924472
 50
77.9540334455530513
 51
101.5944655410862936
  0
ARC
  5
1241B
  8
0
 10
3781.526744848738872
 20
226.6740365479948025
 30
0.0
 40
0.0061534326434136
 50
101.7691863190719062
 51
125.4693491123849043
  0
ARC
  5
1241C
  8
0
 10
3781.5235856814938415
 20
226.6784705525861909
 30
0.0
 40
0.0007091021615798
 50
125.4693491123839948
 51
225.9084705991323858
  0
ARC
  5
1241D
  8
0
 10
3781.5334550183811189
 20
226.702147410395412
 30
0.0
 40
0.0263126661500843
 50
246.8069342934603867
 51
272.9211641622347884
  0
ARC
  5
1241E
  8
0
 10
3781.5368637907417906
 20
226.7062001336211097
 30
0.0
 40
0.0304016041969615
 50
266.0998936016720222
 51
289.6552366826737739
  0
ARC
  5
1241F
  8
0
 10
3781.5467121179340211
 20
226.6786269637763951
 30
0.0
 40
0.0011224436255952
 50
289.6552366827004903
 51
358.3285535399855917
  0
ARC
  5
12420
  8
0
 10
3781.544904421191859
 20
226.6763215613790976
 30
0.0
 40
0.003707818827497
 50
37.802239826091018
 51
80.8101957193628238
  0
ARC
  5
12421
  8
0
 10
3781.5380047278008533
 20
226.6382982207055932
 30
0.0
 40
0.0488353382924472
 50
77.9540334455530513
 51
101.5944655410862936
  0
ARC
  5
12422
  8
0
 10
3781.5294447535388827
 20
226.6801129872947911
 30
0.0
 40
0.0061534326434136
 50
101.7691863190719062
 51
125.4693491123849043
  0
ARC
  5
12423
  8
0
 10
3781.5262855862952165
 20
226.6845469918862079
 30
0.0
 40
0.0007091021615798
 50
125.4693491123839948
 51
225.9084705991323858
  0
ARC
  5
12424
  8
0
 10
3781.5361549231811296
 20
226.7082238496954005
 30
0.0
 40
0.0263126661500843
 50
246.8069342934603867
 51
272.9211641622347884
  0
ARC
  5
12425
  8
0
 10
3781.5395636955418013
 20
226.7122765729210982
 30
0.0
 40
0.0304016041969615
 50
266.0998936016720222
 51
289.6552366826737739
  0
ARC
  5
12426
  8
0
 10
3781.5494120227340318
 20
226.6847034030764121
 30
0.0
 40
0.0011224436255952
 50
289.6552366827004903
 51
358.3285535399855917
  0
ARC
  5
12427
  8
0
 10
3781.5476043259918697
 20
226.6823980006790009
 30
0.0
 40
0.003707818827497
 50
37.802239826091018
 51
80.8101957193628238
  0
ARC
  5
12428
  8
0
 10
3781.5366341667008783
 20
226.6442747623055993
 30
0.0
 40
0.0488353382924472
 50
77.9540334455530513
 51
101.5944655410862936
  0
ARC
  5
12429
  8
0
 10
3781.5280741924389076
 20
226.6860895288949109
 30
0.0
 40
0.0061534326434136
 50
101.7691863190719062
 51
125.4693491123849043
  0
ARC
  5
1242A
  8
0
 10
3781.5249150251938772
 20
226.6905235334862141
 30
0.0
 40
0.0007091021615798
 50
125.4693491123839948
 51
225.9084705991323858
  0
ARC
  5
1242B
  8
0
 10
3781.5347843620811545
 20
226.7142003912954067
 30
0.0
 40
0.0263126661500843
 50
246.8069342934603867
 51
272.9211641622347884
  0
ARC
  5
1242C
  8
0
 10
3781.5381931344409168
 20
226.7182531145211044
 30
0.0
 40
0.0304016041969615
 50
266.0998936016720222
 51
289.6552366826737739
  0
ARC
  5
1242D
  8
0
 10
3781.5480414616340568
 20
226.6906799446763898
 30
0.0
 40
0.0011224436255952
 50
289.6552366827004903
 51
358.3285535399855917
  0
ARC
  5
1242E
  8
0
 10
3781.5462337648918947
 20
226.6883745422790923
 30
0.0
 40
0.003707818827497
 50
37.802239826091018
 51
80.8101957193628238
  0
ARC
  5
1242F
  8
0
 10
3781.5721819444011089
 20
226.6268657412055916
 30
0.0
 40
0.0488353382924472
 50
77.9540334455530513
 51
101.5944655410862936
  0
ARC
  5
12430
  8
0
 10
3781.5636219701391383
 20
226.6686805077949032
 30
0.0
 40
0.0061534326434136
 50
101.7691863190719062
 51
125.4693491123849043
  0
ARC
  5
12431
  8
0
 10
3781.5604628028941079
 20
226.6731145123862063
 30
0.0
 40
0.0007091021615798
 50
125.4693491123839948
 51
225.9084705991323858
  0
ARC
  5
12432
  8
0
 10
3781.5703321397809304
 20
226.6967913701953989
 30
0.0
 40
0.0263126661500843
 50
246.8069342934603867
 51
272.9211641622347884
  0
ARC
  5
12433
  8
0
 10
3781.5737409121420569
 20
226.7008440934210967
 30
0.0
 40
0.0304016041969615
 50
266.0998936016720222
 51
289.6552366826737739
  0
ARC
  5
12434
  8
0
 10
3781.5835892393338327
 20
226.6732709235764105
 30
0.0
 40
0.0011224436255952
 50
289.6552366827004903
 51
358.3285535399855917
  0
ARC
  5
12435
  8
0
 10
3781.5817815425921253
 20
226.670965521179113
 30
0.0
 40
0.003707818827497
 50
37.802239826091018
 51
80.8101957193628238
  0
ARC
  5
12436
  8
0
 10
3781.5624329844281419
 20
226.6202995673909015
 30
0.0
 40
0.0488353382924472
 50
77.9540334455530513
 51
101.5944655410862936
  0
ARC
  5
12437
  8
0
 10
3781.5538730101661713
 20
226.6621143339800994
 30
0.0
 40
0.0061534326434136
 50
101.7691863190719062
 51
125.4693491123849043
  0
ARC
  5
12438
  8
0
 10
3781.5507138429220504
 20
226.6665483385714879
 30
0.0
 40
0.0007091021615798
 50
125.4693491123839948
 51
225.9084705991323858
  0
ARC
  5
12439
  8
0
 10
3781.560583179808873
 20
226.6902251963807089
 30
0.0
 40
0.0263126661500843
 50
246.8069342934603867
 51
272.9211641622347884
  0
ARC
  5
1243A
  8
0
 10
3781.5639919521690899
 20
226.6942779196064066
 30
0.0
 40
0.0304016041969615
 50
266.0998936016720222
 51
289.6552366826737739
  0
ARC
  5
1243B
  8
0
 10
3781.5738402793608657
 20
226.666704749761692
 30
0.0
 40
0.0011224436255952
 50
289.6552366827004903
 51
358.3285535399855917
  0
ARC
  5
1243C
  8
0
 10
3781.5720325826200678
 20
226.6643993473643093
 30
0.0
 40
0.003707818827497
 50
37.802239826091018
 51
80.8101957193628238
  0
ARC
  5
1243D
  8
0
 10
3781.5491944030500235
 20
226.6143951905158076
 30
0.0
 40
0.0488353382924472
 50
77.9540334455530513
 51
101.5944655410862936
  0
ARC
  5
1243E
  8
0
 10
3781.5406344287880529
 20
226.6562099571050055
 30
0.0
 40
0.0061534326434136
 50
101.7691863190719062
 51
125.4693491123849043
  0
ARC
  5
1243F
  8
0
 10
3781.537475261543932
 20
226.6606439616963939
 30
0.0
 40
0.0007091021615798
 50
125.4693491123839948
 51
225.9084705991323858
  0
ARC
  5
12440
  8
0
 10
3781.5473445984298451
 20
226.6843208195055865
 30
0.0
 40
0.0263126661500843
 50
246.8069342934603867
 51
272.9211641622347884
  0
ARC
  5
12441
  8
0
 10
3781.5507533707909715
 20
226.6883735427313127
 30
0.0
 40
0.0304016041969615
 50
266.0998936016720222
 51
289.6552366826737739
  0
ARC
  5
12442
  8
0
 10
3781.560601697983202
 20
226.6608003728865981
 30
0.0
 40
0.0011224436255952
 50
289.6552366827004903
 51
358.3285535399855917
  0
ARC
  5
12443
  8
0
 10
3781.5587940012419494
 20
226.6584949704893006
 30
0.0
 40
0.003707818827497
 50
37.802239826091018
 51
80.8101957193628238
  0
ARC
  5
12444
  8
0
 10
3781.5324948325010155
 20
226.6088667333056037
 30
0.0
 40
0.0488353382924472
 50
77.9540334455530513
 51
101.5944655410862936
  0
ARC
  5
12445
  8
0
 10
3781.5239348582390448
 20
226.6506814998948016
 30
0.0
 40
0.0061534326434136
 50
101.7691863190719062
 51
125.4693491123849043
  0
ARC
  5
12446
  8
0
 10
3781.5207756909940144
 20
226.65511550448619
 30
0.0
 40
0.0007091021615798
 50
125.4693491123839948
 51
225.9084705991323858
  0
ARC
  5
12447
  8
0
 10
3781.530645027880837
 20
226.6787923622954111
 30
0.0
 40
0.0263126661500843
 50
246.8069342934603867
 51
272.9211641622347884
  0
ARC
  5
12448
  8
0
 10
3781.5340538002419635
 20
226.6828450855211088
 30
0.0
 40
0.0304016041969615
 50
266.0998936016720222
 51
289.6552366826737739
  0
ARC
  5
12449
  8
0
 10
3781.543902127434194
 20
226.6552719156763942
 30
0.0
 40
0.0011224436255952
 50
289.6552366827004903
 51
358.3285535399855917
  0
ARC
  5
1244A
  8
0
 10
3781.5420944306929414
 20
226.6529665132790967
 30
0.0
 40
0.003707818827497
 50
37.802239826091018
 51
80.8101957193628238
  0
ARC
  5
1244B
  8
0
 10
3781.5125982882468634
 20
226.603863821044996
 30
0.0
 40
0.0488353382924472
 50
77.9540334455530513
 51
101.5944655410862936
  0
ARC
  5
1244C
  8
0
 10
3781.5040383139839832
 20
226.6456785876341939
 30
0.0
 40
0.0061534326434136
 50
101.7691863190719062
 51
125.4693491123849043
  0
ARC
  5
1244D
  8
0
 10
3781.5008791467389528
 20
226.6501125922256108
 30
0.0
 40
0.0007091021615798
 50
125.4693491123839948
 51
225.9084705991323858
  0
ARC
  5
1244E
  8
0
 10
3781.5107484836257754
 20
226.6737894500348034
 30
0.0
 40
0.0263126661500843
 50
246.8069342934603867
 51
272.9211641622347884
  0
ARC
  5
1244F
  8
0
 10
3781.5141572559869019
 20
226.6778421732605011
 30
0.0
 40
0.0304016041969615
 50
266.0998936016720222
 51
289.6552366826737739
  0
ARC
  5
12450
  8
0
 10
3781.5240055831791324
 20
226.6502690034157865
 30
0.0
 40
0.0011224436255952
 50
289.6552366827004903
 51
358.3285535399855917
  0
ARC
  5
12451
  8
0
 10
3781.5221978864369703
 20
226.6479636010184038
 30
0.0
 40
0.003707818827497
 50
37.802239826091018
 51
80.8101957193628238
  0
ARC
  5
12452
  8
0
 10
3781.4898118294008782
 20
226.5993375138056081
 30
0.0
 40
0.0488353382924472
 50
77.9540334455530513
 51
101.5944655410862936
  0
ARC
  5
12453
  8
0
 10
3781.4812518551389076
 20
226.641152280394806
 30
0.0
 40
0.0061534326434136
 50
101.7691863190719062
 51
125.4693491123849043
  0
ARC
  5
12454
  8
0
 10
3781.4780926878947866
 20
226.6455862849861944
 30
0.0
 40
0.0007091021615798
 50
125.4693491123839948
 51
225.9084705991323858
  0
ARC
  5
12455
  8
0
 10
3781.4879620247811545
 20
226.669263142795387
 30
0.0
 40
0.0263126661500843
 50
246.8069342934603867
 51
272.9211641622347884
  0
ARC
  5
12456
  8
0
 10
3781.4913707971409167
 20
226.6733158660211132
 30
0.0
 40
0.0304016041969615
 50
266.0998936016720222
 51
289.6552366826737739
  0
ARC
  5
12457
  8
0
 10
3781.5012191243331472
 20
226.6457426961763986
 30
0.0
 40
0.0011224436255952
 50
289.6552366827004903
 51
358.3285535399855917
  0
ARC
  5
12458
  8
0
 10
3781.4994114275918946
 20
226.6434372937791011
 30
0.0
 40
0.003707818827497
 50
37.802239826091018
 51
80.8101957193628238
  0
ARC
  5
12459
  8
0
 10
3781.4645084571120606
 20
226.5955738737071954
 30
0.0
 40
0.0488353382924472
 50
77.9540334455530513
 51
101.5944655410862936
  0
ARC
  5
1245A
  8
0
 10
3781.4559484828500899
 20
226.6373886402963933
 30
0.0
 40
0.0061534326434136
 50
101.7691863190719062
 51
125.4693491123849043
  0
ARC
  5
1245B
  8
0
 10
3781.452789315605969
 20
226.6418226448878102
 30
0.0
 40
0.0007091021615798
 50
125.4693491123839948
 51
225.9084705991323858
  0
ARC
  5
1245C
  8
0
 10
3781.4626586524918821
 20
226.6654995026970028
 30
0.0
 40
0.0263126661500843
 50
246.8069342934603867
 51
272.9211641622347884
  0
ARC
  5
1245D
  8
0
 10
3781.4660674248530086
 20
226.6695522259228142
 30
0.0
 40
0.0304016041969615
 50
266.0998936016720222
 51
289.6552366826737739
  0
ARC
  5
1245E
  8
0
 10
3781.4759157520447843
 20
226.6419790560779859
 30
0.0
 40
0.0011224436255952
 50
289.6552366827004903
 51
358.3285535399855917
  0
ARC
  5
1245F
  8
0
 10
3781.4741080553039865
 20
226.6396736536806884
 30
0.0
 40
0.003707818827497
 50
37.802239826091018
 51
80.8101957193628238
  0
ARC
  5
12460
  8
0
 10
3781.5778195940010846
 20
226.6332680966056046
 30
0.0
 40
0.0488353382924472
 50
81.1134802229089757
 51
101.5944655410862936
  0
ARC
  5
12461
  8
0
 10
3781.569259619739114
 20
226.6750828631948025
 30
0.0
 40
0.0061534326434136
 50
101.7691863190719062
 51
125.4693491123849043
  0
ARC
  5
12462
  8
0
 10
3781.5661004524940836
 20
226.6795168677861909
 30
0.0
 40
0.0007091021615798
 50
125.4693491123839948
 51
225.9084705991323858
  0
ARC
  5
12463
  8
0
 10
3781.5759697893799967
 20
226.7031937255954119
 30
0.0
 40
0.0263126661500843
 50
246.8069342934603867
 51
272.9211641622347884
  0
ARC
  5
12464
  8
0
 10
3781.5793785617420326
 20
226.7072464488211949
 30
0.0
 40
0.0304016041969615
 50
266.0998936016720222
 51
289.6552366826737739
  0
ARC
  5
12465
  8
0
 10
3781.531227832400873
 20
226.6502259935055861
 30
0.0
 40
0.0488353382924472
 50
99.9434313387100275
 51
101.5944655410862936
  0
ARC
  5
12466
  8
0
 10
3781.5226678581389024
 20
226.6920407600948124
 30
0.0
 40
0.0061534326434136
 50
101.7691863190719062
 51
125.4693491123849043
  0
ARC
  5
12467
  8
0
 10
3781.5195086908947815
 20
226.6964747646862008
 30
0.0
 40
0.0007091021615798
 50
125.4693491123839948
 51
225.9084705991323858
  0
ARC
  5
12468
  8
0
 10
3781.529378027779785
 20
226.7201516224953934
 30
0.0
 40
0.0263126661500843
 50
246.8069342934603867
 51
272.9211641622347884
  0
ARC
  5
12469
  8
0
 10
3781.5327868001409115
 20
226.7242043457212048
 30
0.0
 40
0.0304016041969615
 50
266.0998936016720222
 51
287.981176140803484
  0
ARC
  5
1246A
  8
0
 10
3781.3408583109089705
 20
226.5883435885887138
 30
0.0
 40
0.0488353382924472
 50
77.9540334455530513
 51
101.5944655410862936
  0
ARC
  5
1246B
  8
0
 10
3781.3322983366469998
 20
226.6301583551779117
 30
0.0
 40
0.0061534326434136
 50
101.7691863190719062
 51
125.4693491123849043
  0
ARC
  5
1246C
  8
0
 10
3781.3291391694028789
 20
226.6345923597693002
 30
0.0
 40
0.0007091021615798
 50
125.4693491123839948
 51
225.9084705991323858
  0
ARC
  5
1246D
  8
0
 10
3781.339008506288792
 20
226.6582692175784075
 30
0.0
 40
0.0263126661500843
 50
246.8069342934603867
 51
272.9211641622347884
  0
ARC
  5
1246E
  8
0
 10
3781.3424172786499184
 20
226.6623219408041905
 30
0.0
 40
0.0304016041969615
 50
266.0998936016720222
 51
289.6552366826737739
  0
ARC
  5
1246F
  8
0
 10
3781.3522656058421489
 20
226.6347487709595043
 30
0.0
 40
0.0011224436255952
 50
289.6552366827004903
 51
358.3285535399855917
  0
ARC
  5
12470
  8
0
 10
3781.3504579091008964
 20
226.6324433685620932
 30
0.0
 40
0.003707818827497
 50
37.802239826091018
 51
80.8101957193628238
  0
ARC
  5
12471
  8
0
 10
3781.5795531285011748
 20
226.6394586828056106
 30
0.0
 40
0.0488353382924472
 50
96.8098299561655153
 51
101.5944655410862936
  0
ARC
  5
12472
  8
0
 10
3781.5709931542392042
 20
226.6812734493948938
 30
0.0
 40
0.0061534326434136
 50
101.7691863190719062
 51
125.4693491123849043
  0
ARC
  5
12473
  8
0
 10
3781.5678339869941738
 20
226.6857074539861969
 30
0.0
 40
0.0007091021615798
 50
125.4693491123839948
 51
225.9084705991323858
  0
ARC
  5
12474
  8
0
 10
3781.5777033238809963
 20
226.7093843117953895
 30
0.0
 40
0.0263126661500843
 50
246.8069342934603867
 51
272.9211641622347884
  0
ARC
  5
12475
  8
0
 10
3781.5811120962421228
 20
226.7134370350210872
 30
0.0
 40
0.0304016041969615
 50
266.0998936016720222
 51
273.2870177214629734
  0
ARC
  5
12476
  8
0
 10
3781.327250254019873
 20
226.5966840676763923
 30
0.0
 40
0.0488353382924472
 50
77.9540334455530513
 51
101.5944655410862936
  0
ARC
  5
12477
  8
0
 10
3781.3186902797579023
 20
226.6384988342655902
 30
0.0
 40
0.0061534326434136
 50
101.7691863190719062
 51
125.4693491123849043
  0
ARC
  5
12478
  8
0
 10
3781.3155311125137814
 20
226.642932838857007
 30
0.0
 40
0.0007091021615798
 50
125.4693491123839948
 51
225.9084705991323858
  0
ARC
  5
12479
  8
0
 10
3781.3254004494010587
 20
226.6666096966661996
 30
0.0
 40
0.0263126661500843
 50
246.8069342934603867
 51
272.9211641622347884
  0
ARC
  5
1247A
  8
0
 10
3781.3288092217608209
 20
226.6706624198918973
 30
0.0
 40
0.0304016041969615
 50
266.0998936016720222
 51
289.6552366826737739
  0
ARC
  5
1247B
  8
0
 10
3781.3386575489530514
 20
226.6430892500472112
 30
0.0
 40
0.0011224436255952
 50
289.6552366827004903
 51
358.3285535399855917
  0
ARC
  5
1247C
  8
0
 10
3781.3368498522117989
 20
226.6407838476498
 30
0.0
 40
0.003707818827497
 50
37.802239826091018
 51
80.8101957193628238
  0
ARC
  5
1247D
  8
0
 10
3781.3252768850770735
 20
226.6141722876452889
 30
0.0
 40
0.0488353382924472
 50
77.9540334455530513
 51
101.5944655410862936
  0
ARC
  5
1247E
  8
0
 10
3781.3167169108151029
 20
226.6559870542344868
 30
0.0
 40
0.0061534326434136
 50
101.7691863190719062
 51
125.4693491123849043
  0
ARC
  5
1247F
  8
0
 10
3781.3135577435700725
 20
226.6604210588259036
 30
0.0
 40
0.0007091021615798
 50
125.4693491123839948
 51
225.9084705991323858
  0
ARC
  5
12480
  8
0
 10
3781.3234270804568951
 20
226.684097916635011
 30
0.0
 40
0.0263126661500843
 50
246.8069342934603867
 51
272.9211641622347884
  0
ARC
  5
12481
  8
0
 10
3781.3268358528180215
 20
226.6881506398607939
 30
0.0
 40
0.0304016041969615
 50
266.0998936016720222
 51
289.6552366826737739
  0
ARC
  5
12482
  8
0
 10
3781.3366841800097973
 20
226.6605774700161078
 30
0.0
 40
0.0011224436255952
 50
289.6552366827004903
 51
358.3285535399855917
  0
ARC
  5
12483
  8
0
 10
3781.3348764832680899
 20
226.6582720676186966
 30
0.0
 40
0.003707818827497
 50
37.802239826091018
 51
80.8101957193628238
  0
ARC
  5
12484
  8
0
 10
3781.3606937090380598
 20
226.605339777421591
 30
0.0
 40
0.0488353382924472
 50
77.9540334455530513
 51
101.5944655410862936
  0
ARC
  5
12485
  8
0
 10
3781.3521337347769986
 20
226.6471545440107889
 30
0.0
 40
0.0061534326434136
 50
101.7691863190719062
 51
125.4693491123849043
  0
ARC
  5
12486
  8
0
 10
3781.3489745675319682
 20
226.6515885486022057
 30
0.0
 40
0.0007091021615798
 50
125.4693491123839948
 51
225.9084705991323858
  0
ARC
  5
12487
  8
0
 10
3781.3588439044178813
 20
226.6752654064113131
 30
0.0
 40
0.0263126661500843
 50
246.8069342934603867
 51
272.9211641622347884
  0
ARC
  5
12488
  8
0
 10
3781.3622526767799172
 20
226.679318129637096
 30
0.0
 40
0.0304016041969615
 50
266.0998936016720222
 51
289.6552366826737739
  0
ARC
  5
12489
  8
0
 10
3781.3721010039721477
 20
226.6517449597924099
 30
0.0
 40
0.0011224436255952
 50
289.6552366827004903
 51
358.3285535399855917
  0
ARC
  5
1248A
  8
0
 10
3781.3702933072299857
 20
226.6494395573949987
 30
0.0
 40
0.003707818827497
 50
37.802239826091018
 51
80.8101957193628238
  0
ARC
  5
1248B
  8
0
 10
3781.3564944857380397
 20
226.6147020663215983
 30
0.0
 40
0.0488353382924472
 50
77.9540334455530513
 51
101.5944655410862936
  0
ARC
  5
1248C
  8
0
 10
3781.347934511476069
 20
226.6565168329107962
 30
0.0
 40
0.0061534326434136
 50
101.7691863190719062
 51
125.4693491123849043
  0
ARC
  5
1248D
  8
0
 10
3781.3447753442319481
 20
226.6609508375020994
 30
0.0
 40
0.0007091021615798
 50
125.4693491123839948
 51
225.9084705991323858
  0
ARC
  5
1248E
  8
0
 10
3781.3546446811178612
 20
226.684627695311292
 30
0.0
 40
0.0263126661500843
 50
246.8069342934603867
 51
272.9211641622347884
  0
ARC
  5
1248F
  8
0
 10
3781.3580534534789876
 20
226.6886804185371034
 30
0.0
 40
0.0304016041969615
 50
266.0998936016720222
 51
289.6552366826737739
  0
ARC
  5
12490
  8
0
 10
3781.3679017806712181
 20
226.6611072486923888
 30
0.0
 40
0.0011224436255952
 50
289.6552366827004903
 51
358.3285535399855917
  0
ARC
  5
12491
  8
0
 10
3781.3660940839299656
 20
226.658801846295006
 30
0.0
 40
0.003707818827497
 50
37.802239826091018
 51
80.8101957193628238
  0
ARC
  5
12492
  8
0
 10
3781.3322131736390475
 20
226.6224439640216133
 30
0.0
 40
0.0488353382924472
 50
77.9540334455530513
 51
101.5944655410862936
  0
ARC
  5
12493
  8
0
 10
3781.3236531993770768
 20
226.6642587306108112
 30
0.0
 40
0.0061534326434136
 50
101.7691863190719062
 51
125.4693491123849043
  0
ARC
  5
12494
  8
0
 10
3781.3204940321320464
 20
226.6686927352021996
 30
0.0
 40
0.0007091021615798
 50
125.4693491123839948
 51
225.9084705991323858
  0
ARC
  5
12495
  8
0
 10
3781.3303633690179595
 20
226.692369593011307
 30
0.0
 40
0.0263126661500843
 50
246.8069342934603867
 51
272.9211641622347884
  0
ARC
  5
12496
  8
0
 10
3781.3337721413799954
 20
226.6964223162370899
 30
0.0
 40
0.0304016041969615
 50
266.0998936016720222
 51
289.6552366826737739
  0
ARC
  5
12497
  8
0
 10
3781.3436204685722259
 20
226.6688491463924038
 30
0.0
 40
0.0011224436255952
 50
289.6552366827004903
 51
358.3285535399855917
  0
ARC
  5
12498
  8
0
 10
3781.3418127718300639
 20
226.6665437439949926
 30
0.0
 40
0.003707818827497
 50
37.802239826091018
 51
80.8101957193628238
  0
ARC
  5
12499
  8
0
 10
3781.3313007558390382
 20
226.6307582677216033
 30
0.0
 40
0.0488353382924472
 50
77.9540334455530513
 51
101.5944655410862936
  0
ARC
  5
1249A
  8
0
 10
3781.3227407815770675
 20
226.6725730343108012
 30
0.0
 40
0.0061534326434136
 50
101.7691863190719062
 51
125.4693491123849043
  0
ARC
  5
1249B
  8
0
 10
3781.3195816143320371
 20
226.6770070389021043
 30
0.0
 40
0.0007091021615798
 50
125.4693491123839948
 51
225.9084705991323858
  0
ARC
  5
1249C
  8
0
 10
3781.3294509512179502
 20
226.7006838967112969
 30
0.0
 40
0.0263126661500843
 50
246.8069342934603867
 51
272.9211641622347884
  0
ARC
  5
1249D
  8
0
 10
3781.3328597235790767
 20
226.7047366199371083
 30
0.0
 40
0.0304016041969615
 50
266.0998936016720222
 51
289.6552366826737739
  0
ARC
  5
1249E
  8
0
 10
3781.3427080507722167
 20
226.6771634500923938
 30
0.0
 40
0.0011224436255952
 50
289.6552366827004903
 51
358.3285535399855917
  0
ARC
  5
1249F
  8
0
 10
3781.3409003540300546
 20
226.674858047695011
 30
0.0
 40
0.003707818827497
 50
37.802239826091018
 51
80.8101957193628238
  0
ARC
  5
124A0
  8
0
 10
3781.3302764747390938
 20
226.640050520421596
 30
0.0
 40
0.0488353382924472
 50
77.9540334455530513
 51
101.5944655410862936
  0
ARC
  5
124A1
  8
0
 10
3781.3217165004771232
 20
226.681865287010794
 30
0.0
 40
0.0061534326434136
 50
101.7691863190719062
 51
125.4693491123849043
  0
ARC
  5
124A2
  8
0
 10
3781.3185573332320928
 20
226.6862992916022108
 30
0.0
 40
0.0007091021615798
 50
125.4693491123839948
 51
225.9084705991323858
  0
ARC
  5
124A3
  8
0
 10
3781.3284266701189154
 20
226.7099761494112897
 30
0.0
 40
0.0263126661500843
 50
246.8069342934603867
 51
272.9211641622347884
  0
ARC
  5
124A4
  8
0
 10
3781.3318354424791323
 20
226.7140288726371011
 30
0.0
 40
0.0304016041969615
 50
266.0998936016720222
 51
289.6552366826737739
  0
ARC
  5
124A5
  8
0
 10
3781.3416837696709081
 20
226.6864557027923865
 30
0.0
 40
0.0011224436255952
 50
289.6552366827004903
 51
358.3285535399855917
  0
ARC
  5
124A6
  8
0
 10
3781.3398760729301102
 20
226.6841503003950038
 30
0.0
 40
0.003707818827497
 50
37.802239826091018
 51
80.8101957193628238
  0
ARC
  5
124A7
  8
0
 10
3781.3293242498862128
 20
226.6491780906893041
 30
0.0
 40
0.0488353382924472
 50
77.9540334455530513
 51
101.5944655410862936
  0
ARC
  5
124A8
  8
0
 10
3781.3207642756237874
 20
226.6909928572785873
 30
0.0
 40
0.0061534326434136
 50
101.7691863190719062
 51
125.4693491123849043
  0
ARC
  5
124A9
  8
0
 10
3781.3176051083792117
 20
226.6954268618698904
 30
0.0
 40
0.0007091021615798
 50
125.4693491123839948
 51
225.9084705991323858
  0
ARC
  5
124AA
  8
0
 10
3781.3274744452660343
 20
226.7191037196791115
 30
0.0
 40
0.0263126661500843
 50
246.8069342934603867
 51
272.9211641622347884
  0
ARC
  5
124AB
  8
0
 10
3781.3308832176271608
 20
226.7231564429048944
 30
0.0
 40
0.0304016041969615
 50
266.0998936016720222
 51
289.6552366826737739
  0
ARC
  5
124AC
  8
0
 10
3781.3407315448189365
 20
226.6955832730602083
 30
0.0
 40
0.0011224436255952
 50
289.6552366827004903
 51
358.3285535399855917
  0
ARC
  5
124AD
  8
0
 10
3781.3389238480767744
 20
226.6932778706627971
 30
0.0
 40
0.003707818827497
 50
37.802239826091018
 51
80.8101957193628238
  0
ARC
  5
124AE
  8
0
 10
3781.3283353978390551
 20
226.6577797549215916
 30
0.0
 40
0.0488353382924472
 50
77.9540334455530513
 51
101.5944655410862936
  0
ARC
  5
124AF
  8
0
 10
3781.3197754235770844
 20
226.6995945215107895
 30
0.0
 40
0.0061534326434136
 50
101.7691863190719062
 51
125.4693491123849043
  0
ARC
  5
124B0
  8
0
 10
3781.316616256332054
 20
226.7040285261022063
 30
0.0
 40
0.0007091021615798
 50
125.4693491123839948
 51
225.9084705991323858
  0
ARC
  5
124B1
  8
0
 10
3781.3264855932179671
 20
226.7277053839113989
 30
0.0
 40
0.0263126661500843
 50
246.8069342934603867
 51
272.9211641622347884
  0
ARC
  5
124B2
  8
0
 10
3781.3298943655800031
 20
226.7317581071370967
 30
0.0
 40
0.0304016041969615
 50
266.0998936016720222
 51
289.6552366826737739
  0
ARC
  5
124B3
  8
0
 10
3781.3397426927717788
 20
226.7041849372924105
 30
0.0
 40
0.0011224436255952
 50
289.6552366827004903
 51
358.3285535399855917
  0
ARC
  5
124B4
  8
0
 10
3781.3379349960300715
 20
226.7018795348949993
 30
0.0
 40
0.003707818827497
 50
37.802239826091018
 51
80.8101957193628238
  0
ARC
  5
124B5
  8
0
 10
3781.3610048967379953
 20
226.6565925307216105
 30
0.0
 40
0.0488353382924472
 50
77.9540334455530513
 51
101.5944655410862936
  0
ARC
  5
124B6
  8
0
 10
3781.3524449224769342
 20
226.6984072973108084
 30
0.0
 40
0.0061534326434136
 50
101.7691863190719062
 51
125.4693491123849043
  0
ARC
  5
124B7
  8
0
 10
3781.3492857552319037
 20
226.7028413019021968
 30
0.0
 40
0.0007091021615798
 50
125.4693491123839948
 51
225.9084705991323858
  0
ARC
  5
124B8
  8
0
 10
3781.3591550921178168
 20
226.7265181597113894
 30
0.0
 40
0.0263126661500843
 50
246.8069342934603867
 51
272.9211641622347884
  0
ARC
  5
124B9
  8
0
 10
3781.3625638644798528
 20
226.7305708829370872
 30
0.0
 40
0.0304016041969615
 50
266.0998936016720222
 51
289.6552366826737739
  0
ARC
  5
124BA
  8
0
 10
3781.3724121916720833
 20
226.702997713092401
 30
0.0
 40
0.0011224436255952
 50
289.6552366827004903
 51
358.3285535399855917
  0
ARC
  5
124BB
  8
0
 10
3781.3706044949299212
 20
226.7006923106949898
 30
0.0
 40
0.003707818827497
 50
37.802239826091018
 51
80.8101957193628238
  0
ARC
  5
124BC
  8
0
 10
3781.3613599141381201
 20
226.6468742190216119
 30
0.0
 40
0.0488353382924472
 50
77.9540334455530513
 51
101.5944655410862936
  0
ARC
  5
124BD
  8
0
 10
3781.3527999398770589
 20
226.6886889856108098
 30
0.0
 40
0.0061534326434136
 50
101.7691863190719062
 51
125.4693491123849043
  0
ARC
  5
124BE
  8
0
 10
3781.3496407726320285
 20
226.6931229902021983
 30
0.0
 40
0.0007091021615798
 50
125.4693491123839948
 51
225.9084705991323858
  0
ARC
  5
124BF
  8
0
 10
3781.3595101095179416
 20
226.7167998480113908
 30
0.0
 40
0.0263126661500843
 50
246.8069342934603867
 51
272.9211641622347884
  0
ARC
  5
124C0
  8
0
 10
3781.3629188818799776
 20
226.7208525712370886
 30
0.0
 40
0.0304016041969615
 50
266.0998936016720222
 51
289.6552366826737739
  0
ARC
  5
124C1
  8
0
 10
3781.3727672090722081
 20
226.6932794013924024
 30
0.0
 40
0.0011224436255952
 50
289.6552366827004903
 51
358.3285535399855917
  0
ARC
  5
124C2
  8
0
 10
3781.370959512330046
 20
226.6909739989949912
 30
0.0
 40
0.003707818827497
 50
37.802239826091018
 51
80.8101957193628238
  0
ARC
  5
124C3
  8
0
 10
3781.3752647661381161
 20
226.64026393562159
 30
0.0
 40
0.0488353382924472
 50
77.9540334455530513
 51
101.5944655410862936
  0
ARC
  5
124C4
  8
0
 10
3781.366704791877055
 20
226.6820787022107879
 30
0.0
 40
0.0061534326434136
 50
101.7691863190719062
 51
125.4693491123849043
  0
ARC
  5
124C5
  8
0
 10
3781.3635456246320246
 20
226.6865127068022048
 30
0.0
 40
0.0007091021615798
 50
125.4693491123839948
 51
225.9084705991323858
  0
ARC
  5
124C6
  8
0
 10
3781.3734149615188471
 20
226.7101895646113121
 30
0.0
 40
0.0263126661500843
 50
246.8069342934603867
 51
272.9211641622347884
  0
ARC
  5
124C7
  8
0
 10
3781.3768237338790641
 20
226.7142422878370951
 30
0.0
 40
0.0304016041969615
 50
266.0998936016720222
 51
289.6552366826737739
  0
ARC
  5
124C8
  8
0
 10
3781.3866720610708398
 20
226.6866691179924089
 30
0.0
 40
0.0011224436255952
 50
289.6552366827004903
 51
358.3285535399855917
  0
ARC
  5
124C9
  8
0
 10
3781.384864364330042
 20
226.6843637155949978
 30
0.0
 40
0.003707818827497
 50
37.802239826091018
 51
80.8101957193628238
  0
ARC
  5
124CA
  8
0
 10
3781.3628170917868374
 20
226.6337278585490935
 30
0.0
 40
0.0488353382924472
 50
77.9540334455530513
 51
101.5944655410862936
  0
ARC
  5
124CB
  8
0
 10
3781.3542571175248668
 20
226.6755426251382914
 30
0.0
 40
0.0061534326434136
 50
101.7691863190719062
 51
125.4693491123849043
  0
ARC
  5
124CC
  8
0
 10
3781.3510979502798364
 20
226.6799766297297083
 30
0.0
 40
0.0007091021615798
 50
125.4693491123839948
 51
225.9084705991323858
  0
ARC
  5
124CD
  8
0
 10
3781.3609672871671137
 20
226.7036534875389009
 30
0.0
 40
0.0263126661500843
 50
246.8069342934603867
 51
272.9211641622347884
  0
ARC
  5
124CE
  8
0
 10
3781.3643760595277854
 20
226.7077062107645986
 30
0.0
 40
0.0304016041969615
 50
266.0998936016720222
 51
289.6552366826737739
  0
ARC
  5
124CF
  8
0
 10
3781.3742243867191064
 20
226.6801330409199124
 30
0.0
 40
0.0011224436255952
 50
289.6552366827004903
 51
358.3285535399855917
  0
ARC
  5
124D0
  8
0
 10
3781.3724166899778538
 20
226.6778276385225865
 30
0.0
 40
0.003707818827497
 50
37.802239826091018
 51
80.8101957193628238
  0
ARC
  5
124D1
  8
0
 10
3781.3645868864377917
 20
226.6239352304216084
 30
0.0
 40
0.0488353382924472
 50
77.9540334455530513
 51
101.5944655410862936
  0
ARC
  5
124D2
  8
0
 10
3781.3560269121771853
 20
226.6657499970108063
 30
0.0
 40
0.0061534326434136
 50
101.7691863190719062
 51
125.4693491123849043
  0
ARC
  5
124D3
  8
0
 10
3781.3528677449321549
 20
226.6701840016021947
 30
0.0
 40
0.0007091021615798
 50
125.4693491123839948
 51
225.9084705991323858
  0
ARC
  5
124D4
  8
0
 10
3781.3627370818189775
 20
226.693860859411302
 30
0.0
 40
0.0263126661500843
 50
246.8069342934603867
 51
272.9211641622347884
  0
ARC
  5
124D5
  8
0
 10
3781.3661458541801039
 20
226.6979135826371134
 30
0.0
 40
0.0304016041969615
 50
266.0998936016720222
 51
289.6552366826737739
  0
ARC
  5
124D6
  8
0
 10
3781.3759941813709702
 20
226.6703404127923989
 30
0.0
 40
0.0011224436255952
 50
289.6552366827004903
 51
358.3285535399855917
  0
ARC
  5
124D7
  8
0
 10
3781.3741864846301723
 20
226.6680350103949877
 30
0.0
 40
0.003707818827497
 50
37.802239826091018
 51
80.8101957193628238
  0
ARC
  5
124D8
  8
0
 10
3781.3860635264391021
 20
226.6168478654215903
 30
0.0
 40
0.0488353382924472
 50
77.9540334455530513
 51
101.5944655410862936
  0
ARC
  5
124D9
  8
0
 10
3781.3775035521771315
 20
226.6586626320107882
 30
0.0
 40
0.0061534326434136
 50
101.7691863190719062
 51
125.4693491123849043
  0
ARC
  5
124DA
  8
0
 10
3781.3743443849321011
 20
226.6630966366022051
 30
0.0
 40
0.0007091021615798
 50
125.4693491123839948
 51
225.9084705991323858
  0
ARC
  5
124DB
  8
0
 10
3781.3842137218189237
 20
226.6867734944113124
 30
0.0
 40
0.0263126661500843
 50
246.8069342934603867
 51
272.9211641622347884
  0
ARC
  5
124DC
  8
0
 10
3781.3876224941791406
 20
226.6908262176370954
 30
0.0
 40
0.0304016041969615
 50
266.0998936016720222
 51
289.6552366826737739
  0
ARC
  5
124DD
  8
0
 10
3781.3974708213709164
 20
226.6632530477924092
 30
0.0
 40
0.0011224436255952
 50
289.6552366827004903
 51
358.3285535399855917
  0
ARC
  5
124DE
  8
0
 10
3781.3956631246301185
 20
226.6609476453949981
 30
0.0
 40
0.003707818827497
 50
37.802239826091018
 51
80.8101957193628238
  0
ARC
  5
124DF
  8
0
 10
3781.3917332626378993
 20
226.627900032221504
 30
0.0
 40
0.0488353382924472
 50
77.9540334455530513
 51
101.5944655410862936
  0
ARC
  5
124E0
  8
0
 10
3781.3831732883759287
 20
226.6697147988107872
 30
0.0
 40
0.0061534326434136
 50
101.7691863190719062
 51
125.4693491123849043
  0
ARC
  5
124E1
  8
0
 10
3781.3800141211318078
 20
226.6741488034022041
 30
0.0
 40
0.0007091021615798
 50
125.4693491123839948
 51
225.9084705991323858
  0
ARC
  5
124E2
  8
0
 10
3781.3898834580181756
 20
226.6978256612113114
 30
0.0
 40
0.0263126661500843
 50
246.8069342934603867
 51
272.9211641622347884
  0
ARC
  5
124E3
  8
0
 10
3781.3932922303788473
 20
226.7018783844370944
 30
0.0
 40
0.0304016041969615
 50
266.0998936016720222
 51
289.6552366826737739
  0
ARC
  5
124E4
  8
0
 10
3781.4031405575710778
 20
226.6743052145924082
 30
0.0
 40
0.0011224436255952
 50
289.6552366827004903
 51
358.3285535399855917
  0
ARC
  5
124E5
  8
0
 10
3781.4013328608298252
 20
226.671999812194997
 30
0.0
 40
0.003707818827497
 50
37.802239826091018
 51
80.8101957193628238
  0
ARC
  5
124E6
  8
0
 10
3781.3889916492380507
 20
226.6528874593215903
 30
0.0
 40
0.0488353382924472
 50
77.9540334455530513
 51
101.5944655410862936
  0
ARC
  5
124E7
  8
0
 10
3781.3804316749769896
 20
226.6947022259107882
 30
0.0
 40
0.0061534326434136
 50
101.7691863190719062
 51
125.4693491123849043
  0
ARC
  5
124E8
  8
0
 10
3781.3772725077319592
 20
226.6991362305022051
 30
0.0
 40
0.0007091021615798
 50
125.4693491123839948
 51
225.9084705991323858
  0
ARC
  5
124E9
  8
0
 10
3781.3871418446178723
 20
226.7228130883113124
 30
0.0
 40
0.0263126661500843
 50
246.8069342934603867
 51
272.9211641622347884
  0
ARC
  5
124EA
  8
0
 10
3781.3905506169799082
 20
226.7268658115370954
 30
0.0
 40
0.0304016041969615
 50
266.0998936016720222
 51
289.6552366826737739
  0
ARC
  5
124EB
  8
0
 10
3781.4003989441721387
 20
226.6992926416924092
 30
0.0
 40
0.0011224436255952
 50
289.6552366827004903
 51
358.3285535399855917
  0
ARC
  5
124EC
  8
0
 10
3781.3985912474290672
 20
226.6969872392949981
 30
0.0
 40
0.003707818827497
 50
37.802239826091018
 51
80.8101957193628238
  0
ARC
  5
124ED
  8
0
 10
3781.4077344807387817
 20
226.6605022266215883
 30
0.0
 40
0.0488353382924472
 50
77.9540334455530513
 51
101.5944655410862936
  0
ARC
  5
124EE
  8
0
 10
3781.3991745064759016
 20
226.7023169932107862
 30
0.0
 40
0.0061534326434136
 50
101.7691863190719062
 51
125.4693491123849043
  0
ARC
  5
124EF
  8
0
 10
3781.3960153392317807
 20
226.7067509978022031
 30
0.0
 40
0.0007091021615798
 50
125.4693491123839948
 51
225.9084705991323858
  0
ARC
  5
124F0
  8
0
 10
3781.4058846761181485
 20
226.7304278556113104
 30
0.0
 40
0.0263126661500843
 50
246.8069342934603867
 51
272.9211641622347884
  0
ARC
  5
124F1
  8
0
 10
3781.4092934484788202
 20
226.7344805788370934
 30
0.0
 40
0.0304016041969615
 50
266.0998936016720222
 51
289.6552366826737739
  0
ARC
  5
124F2
  8
0
 10
3781.4191417756710507
 20
226.7069074089924072
 30
0.0
 40
0.0011224436255952
 50
289.6552366827004903
 51
358.3285535399855917
  0
ARC
  5
124F3
  8
0
 10
3781.4173340789297981
 20
226.7046020065949961
 30
0.0
 40
0.003707818827497
 50
37.802239826091018
 51
80.8101957193628238
  0
ARC
  5
124F4
  8
0
 10
3781.4296980976391751
 20
226.6558676563215045
 30
0.0
 40
0.0488353382924472
 50
77.9540334455530513
 51
101.5944655410862936
  0
ARC
  5
124F5
  8
0
 10
3781.4211381233758402
 20
226.6976824229107876
 30
0.0
 40
0.0061534326434136
 50
101.7691863190719062
 51
125.4693491123849043
  0
ARC
  5
124F6
  8
0
 10
3781.4179789561308098
 20
226.7021164275022045
 30
0.0
 40
0.0007091021615798
 50
125.4693491123839948
 51
225.9084705991323858
  0
ARC
  5
124F7
  8
0
 10
3781.4278482930189966
 20
226.7257932853113118
 30
0.0
 40
0.0263126661500843
 50
246.8069342934603867
 51
272.9211641622347884
  0
ARC
  5
124F8
  8
0
 10
3781.4312570653792136
 20
226.7298460085370948
 30
0.0
 40
0.0304016041969615
 50
266.0998936016720222
 51
289.6552366826737739
  0
ARC
  5
124F9
  8
0
 10
3781.4411053925709894
 20
226.7022728386924086
 30
0.0
 40
0.0011224436255952
 50
289.6552366827004903
 51
358.3285535399855917
  0
ARC
  5
124FA
  8
0
 10
3781.4392976958288273
 20
226.6999674362949975
 30
0.0
 40
0.003707818827497
 50
37.802239826091018
 51
80.8101957193628238
  0
ARC
  5
124FB
  8
0
 10
3781.4080447274368453
 20
226.6472300787561949
 30
0.0
 40
0.0488353382924472
 50
77.9540334455530513
 51
101.5944655410862936
  0
ARC
  5
124FC
  8
0
 10
3781.3994847531748746
 20
226.6890448453453928
 30
0.0
 40
0.0061534326434136
 50
101.7691863190719062
 51
125.4693491123849043
  0
ARC
  5
124FD
  8
0
 10
3781.3963255859312085
 20
226.6934788499368096
 30
0.0
 40
0.0007091021615798
 50
125.4693491123839948
 51
225.9084705991323858
  0
ARC
  5
124FE
  8
0
 10
3781.4061949228171216
 20
226.7171557077458885
 30
0.0
 40
0.0263126661500843
 50
246.8069342934603867
 51
272.9211641622347884
  0
ARC
  5
124FF
  8
0
 10
3781.4096036951777933
 20
226.7212084309717
 30
0.0
 40
0.0304016041969615
 50
266.0998936016720222
 51
289.6552366826737739
  0
ARC
  5
12500
  8
0
 10
3781.4194520223700238
 20
226.6936352611270138
 30
0.0
 40
0.0011224436255952
 50
289.6552366827004903
 51
358.3285535399855917
  0
ARC
  5
12501
  8
0
 10
3781.4176443256292259
 20
226.6913298587296026
 30
0.0
 40
0.003707818827497
 50
37.802239826091018
 51
80.8101957193628238
  0
ARC
  5
12502
  8
0
 10
3781.4153954783869267
 20
226.6401230649246088
 30
0.0
 40
0.0488353382924472
 50
77.9540334455530513
 51
101.5944655410862936
  0
ARC
  5
12503
  8
0
 10
3781.4068355041249561
 20
226.6819378315138067
 30
0.0
 40
0.0061534326434136
 50
101.7691863190719062
 51
125.4693491123849043
  0
ARC
  5
12504
  8
0
 10
3781.4036763368799257
 20
226.6863718361051951
 30
0.0
 40
0.0007091021615798
 50
125.4693491123839948
 51
225.9084705991323858
  0
ARC
  5
12505
  8
0
 10
3781.413545673767203
 20
226.7100486939143877
 30
0.0
 40
0.0263126661500843
 50
246.8069342934603867
 51
272.9211641622347884
  0
ARC
  5
12506
  8
0
 10
3781.4169544461278747
 20
226.7141014171401139
 30
0.0
 40
0.0304016041969615
 50
266.0998936016720222
 51
289.6552366826737739
  0
ARC
  5
12507
  8
0
 10
3781.4268027733191957
 20
226.6865282472953993
 30
0.0
 40
0.0011224436255952
 50
289.6552366827004903
 51
358.3285535399855917
  0
ARC
  5
12508
  8
0
 10
3781.4249950765779431
 20
226.6842228448981018
 30
0.0
 40
0.003707818827497
 50
37.802239826091018
 51
80.8101957193628238
  0
ARC
  5
12509
  8
0
 10
3781.409835200669022
 20
226.6342934831374123
 30
0.0
 40
0.0488353382924472
 50
77.9540334455530513
 51
101.5944655410862936
  0
ARC
  5
1250A
  8
0
 10
3781.4012752264088704
 20
226.6761082497266102
 30
0.0
 40
0.0061534326434136
 50
101.7691863190719062
 51
125.4693491123849043
  0
ARC
  5
1250B
  8
0
 10
3781.39811605916384
 20
226.6805422543179986
 30
0.0
 40
0.0007091021615798
 50
125.4693491123839948
 51
225.9084705991323858
  0
ARC
  5
1250C
  8
0
 10
3781.4079853960502078
 20
226.7042191121271912
 30
0.0
 40
0.0263126661500843
 50
246.8069342934603867
 51
272.9211641622347884
  0
ARC
  5
1250D
  8
0
 10
3781.4113941684108795
 20
226.708271835352889
 30
0.0
 40
0.0304016041969615
 50
266.0998936016720222
 51
289.6552366826737739
  0
ARC
  5
1250E
  8
0
 10
3781.42124249560311
 20
226.6806986655082028
 30
0.0
 40
0.0011224436255952
 50
289.6552366827004903
 51
358.3285535399855917
  0
ARC
  5
1250F
  8
0
 10
3781.4194347988609479
 20
226.6783932631107916
 30
0.0
 40
0.003707818827497
 50
37.802239826091018
 51
80.8101957193628238
  0
ARC
  5
12510
  8
0
 10
3781.3864843417391057
 20
226.6067488711215105
 30
0.0
 40
0.0488353382924472
 50
77.9540334455530513
 51
101.5944655410862936
  0
ARC
  5
12511
  8
0
 10
3781.3779243674771351
 20
226.6485636377107937
 30
0.0
 40
0.0061534326434136
 50
101.7691863190719062
 51
125.4693491123849043
  0
ARC
  5
12512
  8
0
 10
3781.3747652002321047
 20
226.6529976423022106
 30
0.0
 40
0.0007091021615798
 50
125.4693491123839948
 51
225.9084705991323858
  0
ARC
  5
12513
  8
0
 10
3781.3846345371180178
 20
226.6766745001112895
 30
0.0
 40
0.0263126661500843
 50
246.8069342934603867
 51
272.9211641622347884
  0
ARC
  5
12514
  8
0
 10
3781.3880433094800537
 20
226.6807272233371009
 30
0.0
 40
0.0304016041969615
 50
266.0998936016720222
 51
289.6552366826737739
  0
ARC
  5
12515
  8
0
 10
3781.39789163667092
 20
226.6531540534923863
 30
0.0
 40
0.0011224436255952
 50
289.6552366827004903
 51
358.3285535399855917
  0
ARC
  5
12516
  8
0
 10
3781.3960839399301221
 20
226.6508486510950036
 30
0.0
 40
0.003707818827497
 50
37.802239826091018
 51
80.8101957193628238
  0
ARC
  5
12517
  8
0
 10
3781.4109012842300217
 20
226.6088749393354078
 30
0.0
 40
0.0488353382924472
 50
77.9540334455530513
 51
101.5944655410862936
  0
ARC
  5
12518
  8
0
 10
3781.4023413099671416
 20
226.650689705924691
 30
0.0
 40
0.0061534326434136
 50
101.7691863190719062
 51
125.4693491123849043
  0
ARC
  5
12519
  8
0
 10
3781.3991821427230207
 20
226.6551237105159942
 30
0.0
 40
0.0007091021615798
 50
125.4693491123839948
 51
225.9084705991323858
  0
ARC
  5
1251A
  8
0
 10
3781.4090514796089337
 20
226.6788005683251868
 30
0.0
 40
0.0263126661500843
 50
246.8069342934603867
 51
272.9211641622347884
  0
ARC
  5
1251B
  8
0
 10
3781.4124602519709697
 20
226.6828532915509129
 30
0.0
 40
0.0304016041969615
 50
266.0998936016720222
 51
289.6552366826737739
  0
ARC
  5
1251C
  8
0
 10
3781.422308579161836
 20
226.6552801217061983
 30
0.0
 40
0.0011224436255952
 50
289.6552366827004903
 51
358.3285535399855917
  0
ARC
  5
1251D
  8
0
 10
3781.4205008824210381
 20
226.6529747193087871
 30
0.0
 40
0.003707818827497
 50
37.802239826091018
 51
80.8101957193628238
  0
ARC
  5
1251E
  8
0
 10
3781.4333085852381373
 20
226.6120020745215982
 30
0.0
 40
0.0488353382924472
 50
77.9540334455530513
 51
101.5944655410862936
  0
ARC
  5
1251F
  8
0
 10
3781.4247486109770762
 20
226.6538168411107961
 30
0.0
 40
0.0061534326434136
 50
101.7691863190719062
 51
125.4693491123849043
  0
ARC
  5
12520
  8
0
 10
3781.4215894437320458
 20
226.6582508457020992
 30
0.0
 40
0.0007091021615798
 50
125.4693491123839948
 51
225.9084705991323858
  0
ARC
  5
12521
  8
0
 10
3781.4314587806188683
 20
226.6819277035112918
 30
0.0
 40
0.0263126661500843
 50
246.8069342934603867
 51
272.9211641622347884
  0
ARC
  5
12522
  8
0
 10
3781.4348675529799948
 20
226.6859804267371032
 30
0.0
 40
0.0304016041969615
 50
266.0998936016720222
 51
289.6552366826737739
  0
ARC
  5
12523
  8
0
 10
3781.4447158801722253
 20
226.6584072568923887
 30
0.0
 40
0.0011224436255952
 50
289.6552366827004903
 51
358.3285535399855917
  0
ARC
  5
12524
  8
0
 10
3781.4429081834300632
 20
226.6561018544950059
 30
0.0
 40
0.003707818827497
 50
37.802239826091018
 51
80.8101957193628238
  0
ARC
  5
12525
  8
0
 10
3781.4121767761171213
 20
226.6202386411565044
 30
0.0
 40
0.0488353382924472
 50
77.9540334455530513
 51
101.5944655410862936
  0
ARC
  5
12526
  8
0
 10
3781.4036168018551507
 20
226.6620534077457023
 30
0.0
 40
0.0061534326434136
 50
101.7691863190719062
 51
125.4693491123849043
  0
ARC
  5
12527
  8
0
 10
3781.4004576346101203
 20
226.6664874123370907
 30
0.0
 40
0.0007091021615798
 50
125.4693491123839948
 51
225.9084705991323858
  0
ARC
  5
12528
  8
0
 10
3781.4103269714960334
 20
226.6901642701463118
 30
0.0
 40
0.0263126661500843
 50
246.8069342934603867
 51
272.9211641622347884
  0
ARC
  5
12529
  8
0
 10
3781.4137357438571598
 20
226.6942169933720095
 30
0.0
 40
0.0304016041969615
 50
266.0998936016720222
 51
289.6552366826737739
  0
ARC
  5
1252A
  8
0
 10
3781.4235840710489356
 20
226.6666438235272949
 30
0.0
 40
0.0011224436255952
 50
289.6552366827004903
 51
358.3285535399855917
  0
ARC
  5
1252B
  8
0
 10
3781.4217763743081377
 20
226.6643384211299121
 30
0.0
 40
0.003707818827497
 50
37.802239826091018
 51
80.8101957193628238
  0
ARC
  5
1252C
  8
0
 10
3781.4330497335381551
 20
226.6253117973215012
 30
0.0
 40
0.0488353382924472
 50
77.9540334455530513
 51
101.5944655410862936
  0
ARC
  5
1252D
  8
0
 10
3781.424489759277094
 20
226.6671265639108128
 30
0.0
 40
0.0061534326434136
 50
101.7691863190719062
 51
125.4693491123849043
  0
ARC
  5
1252E
  8
0
 10
3781.4213305920320636
 20
226.6715605685022012
 30
0.0
 40
0.0007091021615798
 50
125.4693491123839948
 51
225.9084705991323858
  0
ARC
  5
1252F
  8
0
 10
3781.4311999289188861
 20
226.6952374263113086
 30
0.0
 40
0.0263126661500843
 50
246.8069342934603867
 51
272.9211641622347884
  0
ARC
  5
12530
  8
0
 10
3781.4346087012800126
 20
226.6992901495370916
 30
0.0
 40
0.0304016041969615
 50
266.0998936016720222
 51
289.6552366826737739
  0
ARC
  5
12531
  8
0
 10
3781.4444570284708789
 20
226.6717169796924054
 30
0.0
 40
0.0011224436255952
 50
289.6552366827004903
 51
358.3285535399855917
  0
ARC
  5
12532
  8
0
 10
3781.442649331730081
 20
226.6694115772949942
 30
0.0
 40
0.003707818827497
 50
37.802239826091018
 51
80.8101957193628238
  0
ARC
  5
12533
  8
0
 10
3781.447796868846126
 20
226.6316420485015044
 30
0.0
 40
0.0488353382924472
 50
77.9540334455530513
 51
101.5944655410862936
  0
ARC
  5
12534
  8
0
 10
3781.4392368945841554
 20
226.6734568150907876
 30
0.0
 40
0.0061534326434136
 50
101.7691863190719062
 51
125.4693491123849043
  0
ARC
  5
12535
  8
0
 10
3781.436077727339125
 20
226.6778908196822044
 30
0.0
 40
0.0007091021615798
 50
125.4693491123839948
 51
225.9084705991323858
  0
ARC
  5
12536
  8
0
 10
3781.4459470642259475
 20
226.7015676774913118
 30
0.0
 40
0.0263126661500843
 50
246.8069342934603867
 51
272.9211641622347884
  0
ARC
  5
12537
  8
0
 10
3781.449355836587074
 20
226.7056204007170948
 30
0.0
 40
0.0304016041969615
 50
266.0998936016720222
 51
289.6552366826737739
  0
ARC
  5
12538
  8
0
 10
3781.4592041637788498
 20
226.6780472308722949
 30
0.0
 40
0.0011224436255952
 50
289.6552366827004903
 51
358.3285535399855917
  0
ARC
  5
12539
  8
0
 10
3781.4573964670371424
 20
226.6757418284749974
 30
0.0
 40
0.003707818827497
 50
37.802239826091018
 51
80.8101957193628238
  0
ARC
  5
1253A
  8
0
 10
3781.454614843138188
 20
226.6374568787215935
 30
0.0
 40
0.0488353382924472
 50
77.9540334455530513
 51
101.5944655410862936
  0
ARC
  5
1253B
  8
0
 10
3781.4460548688762174
 20
226.6792716453107914
 30
0.0
 40
0.0061534326434136
 50
101.7691863190719062
 51
125.4693491123849043
  0
ARC
  5
1253C
  8
0
 10
3781.4428957016320965
 20
226.6837056499022083
 30
0.0
 40
0.0007091021615798
 50
125.4693491123839948
 51
225.9084705991323858
  0
ARC
  5
1253D
  8
0
 10
3781.452765038518919
 20
226.7073825077114009
 30
0.0
 40
0.0263126661500843
 50
246.8069342934603867
 51
272.9211641622347884
  0
ARC
  5
1253E
  8
0
 10
3781.456173810879136
 20
226.7114352309370986
 30
0.0
 40
0.0304016041969615
 50
266.0998936016720222
 51
289.6552366826737739
  0
ARC
  5
1253F
  8
0
 10
3781.4660221380709118
 20
226.6838620610924124
 30
0.0
 40
0.0011224436255952
 50
289.6552366827004903
 51
358.3285535399855917
  0
ARC
  5
12540
  8
0
 10
3781.4642144413301139
 20
226.6815566586950013
 30
0.0
 40
0.003707818827497
 50
37.802239826091018
 51
80.8101957193628238
  0
ARC
  5
12541
  8
0
 10
3781.4540354584378292
 20
226.6435699229216141
 30
0.0
 40
0.0488353382924472
 50
77.9540334455530513
 51
101.5944655410862936
  0
ARC
  5
12542
  8
0
 10
3781.4454754841758586
 20
226.685384689510812
 30
0.0
 40
0.0061534326434136
 50
101.7691863190719062
 51
125.4693491123849043
  0
ARC
  5
12543
  8
0
 10
3781.4423163169321924
 20
226.6898186941022004
 30
0.0
 40
0.0007091021615798
 50
125.4693491123839948
 51
225.9084705991323858
  0
ARC
  5
12544
  8
0
 10
3781.452185653819015
 20
226.713495551911393
 30
0.0
 40
0.0263126661500843
 50
246.8069342934603867
 51
272.9211641622347884
  0
ARC
  5
12545
  8
0
 10
3781.4555944261787772
 20
226.7175482751370907
 30
0.0
 40
0.0304016041969615
 50
266.0998936016720222
 51
289.6552366826737739
  0
ARC
  5
12546
  8
0
 10
3781.4654427533710077
 20
226.6899751052924046
 30
0.0
 40
0.0011224436255952
 50
289.6552366827004903
 51
358.3285535399855917
  0
ARC
  5
12547
  8
0
 10
3781.4636350566302099
 20
226.6876697028949934
 30
0.0
 40
0.003707818827497
 50
37.802239826091018
 51
80.8101957193628238
  0
ARC
  5
12548
  8
0
 10
3781.4455184905659735
 20
226.6499026732064124
 30
0.0
 40
0.0488353382924472
 50
77.9540334455530513
 51
101.5944655410862936
  0
ARC
  5
12549
  8
0
 10
3781.4369585163040028
 20
226.6917174397956103
 30
0.0
 40
0.0061534326434136
 50
101.7691863190719062
 51
125.4693491123849043
  0
ARC
  5
1254A
  8
0
 10
3781.4337993490589724
 20
226.6961514443869987
 30
0.0
 40
0.0007091021615798
 50
125.4693491123839948
 51
225.9084705991323858
  0
ARC
  5
1254B
  8
0
 10
3781.443668685945795
 20
226.7198283021961061
 30
0.0
 40
0.0263126661500843
 50
246.8069342934603867
 51
272.9211641622347884
  0
ARC
  5
1254C
  8
0
 10
3781.447077458306012
 20
226.723881025421889
 30
0.0
 40
0.0304016041969615
 50
266.0998936016720222
 51
289.6552366826737739
  0
ARC
  5
1254D
  8
0
 10
3781.4569257854977877
 20
226.6963078555772029
 30
0.0
 40
0.0011224436255952
 50
289.6552366827004903
 51
358.3285535399855917
  0
ARC
  5
1254E
  8
0
 10
3781.4551180887569899
 20
226.6940024531797917
 30
0.0
 40
0.003707818827497
 50
37.802239826091018
 51
80.8101957193628238
  0
ARC
  5
1254F
  8
0
 10
3781.4531927012380947
 20
226.615691990621599
 30
0.0
 40
0.0488353382924472
 50
77.9540334455530513
 51
101.5944655410862936
  0
ARC
  5
12550
  8
0
 10
3781.4446327269770336
 20
226.6575067572107969
 30
0.0
 40
0.0061534326434136
 50
101.7691863190719062
 51
125.4693491123849043
  0
ARC
  5
12551
  8
0
 10
3781.4414735597320032
 20
226.6619407618021
 30
0.0
 40
0.0007091021615798
 50
125.4693491123839948
 51
225.9084705991323858
  0
ARC
  5
12552
  8
0
 10
3781.4513428966188258
 20
226.6856176196112926
 30
0.0
 40
0.0263126661500843
 50
246.8069342934603867
 51
272.9211641622347884
  0
ARC
  5
12553
  8
0
 10
3781.4547516689799522
 20
226.689670342837104
 30
0.0
 40
0.0304016041969615
 50
266.0998936016720222
 51
289.6552366826737739
  0
ARC
  5
12554
  8
0
 10
3781.4645999961721827
 20
226.6620971729923895
 30
0.0
 40
0.0011224436255952
 50
289.6552366827004903
 51
358.3285535399855917
  0
ARC
  5
12555
  8
0
 10
3781.4627922994300206
 20
226.6597917705950067
 30
0.0
 40
0.003707818827497
 50
37.802239826091018
 51
80.8101957193628238
  0
ARC
  5
12556
  8
0
 10
3781.4772804348881436
 20
226.5969672364552139
 30
0.0
 40
0.0488353382924472
 50
77.9540334455530513
 51
101.5944655410862936
  0
ARC
  5
12557
  8
0
 10
3781.468720460626173
 20
226.6387820030444971
 30
0.0
 40
0.0061534326434136
 50
101.7691863190719062
 51
125.4693491123849043
  0
ARC
  5
12558
  8
0
 10
3781.4655612933820521
 20
226.6432160076358002
 30
0.0
 40
0.0007091021615798
 50
125.4693491123839948
 51
225.9084705991323858
  0
ARC
  5
12559
  8
0
 10
3781.4754306302679652
 20
226.6668928654449928
 30
0.0
 40
0.0263126661500843
 50
246.8069342934603867
 51
272.9211641622347884
  0
ARC
  5
1255A
  8
0
 10
3781.4788394026290916
 20
226.6709455886708042
 30
0.0
 40
0.0304016041969615
 50
266.0998936016720222
 51
289.6552366826737739
  0
ARC
  5
1255B
  8
0
 10
3781.4886877298208674
 20
226.6433724188260044
 30
0.0
 40
0.0011224436255952
 50
289.6552366827004903
 51
358.3285535399855917
  0
ARC
  5
1255C
  8
0
 10
3781.4868800330800696
 20
226.6410670164287069
 30
0.0
 40
0.003707818827497
 50
37.802239826091018
 51
80.8101957193628238
  0
ARC
  5
1255D
  8
0
 10
3781.4700493697378079
 20
226.6199865505215882
 30
0.0
 40
0.0488353382924472
 50
77.9540334455530513
 51
101.5944655410862936
  0
ARC
  5
1255E
  8
0
 10
3781.4614893954758372
 20
226.6618013171107862
 30
0.0
 40
0.0061534326434136
 50
101.7691863190719062
 51
125.4693491123849043
  0
ARC
  5
1255F
  8
0
 10
3781.4583302282321711
 20
226.666235321702203
 30
0.0
 40
0.0007091021615798
 50
125.4693491123839948
 51
225.9084705991323858
  0
ARC
  5
12560
  8
0
 10
3781.4681995651180841
 20
226.6899121795113103
 30
0.0
 40
0.0263126661500843
 50
246.8069342934603867
 51
272.9211641622347884
  0
ARC
  5
12561
  8
0
 10
3781.4716083374792106
 20
226.6939649027370933
 30
0.0
 40
0.0304016041969615
 50
266.0998936016720222
 51
289.6552366826737739
  0
ARC
  5
12562
  8
0
 10
3781.4814566646709864
 20
226.6663917328924072
 30
0.0
 40
0.0011224436255952
 50
289.6552366827004903
 51
358.3285535399855917
  0
ARC
  5
12563
  8
0
 10
3781.4796489679301885
 20
226.664086330494996
 30
0.0
 40
0.003707818827497
 50
37.802239826091018
 51
80.8101957193628238
  0
ARC
  5
12564
  8
0
 10
3781.4834812144840726
 20
226.6246612503965991
 30
0.0
 40
0.0488353382924472
 50
77.9540334455530513
 51
101.5944655410862936
  0
ARC
  5
12565
  8
0
 10
3781.4749212402221019
 20
226.6664760169859107
 30
0.0
 40
0.0061534326434136
 50
101.7691863190719062
 51
125.4693491123849043
  0
ARC
  5
12566
  8
0
 10
3781.4717620729770715
 20
226.6709100215772992
 30
0.0
 40
0.0007091021615798
 50
125.4693491123839948
 51
225.9084705991323858
  0
ARC
  5
12567
  8
0
 10
3781.4816314098638941
 20
226.6945868793864918
 30
0.0
 40
0.0263126661500843
 50
246.8069342934603867
 51
272.9211641622347884
  0
ARC
  5
12568
  8
0
 10
3781.4850401822250205
 20
226.6986396026121895
 30
0.0
 40
0.0304016041969615
 50
266.0998936016720222
 51
289.6552366826737739
  0
ARC
  5
12569
  8
0
 10
3781.4948885094167963
 20
226.6710664327675033
 30
0.0
 40
0.0011224436255952
 50
289.6552366827004903
 51
358.3285535399855917
  0
ARC
  5
1256A
  8
0
 10
3781.493080812675089
 20
226.6687610303700922
 30
0.0
 40
0.003707818827497
 50
37.802239826091018
 51
80.8101957193628238
  0
ARC
  5
1256B
  8
0
 10
3781.4931318062072023
 20
226.6298220051943133
 30
0.0
 40
0.0488353382924472
 50
77.9540334455530513
 51
101.5944655410862936
  0
ARC
  5
1256C
  8
0
 10
3781.4845718319447769
 20
226.6716367717835112
 30
0.0
 40
0.0061534326434136
 50
101.7691863190719062
 51
125.4693491123849043
  0
ARC
  5
1256D
  8
0
 10
3781.4814126647002013
 20
226.6760707763748997
 30
0.0
 40
0.0007091021615798
 50
125.4693491123839948
 51
225.9084705991323858
  0
ARC
  5
1256E
  8
0
 10
3781.4912820015870238
 20
226.6997476341840922
 30
0.0
 40
0.0263126661500843
 50
246.8069342934603867
 51
272.9211641622347884
  0
ARC
  5
1256F
  8
0
 10
3781.4946907739481503
 20
226.70380035740979
 30
0.0
 40
0.0304016041969615
 50
266.0998936016720222
 51
289.6552366826737739
  0
ARC
  5
12570
  8
0
 10
3781.5045391011399261
 20
226.6762271875651038
 30
0.0
 40
0.0011224436255952
 50
289.6552366827004903
 51
358.3285535399855917
  0
ARC
  5
12571
  8
0
 10
3781.5027314043982187
 20
226.6739217851676926
 30
0.0
 40
0.003707818827497
 50
37.802239826091018
 51
80.8101957193628238
  0
ARC
  5
12572
  8
0
 10
3781.4987434801378186
 20
226.6353966851216057
 30
0.0
 40
0.0488353382924472
 50
77.9540334455530513
 51
101.5944655410862936
  0
ARC
  5
12573
  8
0
 10
3781.4901835058758479
 20
226.6772114517108037
 30
0.0
 40
0.0061534326434136
 50
101.7691863190719062
 51
125.4693491123849043
  0
ARC
  5
12574
  8
0
 10
3781.4870243386321818
 20
226.6816454563021921
 30
0.0
 40
0.0007091021615798
 50
125.4693491123839948
 51
225.9084705991323858
  0
ARC
  5
12575
  8
0
 10
3781.4968936755190043
 20
226.7053223141114131
 30
0.0
 40
0.0263126661500843
 50
246.8069342934603867
 51
272.9211641622347884
  0
ARC
  5
12576
  8
0
 10
3781.5003024478792213
 20
226.7093750373371108
 30
0.0
 40
0.0304016041969615
 50
266.0998936016720222
 51
289.6552366826737739
  0
ARC
  5
12577
  8
0
 10
3781.510150775070997
 20
226.6818018674923962
 30
0.0
 40
0.0011224436255952
 50
289.6552366827004903
 51
358.3285535399855917
  0
ARC
  5
12578
  8
0
 10
3781.5083430783301992
 20
226.6794964650950988
 30
0.0
 40
0.003707818827497
 50
37.802239826091018
 51
80.8101957193628238
  0
ARC
  5
12579
  8
0
 10
3781.5002322421391909
 20
226.6408567554215949
 30
0.0
 40
0.0488353382924472
 50
77.9540334455530513
 51
101.5944655410862936
  0
ARC
  5
1257A
  8
0
 10
3781.4916722678772203
 20
226.6826715220107928
 30
0.0
 40
0.0061534326434136
 50
101.7691863190719062
 51
125.4693491123849043
  0
ARC
  5
1257B
  8
0
 10
3781.4885131006321899
 20
226.6871055266022097
 30
0.0
 40
0.0007091021615798
 50
125.4693491123839948
 51
225.9084705991323858
  0
ARC
  5
1257C
  8
0
 10
3781.4983824375190125
 20
226.7107823844114023
 30
0.0
 40
0.0263126661500843
 50
246.8069342934603867
 51
272.9211641622347884
  0
ARC
  5
1257D
  8
0
 10
3781.5017912098801389
 20
226.7148351076371
 30
0.0
 40
0.0304016041969615
 50
266.0998936016720222
 51
289.6552366826737739
  0
ARC
  5
1257E
  8
0
 10
3781.5116395370710052
 20
226.6872619377924138
 30
0.0
 40
0.0011224436255952
 50
289.6552366827004903
 51
358.3285535399855917
  0
ARC
  5
1257F
  8
0
 10
3781.5098318403302073
 20
226.6849565353950027
 30
0.0
 40
0.003707818827497
 50
37.802239826091018
 51
80.8101957193628238
  0
ARC
  5
12580
  8
0
 10
3781.4975303684391292
 20
226.6464121881215874
 30
0.0
 40
0.0488353382924472
 50
77.9540334455530513
 51
101.5944655410862936
  0
ARC
  5
12581
  8
0
 10
3781.4889703941771586
 20
226.6882269547108137
 30
0.0
 40
0.0061534326434136
 50
101.7691863190719062
 51
125.4693491123849043
  0
ARC
  5
12582
  8
0
 10
3781.4858112269321282
 20
226.6926609593022022
 30
0.0
 40
0.0007091021615798
 50
125.4693491123839948
 51
225.9084705991323858
  0
ARC
  5
12583
  8
0
 10
3781.4956805638180413
 20
226.7163378171113948
 30
0.0
 40
0.0263126661500843
 50
246.8069342934603867
 51
272.9211641622347884
  0
ARC
  5
12584
  8
0
 10
3781.4990893361791677
 20
226.7203905403370925
 30
0.0
 40
0.0304016041969615
 50
266.0998936016720222
 51
289.6552366826737739
  0
ARC
  5
12585
  8
0
 10
3781.5089376633709435
 20
226.6928173704924063
 30
0.0
 40
0.0011224436255952
 50
289.6552366827004903
 51
358.3285535399855917
  0
ARC
  5
12586
  8
0
 10
3781.5071299666301456
 20
226.6905119680949952
 30
0.0
 40
0.003707818827497
 50
37.802239826091018
 51
80.8101957193628238
  0
ARC
  5
12587
  8
0
 10
3781.4907186974378419
 20
226.6517760532215959
 30
0.0
 40
0.0488353382924472
 50
77.9540334455530513
 51
101.5944655410862936
  0
ARC
  5
12588
  8
0
 10
3781.4821587231758713
 20
226.6935908198107938
 30
0.0
 40
0.0061534326434136
 50
101.7691863190719062
 51
125.4693491123849043
  0
ARC
  5
12589
  8
0
 10
3781.4789995559322051
 20
226.6980248244022107
 30
0.0
 40
0.0007091021615798
 50
125.4693491123839948
 51
225.9084705991323858
  0
ARC
  5
1258A
  8
0
 10
3781.4888688928181182
 20
226.7217016822112896
 30
0.0
 40
0.0263126661500843
 50
246.8069342934603867
 51
272.9211641622347884
  0
ARC
  5
1258B
  8
0
 10
3781.4922776651787899
 20
226.725754405437101
 30
0.0
 40
0.0304016041969615
 50
266.0998936016720222
 51
289.6552366826737739
  0
ARC
  5
1258C
  8
0
 10
3781.5021259923710204
 20
226.6981812355923864
 30
0.0
 40
0.0011224436255952
 50
289.6552366827004903
 51
358.3285535399855917
  0
ARC
  5
1258D
  8
0
 10
3781.5003182956302226
 20
226.6958758331950037
 30
0.0
 40
0.003707818827497
 50
37.802239826091018
 51
80.8101957193628238
  0
ARC
  5
1258E
  8
0
 10
3781.4799458285388027
 20
226.6568657336216006
 30
0.0
 40
0.0488353382924472
 50
100.4393645565745032
 51
101.5944655410862936
  0
ARC
  5
1258F
  8
0
 10
3781.4713858542768321
 20
226.6986805002107985
 30
0.0
 40
0.0061534326434136
 50
101.7691863190719062
 51
125.4693491123849043
  0
ARC
  5
12590
  8
0
 10
3781.4682266870318017
 20
226.703114504802187
 30
0.0
 40
0.0007091021615798
 50
125.4693491123839948
 51
225.9084705991323858
  0
ARC
  5
12591
  8
0
 10
3781.4780960239181695
 20
226.7267913626112943
 30
0.0
 40
0.0263126661500843
 50
246.8069342934603867
 51
272.9211641622347884
  0
ARC
  5
12592
  8
0
 10
3781.4815047962802055
 20
226.7308440858371057
 30
0.0
 40
0.0304016041969615
 50
266.0998936016720222
 51
289.6552366826737739
  0
ARC
  5
12593
  8
0
 10
3781.4913531234710717
 20
226.7032709159923911
 30
0.0
 40
0.0011224436255952
 50
289.6552366827004903
 51
315.7949089274388257
  0
ARC
  5
12594
  8
0
 10
3781.3428690920281952
 20
225.4882754724860945
 30
0.0
 40
1.2233560117092519
 50
78.4531703892959769
 51
90.7335395539479492
  0
ARC
  5
12595
  8
0
 10
3781.3196547506568095
 20
226.7500003761909966
 30
0.0
 40
0.0402596304050746
 50
253.2692223628297938
 51
287.3873926515063886
  0
ARC
  5
12596
  8
0
 10
3781.3511492540651489
 20
226.7466293445403096
 30
0.0
 40
0.0371496115167774
 50
250.4361868699718912
 51
288.8097939277283217
  0
ARC
  5
12597
  8
0
 10
3781.381323881661956
 20
226.7338333478043069
 30
0.0
 40
0.0262315051525633
 50
238.8747563726929002
 51
297.5885191625870902
  0
ARC
  5
12598
  8
0
 10
3781.3343012937198182
 20
226.6048019963241984
 30
0.0
 40
0.0488353382924472
 50
78.4055344589137064
 51
102.0459665544469061
  0
ARC
  5
12599
  8
0
 10
3781.3428612679817888
 20
226.6466167629133963
 30
0.0
 40
0.0061534326434136
 50
54.5306508876150673
 51
78.2308136809281081
  0
ARC
  5
1259A
  8
0
 10
3781.3460204352259098
 20
226.6510507675048132
 30
0.0
 40
0.0007091021615798
 50
314.0915294008676142
 51
54.5306508876160194
  0
ARC
  5
1259B
  8
0
 10
3781.3361510983399967
 20
226.6747276253140058
 30
0.0
 40
0.0263126661500843
 50
267.0788358377650979
 51
293.1930657065396986
  0
ARC
  5
1259C
  8
0
 10
3781.3327423259788702
 20
226.6787803485397035
 30
0.0
 40
0.0304016041969615
 50
250.3447633173261977
 51
273.9001063983279778
  0
ARC
  5
1259D
  8
0
 10
3781.3228939987870945
 20
226.6512071786949889
 30
0.0
 40
0.0011224436255952
 50
181.6714464600144083
 51
250.344763317299396
  0
ARC
  5
1259E
  8
0
 10
3781.3247016955288018
 20
226.6489017762976914
 30
0.0
 40
0.003707818827497
 50
99.1898042806371905
 51
142.1977601739089891
  0
ENDSEC
  0
EOF
