  0
SECTION
  2
HEADER
  9
$ACADVER
  1
AC1009
  9
$INSBASE
 10
4372.1294552937615663
 20
103.4026881208448998
 30
0.0
  9
$EXTMIN
 10
4364.2101006567663717
 20
103.3900682222243006
 30
-0.0000000000000058
  9
$EXTMAX
 10
4373.8871322986205996
 20
114.2997626649734997
 30
0.0000000000000104
  9
$LIMMIN
 10
0.0
 20
0.0
  9
$LIMMAX
 10
11.6929133858000007
 20
8.2677165353999982
  9
$ORTHOMODE
 70
     0
  9
$REGENMODE
 70
     1
  9
$FILLMODE
 70
     1
  9
$QTEXTMODE
 70
     0
  9
$MIRRTEXT
 70
     0
  9
$DRAGMODE
 70
     2
  9
$LTSCALE
 40
0.6431102362
  9
$OSMODE
 70
  4095
  9
$ATTMODE
 70
     1
  9
$TEXTSIZE
 40
0.2
  9
$TRACEWID
 40
0.05
  9
$TEXTSTYLE
  7
STANDARD
  9
$CLAYER
  8
0
  9
$CELTYPE
  6
BYLAYER
  9
$CECOLOR
 62
   256
  9
$DIMSCALE
 40
1.0
  9
$DIMASZ
 40
0.1875
  9
$DIMEXO
 40
0.0625
  9
$DIMDLI
 40
0.4443307087
  9
$DIMRND
 40
0.0
  9
$DIMDLE
 40
0.0
  9
$DIMEXE
 40
0.125
  9
$DIMTP
 40
0.01
  9
$DIMTM
 40
0.01
  9
$DIMTXT
 40
2.0
  9
$DIMCEN
 40
0.1052362205
  9
$DIMTSZ
 40
0.0
  9
$DIMTOL
 70
     1
  9
$DIMLIM
 70
     0
  9
$DIMTIH
 70
     1
  9
$DIMTOH
 70
     1
  9
$DIMSE1
 70
     0
  9
$DIMSE2
 70
     0
  9
$DIMTAD
 70
     0
  9
$DIMZIN
 70
     0
  9
$DIMBLK
  1

  9
$DIMASO
 70
     1
  9
$DIMSHO
 70
     1
  9
$DIMPOST
  1
\X
  9
$DIMAPOST
  1

  9
$DIMALT
 70
     1
  9
$DIMALTD
 70
     2
  9
$DIMALTF
 40
25.3999999999999986
  9
$DIMLFAC
 40
1.0
  9
$DIMTOFL
 70
     0
  9
$DIMTVP
 40
0.0
  9
$DIMTIX
 70
     0
  9
$DIMSOXD
 70
     0
  9
$DIMSAH
 70
     0
  9
$DIMBLK1
  1

  9
$DIMBLK2
  1

  9
$DIMSTYLE
  2
STANDARD
  9
$DIMCLRD
 70
     0
  9
$DIMCLRE
 70
     0
  9
$DIMCLRT
 70
     0
  9
$DIMTFAC
 40
1.0
  9
$DIMGAP
 40
0.09
  9
$LUNITS
 70
     2
  9
$LUPREC
 70
     4
  9
$SKETCHINC
 40
0.1
  9
$FILLETRAD
 40
0.0
  9
$AUNITS
 70
     0
  9
$AUPREC
 70
     0
  9
$MENU
  1
.
  9
$ELEVATION
 40
0.0
  9
$PELEVATION
 40
0.0
  9
$THICKNESS
 40
0.0
  9
$LIMCHECK
 70
     0
  9
$BLIPMODE
 70
     0
  9
$CHAMFERA
 40
0.0
  9
$CHAMFERB
 40
0.0
  9
$SKPOLY
 70
     0
  9
$TDCREATE
 40
2458060.468368056230247
  9
$TDUPDATE
 40
2459506.5741898152045906
  9
$TDINDWG
 40
0.3780741898
  9
$TDUSRTIMER
 40
0.3780741898
  9
$USRTIMER
 70
     1
  9
$ANGBASE
 50
0.0
  9
$ANGDIR
 70
     0
  9
$PDMODE
 70
     0
  9
$PDSIZE
 40
0.3125
  9
$PLINEWID
 40
0.0
  9
$COORDS
 70
     1
  9
$SPLFRAME
 70
     0
  9
$SPLINETYPE
 70
     6
  9
$SPLINESEGS
 70
     8
  9
$ATTDIA
 70
     1
  9
$ATTREQ
 70
     1
  9
$HANDLING
 70
     1
  9
$HANDSEED
  5
B35A
  9
$SURFTAB1
 70
     6
  9
$SURFTAB2
 70
     6
  9
$SURFTYPE
 70
     6
  9
$SURFU
 70
     6
  9
$SURFV
 70
     6
  9
$UCSNAME
  2

  9
$UCSORG
 10
0.0
 20
0.0
 30
0.0
  9
$UCSXDIR
 10
1.0
 20
0.0
 30
0.0
  9
$UCSYDIR
 10
0.0
 20
1.0
 30
0.0
  9
$PUCSNAME
  2

  9
$PUCSORG
 10
0.0
 20
0.0
 30
0.0
  9
$PUCSXDIR
 10
1.0
 20
0.0
 30
0.0
  9
$PUCSYDIR
 10
0.0
 20
1.0
 30
0.0
  9
$USERI1
 70
     0
  9
$USERI2
 70
     0
  9
$USERI3
 70
     0
  9
$USERI4
 70
     0
  9
$USERI5
 70
     0
  9
$USERR1
 40
0.0
  9
$USERR2
 40
0.0
  9
$USERR3
 40
0.0
  9
$USERR4
 40
0.0
  9
$USERR5
 40
0.0
  9
$WORLDVIEW
 70
     1
  9
$SHADEDGE
 70
     3
  9
$SHADEDIF
 70
    70
  9
$TILEMODE
 70
     1
  9
$MAXACTVP
 70
    64
  9
$PLIMCHECK
 70
     0
  9
$PEXTMIN
 10
1.0000000000000000E+20
 20
1.0000000000000000E+20
 30
1.0000000000000000E+20
  9
$PEXTMAX
 10
-1.0000000000000000E+20
 20
-1.0000000000000000E+20
 30
-1.0000000000000000E+20
  9
$PLIMMIN
 10
0.0
 20
0.0
  9
$PLIMMAX
 10
12.0
 20
9.0
  9
$UNITMODE
 70
     0
  9
$VISRETAIN
 70
     1
  9
$PLINEGEN
 70
     0
  9
$PSLTSCALE
 70
     1
  0
ENDSEC
  0
SECTION
  2
TABLES
  0
TABLE
  2
VPORT
 70
     1
  0
VPORT
  2
*ACTIVE
 70
     0
 10
0.0
 20
0.0
 11
1.0
 21
1.0
 12
104.0422688214438978
 22
4.5409031450149637
 13
0.0
 23
0.0
 14
1.0
 24
1.0
 15
0.0
 25
0.0
 16
0.0
 26
0.0
 36
122.0237731519760018
 17
4265.00634765625
 27
104.3040122985839986
 37
0.0
 40
10.9961649403139603
 41
1.67063492063492
 42
50.0
 43
0.0
 44
0.0
 50
0.0
 51
0.0
 71
     0
 72
   100
 73
     1
 74
     1
 75
     0
 76
     0
 77
     0
 78
     0
  0
ENDTAB
  0
TABLE
  2
LTYPE
 70
     2
  0
LTYPE
  2
CONTINUOUS
 70
     0
  3
Solid line
 72
    65
 73
     0
 40
0.0
  0
LTYPE
  2
PHANTOM2
 70
     0
  3
___ _ _ ___ _ _ ___ _ _ ___ _ _
 72
    65
 73
     6
 40
1.25
 49
0.625
 49
-0.125
 49
0.125
 49
-0.125
 49
0.125
 49
-0.125
  0
ENDTAB
  0
TABLE
  2
LAYER
 70
     2
  0
LAYER
  2
0
 70
     0
 62
   255
  6
CONTINUOUS
  0
LAYER
  2
DEFPOINTS
 70
     0
 62
     7
  6
CONTINUOUS
  0
ENDTAB
  0
TABLE
  2
STYLE
 70
     1
  0
STYLE
  2
STANDARD
 70
     0
 40
0.0
 41
0.8
 50
0.0
 71
     0
 42
0.2
  3
txt
  4

  0
ENDTAB
  0
TABLE
  2
VIEW
 70
     0
  0
ENDTAB
  0
TABLE
  2
UCS
 70
     0
  0
ENDTAB
  0
TABLE
  2
APPID
 70
    10
  0
APPID
  2
ACAD
 70
     0
  0
APPID
  2
ACAD_MLEADERVER
 70
     0
  0
APPID
  2
ACAD_EXEMPT_FROM_CAD_STANDARDS
 70
     0
  0
APPID
  2
ACAD_NAV_VCDISPLAY
 70
     0
  0
APPID
  2
ACAECLAYERSTANDARD
 70
     0
  0
APPID
  2
ACCMTRANSPARENCY
 70
     0
  0
APPID
  2
ACAD_DSTYLE_DIMJAG
 70
     0
  0
APPID
  2
ACAD_DSTYLE_DIMTALN
 70
     0
  0
APPID
  2
ACDBATTR
 70
     0
  0
APPID
  2
DCO15
 70
     0
  0
ENDTAB
  0
TABLE
  2
DIMSTYLE
 70
     1
  0
DIMSTYLE
  2
STANDARD
 70
     0
  3

  4

  5

  6

  7

 40
1.0
 41
0.1875
 42
0.0625
 43
0.38
 44
0.125
 45
0.0
 46
0.0
 47
0.01
 48
0.01
140
0.15625
141
0.09
142
0.0
143
25.3999999999999986
144
1.0
145
0.0
146
1.0
147
0.09
 71
     1
 72
     0
 73
     1
 74
     1
 75
     0
 76
     0
 77
     0
 78
     4
170
     0
171
     2
172
     0
173
     0
174
     0
175
     0
176
     0
177
     0
178
     0
  0
ENDTAB
  0
ENDSEC
  0
SECTION
  2
BLOCKS
  0
BLOCK
  8
0
  2
$MODEL_SPACE
 70
     0
 10
0.0
 20
0.0
 30
0.0
  3
$MODEL_SPACE
  1

  0
ENDBLK
  5
21
  8
0
  0
BLOCK
 67
     1
  8
0
  2
$PAPER_SPACE
 70
     0
 10
0.0
 20
0.0
 30
0.0
  3
$PAPER_SPACE
  1

  0
ENDBLK
  5
1D
 67
     1
  8
0
  0
ENDSEC
  0
SECTION
  2
ENTITIES
  0
ATTDEF
  5
9852
  8
DEFPOINTS
 10
4372.125812866133856
 20
103.4002817461237953
 30
0.0
 40
0.001
  1
P25003-CR
  3

  2
MODELNUMBER
 70
     0
1001
ACDBATTR
1070
     0
1070
     1
  0
ATTDEF
  5
9853
  8
DEFPOINTS
 10
4372.125812866133856
 20
103.3986150794572012
 30
0.0
 40
0.001
  1
SCRIPT
  3

  2
TRADENAME
 70
     0
1001
ACDBATTR
1070
     0
1070
     1
  0
ATTDEF
  5
9854
  8
DEFPOINTS
 10
4372.125812866133856
 20
103.3969484127904934
 30
0.0
 40
0.001
  1
DECK-MOUNT BATH FAUCET TRIM
  3

  2
PRODUCT
 70
     0
1001
ACDBATTR
1070
     0
1070
     1
  0
LINE
  5
B213
  8
0
 10
4371.0062028858619669
 20
103.7726881208448049
 30
0.0
 11
4373.2527077016620751
 21
103.7726881208448049
 31
0.0
  0
ARC
  5
B214
  8
0
 10
4372.129362711882095
 20
106.4717957711718981
 30
0.0
 40
0.7457912371411832
 50
242.2920194860421077
 51
270.0070925587697275
  0
LINE
  5
B215
  8
0
 10
4371.772481401278128
 20
106.0402686126031
 30
0.0
 11
4371.7686985898626517
 21
105.8313903824447948
 31
0.0
  0
ARC
  5
B216
  8
0
 10
4371.828425268270621
 20
106.0392600579404956
 30
0.0
 40
0.0559529573530347
 50
115.6022998159678963
 51
178.9671849729708981
  0
ARC
  5
B217
  8
0
 10
4372.1307122385978801
 20
105.4163246668311018
 30
0.0
 40
0.7483582129025589
 50
90.096234218798287
 51
115.8643666006396984
  0
ARC
  5
B218
  8
0
 10
4368.1215495589876809
 20
110.2802032553336034
 30
0.0
 40
3.18991015169986
 50
89.7185689880537467
 51
124.9223882242181958
  0
ARC
  5
B219
  8
0
 10
4367.8247868667567673
 20
110.6234451704031017
 30
0.0
 40
2.7389901311742881
 50
123.9427300720321057
 51
158.2616675276375986
  0
LINE
  5
B21A
  8
0
 10
4364.4706346778621082
 20
111.6043336672448021
 30
0.0
 11
4365.2327473358245697
 21
111.6043337869215009
 31
0.0
  0
ARC
  5
B21B
  8
0
 10
4368.1322345846228927
 20
110.3745229257211946
 30
0.0
 40
3.928810392616807
 50
128.8238237809852933
 51
160.7470848856459043
  0
ARC
  5
B21C
  8
0
 10
4368.1041410111438381
 20
110.4264904895829034
 30
0.0
 40
3.8707257675059732
 50
89.5103773122663
 51
128.9821030420916941
  0
ARC
  5
B21D
  8
0
 10
4368.1479160620274342
 20
110.0491519799755054
 30
0.0
 40
4.2479364171546381
 50
20.3990351079087091
 51
90.1442945853714406
  0
ARC
  5
B21E
  8
0
 10
4364.4706346347966246
 20
111.6543335510665003
 30
0.0
 40
0.0499998838216645
 50
161.7355589860119949
 51
270.000049348366872
  0
ARC
  5
B21F
  8
0
 10
4365.233290127726832
 20
111.6544345358689014
 30
0.0
 40
0.0501036891664992
 50
269.3792813669891757
 51
340.7069259016809042
  0
ARC
  5
B220
  8
0
 10
4367.8926365219431318
 20
110.7910370298834977
 30
0.0
 40
2.8467418900609398
 50
141.2593743741921912
 51
162.338280156755502
  0
ARC
  5
B221
  8
0
 10
4368.1177733681288373
 20
110.5373965496523994
 30
0.0
 40
3.1815825187566089
 50
89.6498268015160278
 51
140.2337933515740929
  0
ARC
  5
B222
  8
0
 10
4368.1378582766710679
 20
110.0849879346686038
 30
0.0
 40
3.6339317701745042
 50
38.0507341714032705
 51
90.0100944384082453
  0
ARC
  5
B223
  8
0
 10
4367.5771705596480388
 20
109.8098715685550957
 30
0.0
 40
4.246982129325743
 50
2.0308175178232699
 51
36.3109405918932282
  0
LINE
  5
B224
  8
0
 10
4364.7175375417509713
 20
111.6544044467223955
 30
0.0
 11
4364.7175375505339616
 21
111.604333710555693
 31
0.0
  0
ARC
  5
B225
  8
0
 10
4368.5762686622301771
 20
110.0323777485363053
 30
0.0
 40
4.1857826591667457
 50
128.7580582370376021
 51
157.2004354097985868
  0
ARC
  5
B226
  8
0
 10
4368.0311841490320148
 20
110.6571215687796013
 30
0.0
 40
3.357540268355248
 50
88.1902510990120589
 51
128.1787899080038073
  0
ARC
  5
B227
  8
0
 10
4368.1066709399010506
 20
110.0417287456164956
 30
0.0
 40
3.9713758380551392
 50
41.3249096024972289
 51
89.5592869329735066
  0
ARC
  5
B228
  8
0
 10
4367.5772476851179817
 20
109.7454719759101067
 30
0.0
 40
4.5663567986469733
 50
4.5116011951429043
 51
39.7297937536423404
  0
LINE
  5
B229
  8
0
 10
4373.4986218605617978
 20
103.6011030654448035
 30
0.0
 11
4373.2703412592727545
 21
103.766958630644794
 31
0.0
  0
ARC
  5
B22A
  8
0
 10
4373.5027980468548776
 20
103.408137025715007
 30
0.0
 40
0.0705534807483932
 50
106.0783534780663047
 51
184.4294121587076063
  0
ARC
  5
B22B
  8
0
 10
4373.2527077016620751
 20
103.7426881208447043
 30
0.0
 40
0.0300000000000843
 50
53.9999998984804392
 51
89.9999999999478888
  0
LINE
  5
B22C
  8
0
 10
4373.1644552925617973
 20
103.7926881208448009
 30
0.0
 11
4373.1644552925617973
 21
103.7726881208448049
 31
0.0
  0
ARC
  5
B22D
  8
0
 10
4374.7188816907246292
 20
105.8538720083811029
 30
0.0
 40
2.5304305316061559
 50
228.2561117002180993
 51
233.902337718984711
  0
ARC
  5
B22E
  8
0
 10
4374.0234003682253388
 20
105.0227818643522966
 30
0.0
 40
1.447686976567093
 50
185.7806132240613977
 51
226.8936010771217013
  0
ARC
  5
B22F
  8
0
 10
4372.1296837741710988
 20
106.4711061590869008
 30
0.0
 40
0.7451016544533161
 50
269.9824105260382794
 51
297.7603274868562266
  0
ARC
  5
B230
  8
0
 10
4372.4686336165414104
 20
105.8317678706949039
 30
0.0
 40
0.0215822425469959
 50
292.0409735729414251
 51
358.9978063478984041
  0
LINE
  5
B231
  8
0
 10
4372.4864297092790366
 20
106.0402681697973009
 30
0.0
 11
4372.4902125575699756
 21
105.8313903824447948
 31
0.0
  0
ARC
  5
B232
  8
0
 10
4372.4314319468630856
 20
106.0395427589686932
 30
0.0
 40
0.0550025462286787
 50
0.7556774505353188
 51
64.3214084473598149
  0
ARC
  5
B233
  8
0
 10
4372.1292123732009713
 20
105.4234920678624974
 30
0.0
 40
0.741189796094074
 50
63.9021533910029333
 51
89.9812216476871356
  0
ARC
  5
B234
  8
0
 10
4373.4565639006195852
 20
103.5313585954329056
 30
0.0
 40
0.0814442330166768
 50
0.2846550527168153
 51
58.9087912667030622
  0
ARC
  5
B235
  8
0
 10
4373.4718615718629735
 20
103.5418656293300046
 30
0.0
 40
0.0669125794589985
 50
279.806443886709701
 51
351.3163237907559164
  0
LINE
  5
B236
  8
0
 10
4370.8264552949622157
 20
103.4026881208448998
 30
0.0
 11
4373.4324552925618264
 21
103.4026881208448998
 31
0.0
  0
LINE
  5
B237
  8
0
 10
4370.775652443448962
 20
103.4759307263449983
 30
0.0
 11
4373.4832581440759895
 21
103.4759307263449983
 31
0.0
  0
ARC
  5
B238
  8
0
 10
4373.2167617445893484
 20
103.7927095796458019
 30
0.0
 40
0.0200213275870596
 50
270.0548851933072001
 51
55.6986976163240328
  0
LINE
  5
B239
  8
0
 10
4371.0750574962703467
 20
103.7926881208448009
 30
0.0
 11
4373.1838530909726614
 21
103.7926881208448009
 31
0.0
  0
ARC
  5
B23A
  8
0
 10
4371.790436112448333
 20
105.8318037532309006
 30
0.0
 40
0.0217414526553654
 50
181.0894317409232883
 51
248.8614621897112045
  0
ARC
  5
B23B
  8
0
 10
4448.7607033633366882
 20
108.6485380341056981
 30
0.0
 40
76.270936553463585
 50
182.6641324907367903
 51
182.8344088803611101
  0
ARC
  5
B23C
  8
0
 10
4372.5121604654696057
 20
105.1005848330922987
 30
0.0
 40
0.0601073668475659
 50
2.6641324907384818
 51
73.6869637611883945
  0
LINE
  5
B23D
  8
0
 10
4372.5899317287421582
 20
105.4821973852448025
 30
0.0
 11
4373.258455291642349
 21
105.4821973852448025
 31
0.0
  0
LINE
  5
B23E
  8
0
 10
4372.5294552920740898
 20
105.428337628441497
 30
0.0
 11
4372.529455292561579
 21
105.2327231209446978
 31
0.0
  0
ARC
  5
B23F
  8
0
 10
4372.4894552925616154
 20
105.2327231208447955
 30
0.0
 40
0.0399999999999814
 50
313.5048707654348732
 51
0.0000001430816033
  0
ARC
  5
B240
  8
0
 10
4372.5896935106920864
 20
105.4215820016549969
 30
0.0
 40
0.0606158516860087
 50
89.7748291301371211
 51
173.6011009379596999
  0
LINE
  5
B241
  8
0
 10
4373.2984552925618118
 20
105.5221974112880048
 30
0.0
 11
4373.2984552925618118
 21
105.7260030334447976
 31
0.0
  0
LINE
  5
B242
  8
0
 10
4373.6062362616403334
 20
106.1096853238062039
 30
0.0
 11
4373.6125782746867117
 21
105.7463520819982961
 31
0.0
  0
LINE
  5
B243
  8
0
 10
4373.5499893565756793
 20
106.1646818241487011
 30
0.0
 11
4370.7089212308501374
 21
106.1646818241487011
 31
0.0
  0
ARC
  5
B244
  8
0
 10
4373.5502706956676775
 20
106.1087084400294032
 30
0.0
 40
0.0559740911618392
 50
1.000001216948998
 51
90.2879834235599361
  0
LINE
  5
B245
  8
0
 10
4373.5925813207895771
 20
105.7260030334447976
 30
0.0
 11
4372.9034246032997544
 21
105.7260030334447976
 31
0.0
  0
ARC
  5
B246
  8
0
 10
4373.5925813207895771
 20
105.7460030334447936
 30
0.0
 40
0.02
 50
270.0
 51
1.000001216949812
  0
ARC
  5
B247
  8
0
 10
4373.258455291642349
 20
105.5221973861642937
 30
0.0
 40
0.0400000009195276
 50
269.9999999999478746
 51
0.0000359869106077
  0
ARC
  5
B248
  8
0
 10
4373.2019014731667994
 20
105.3211851086880984
 30
0.0
 40
0.6950499918900812
 50
180.6888223631204937
 51
187.5152245130772997
  0
ARC
  5
B249
  8
0
 10
4372.8672676507067081
 20
105.2722985621356031
 30
0.0
 40
0.3569277183567103
 50
186.7607384087353921
 51
214.6950542310324863
  0
ARC
  5
B24A
  8
0
 10
4373.0717215432532612
 20
103.5358031422222069
 30
0.0
 40
2.1966564190853082
 50
94.3940248685785406
 51
96.5373201123803142
  0
ARC
  5
B24B
  8
0
 10
4372.837088879267867
 20
105.4105521431474983
 30
0.0
 40
0.308012665320327
 50
92.8765686874046423
 51
139.9995932113907031
  0
ARC
  5
B24C
  8
0
 10
4372.8785661886540765
 20
105.396375894912893
 30
0.0
 40
0.3492559830198901
 50
142.5927714713243972
 51
160.2835183564272086
  0
ARC
  5
B24D
  8
0
 10
4373.2652222270417042
 20
105.2593872652202975
 30
0.0
 40
0.7594605168987489
 50
160.3957135458568928
 51
174.5602968683488996
  0
ARC
  5
B24E
  8
0
 10
4373.1406654188785978
 20
105.251166889894094
 30
0.0
 40
0.6365579132211846
 50
172.760626043109113
 51
174.2658464647246888
  0
LINE
  5
B24F
  8
0
 10
4372.4973427589284256
 20
105.3057663507448041
 30
0.0
 11
4371.761567828594707
 21
105.3057663507448041
 31
0.0
  0
ARC
  5
B250
  8
0
 10
4372.4973427589284256
 20
105.3157663507446955
 30
0.0
 40
0.01
 50
269.9999999998436806
 51
354.2658464650584733
  0
ARC
  5
B251
  8
0
 10
4376.6092367457913497
 20
105.0387904786885969
 30
0.0
 40
4.1118443472591357
 50
176.4250051842531946
 51
182.2554186827273952
  0
ARC
  5
B252
  8
0
 10
4372.4954108486108453
 20
105.295766350744799
 30
0.0
 40
0.01
 50
356.6634120687202198
 51
90.0
  0
ARC
  5
B253
  8
0
 10
4373.4586714107854277
 20
104.8487698790925009
 30
0.0
 40
0.9585086180266806
 50
178.3139681085891937
 51
216.1561807781027085
  0
ARC
  5
B254
  8
0
 10
4374.1713428914799806
 20
105.4405793896951025
 30
0.0
 40
1.883962260017398
 50
217.9010901575356058
 51
238.7779732615437922
  0
ARC
  5
B255
  8
0
 10
4373.1837942726369874
 20
103.8126559868403973
 30
0.0
 40
0.0200937850455792
 50
348.8574706053427121
 51
56.8571473847373099
  0
ARC
  5
B256
  8
0
 10
4373.1838850103076766
 20
103.8127018051820016
 30
0.0
 40
0.0200137097903792
 50
269.9086204408056915
 51
348.6785730704644948
  0
LINE
  5
B257
  8
0
 10
4373.5344115925781807
 20
105.8313903824447948
 30
0.0
 11
4372.4902125575699756
 21
105.8313903824447948
 31
0.0
  0
LINE
  5
B258
  8
0
 10
4373.5377880057540096
 20
106.0899968258448069
 30
0.0
 11
4372.6709989914479593
 21
106.0899968258448069
 31
0.0
  0
LINE
  5
B259
  8
0
 10
4373.5944184566324111
 20
106.0402324180903975
 30
0.0
 11
4373.6062362616830796
 21
106.1096853238069997
 31
0.0
  0
ARC
  5
B25A
  8
0
 10
4373.5381176130586027
 20
106.0332678012266001
 30
0.0
 40
0.0567299821530241
 50
7.0518690416228393
 51
90.332896478203736
  0
ARC
  5
B25B
  8
0
 10
4373.5370191857291502
 20
105.7121066626430945
 30
0.0
 40
0.1193122179483963
 50
59.2548313442809516
 51
91.2523107957046165
  0
LINE
  5
B25C
  8
0
 10
4373.5980140513620427
 20
105.8146494913447953
 30
0.0
 11
4373.6125782746867117
 21
105.7463520819982961
 31
0.0
  0
LINE
  5
B25D
  8
0
 10
4373.5944184566324111
 20
106.0402324180903975
 30
0.0
 11
4373.5980140513620427
 21
105.8146494913447953
 31
0.0
  0
ARC
  5
B25E
  8
0
 10
4372.6575897008451648
 20
105.7028307335620951
 30
0.0
 40
0.3873982344925267
 50
88.0163842030920307
 51
101.6040198431161059
  0
ARC
  5
B25F
  8
0
 10
4372.4796590071000537
 20
106.5882815992253967
 30
0.0
 40
0.5157592707442661
 50
269.5310262489924753
 51
281.1805981016794931
  0
LINE
  5
B260
  8
0
 10
4370.7602887269622443
 20
103.6011030654448035
 30
0.0
 11
4370.988569328248559
 21
103.766958630644794
 31
0.0
  0
ARC
  5
B261
  8
0
 10
4370.7561125406700739
 20
103.408137025715007
 30
0.0
 40
0.0705534807483932
 50
355.5705878412924221
 51
73.9216465219337096
  0
ARC
  5
B262
  8
0
 10
4371.0062028858619669
 20
103.7426881208447043
 30
0.0
 40
0.0300000000000843
 50
90.0000000000521254
 51
126.0000001015195039
  0
LINE
  5
B263
  8
0
 10
4371.0944552949613353
 20
103.7926881208448009
 30
0.0
 11
4371.0944552949613353
 21
103.7726881208448049
 31
0.0
  0
ARC
  5
B264
  8
0
 10
4370.2971508518321571
 20
104.569432148258997
 30
0.0
 40
1.0527134426502549
 50
313.637770963728201
 51
332.8238118662537204
  0
ARC
  5
B265
  8
0
 10
4370.8023466869026379
 20
103.5313585954329056
 30
0.0
 40
0.0814442330166768
 50
121.0912087332968952
 51
179.7153449472831994
  0
ARC
  5
B266
  8
0
 10
4370.787049015661978
 20
103.5418656293300046
 30
0.0
 40
0.0669125794589985
 50
188.6836762092439983
 51
260.193556113290299
  0
ARC
  5
B267
  8
0
 10
4371.036991107468566
 20
103.7926888532377063
 30
0.0
 40
0.0199991309144308
 50
131.938577439499511
 51
269.9761738609390136
  0
LINE
  5
B268
  8
0
 10
4370.6526743258837087
 20
106.1096853238062039
 30
0.0
 11
4370.6463323128382399
 21
105.7463520819982961
 31
0.0
  0
ARC
  5
B269
  8
0
 10
4370.7086398918581835
 20
106.1087084400294032
 30
0.0
 40
0.0559740911618392
 50
89.7120165764400639
 51
178.9999987830510122
  0
LINE
  5
B26A
  8
0
 10
4370.6663292667326459
 20
105.7260030334447976
 30
0.0
 11
4371.3554859842233782
 21
105.7260030334447976
 31
0.0
  0
ARC
  5
B26B
  8
0
 10
4370.6663292667326459
 20
105.7460030334447936
 30
0.0
 40
0.02
 50
178.999998783050188
 51
270.0
  0
ARC
  5
B26C
  8
0
 10
4371.1871890442725999
 20
103.5358031422222069
 30
0.0
 40
2.1966564190853082
 50
83.4626798876196858
 51
85.6059751314214736
  0
ARC
  5
B26D
  8
0
 10
4371.4218217082552655
 20
105.4105521431474983
 30
0.0
 40
0.308012665320327
 50
40.0004067886093324
 51
87.1234313125953435
  0
ARC
  5
B26E
  8
0
 10
4371.380344398870875
 20
105.396375894912893
 30
0.0
 40
0.3492559830198901
 50
19.7164816435735801
 51
37.4072285286755815
  0
ARC
  5
B26F
  8
0
 10
4370.9936883604814284
 20
105.2593872652202975
 30
0.0
 40
0.7594605168987489
 50
5.4397031316510329
 51
19.6042864541431001
  0
ARC
  5
B270
  8
0
 10
4371.1182451686436252
 20
105.251166889894094
 30
0.0
 40
0.6365579132211846
 50
5.734153535275305
 51
7.2393739568909066
  0
ARC
  5
B271
  8
0
 10
4371.761567828594707
 20
105.3157663507446955
 30
0.0
 40
0.01
 50
185.7341535349414983
 51
270.0000000001563194
  0
ARC
  5
B272
  8
0
 10
4367.6496738417354209
 20
105.0387904786885969
 30
0.0
 40
4.1118443472591357
 50
357.7445813172726048
 51
3.5749948157467371
  0
ARC
  5
B273
  8
0
 10
4371.7634997389131968
 20
105.295766350744799
 30
0.0
 40
0.01
 50
90.0
 51
183.3365879312798086
  0
ARC
  5
B274
  8
0
 10
4370.8002391767404333
 20
104.8487698790925009
 30
0.0
 40
0.9585086180266806
 50
323.8438192218973199
 51
1.686031891410769
  0
ARC
  5
B275
  8
0
 10
4370.0875676960449709
 20
105.4405793896951025
 30
0.0
 40
1.883962260017398
 50
301.2220267384562931
 51
322.0989098424644226
  0
ARC
  5
B276
  8
0
 10
4371.0751163148888736
 20
103.8126559868403973
 30
0.0
 40
0.0200937850455792
 50
123.1428526152621998
 51
191.1425293946572879
  0
ARC
  5
B277
  8
0
 10
4371.0750255772163655
 20
103.8127018051820016
 30
0.0
 40
0.0200137097903792
 50
191.3214269295355052
 51
270.0913795591943085
  0
LINE
  5
B278
  8
0
 10
4370.7244989949458613
 20
105.8313903824447948
 30
0.0
 11
4371.7686985898626517
 21
105.8313903824447948
 31
0.0
  0
LINE
  5
B279
  8
0
 10
4370.7211225817709419
 20
106.0899968258448069
 30
0.0
 11
4371.5879115960751733
 21
106.0899968258448069
 31
0.0
  0
LINE
  5
B27A
  8
0
 10
4370.6644921308934499
 20
106.0402324180903975
 30
0.0
 11
4370.6526743258409624
 21
106.1096853238069997
 31
0.0
  0
ARC
  5
B27B
  8
0
 10
4370.7207929744663488
 20
106.0332678012266001
 30
0.0
 40
0.0567299821530241
 50
89.6671035217962356
 51
172.9481309583771065
  0
ARC
  5
B27C
  8
0
 10
4370.7218914017948919
 20
105.7121066626430945
 30
0.0
 40
0.1193122179483963
 50
88.7476892042953835
 51
120.7451686557189987
  0
LINE
  5
B27D
  8
0
 10
4370.6608965361610899
 20
105.8146494913447953
 30
0.0
 11
4370.6463323128382399
 21
105.7463520819982961
 31
0.0
  0
LINE
  5
B27E
  8
0
 10
4370.6644921308934499
 20
106.0402324180903975
 30
0.0
 11
4370.6608965361610899
 21
105.8146494913447953
 31
0.0
  0
ARC
  5
B27F
  8
0
 10
4371.6013208866788773
 20
105.7028307335620951
 30
0.0
 40
0.3873982344925267
 50
78.3959801568839083
 51
91.9836157969079835
  0
ARC
  5
B280
  8
0
 10
4371.7792515804248978
 20
106.5882815992253967
 30
0.0
 40
0.5157592707442661
 50
258.8194018983203932
 51
270.4658579026428811
  0
ARC
  5
B281
  8
0
 10
4369.5779360803671807
 20
104.8632222204778941
 30
0.0
 40
1.827946634657065
 50
334.9283746431131021
 51
0.4309536532669801
  0
ARC
  5
B282
  8
0
 10
4312.783471013871349
 20
108.439019745978996
 30
0.0
 40
58.7304800070467721
 50
356.5228330123040905
 51
357.3437132849384739
  0
LINE
  5
B283
  8
0
 10
4365.1800775257634086
 20
111.6547285725447978
 30
0.0
 11
4365.180077533675103
 21
111.6043337786505987
 31
0.0
  0
ARC
  5
B284
  8
0
 10
4368.1300788253120118
 20
110.1189216267581941
 30
0.0
 40
3.351160903814848
 50
36.7971613742941202
 51
89.8779392006024267
  0
ARC
  5
B285
  8
0
 10
4367.8094240541713589
 20
109.8790659862335986
 30
0.0
 40
3.7515984277136698
 50
359.9813745584181106
 51
36.7971613742941202
  0
ARC
  5
B286
  8
0
 10
6296.2398386758795823
 20
109.2521809066993939
 30
0.0
 40
1924.6789180864159334
 50
179.9813745584179969
 51
180.0190513846951035
  0
ARC
  5
B287
  8
0
 10
4694.5873872907441182
 20
95.3593667794112747
 30
0.0
 40
323.2981089135453203
 50
177.6506369190416024
 51
178.0846956757798978
  0
ARC
  5
B288
  8
0
 10
4352.5269381569132747
 20
108.8968135973263003
 30
0.0
 40
19.3238376714978095
 50
359.1561044676994925
 51
3.155078043620652
  0
ARC
  5
B289
  8
0
 10
4280.3926514812010282
 20
109.9593387093321013
 30
0.0
 40
91.4659493250075428
 50
357.6222819162567816
 51
359.1561044676994925
  0
ARC
  5
B28A
  8
0
 10
4363.8025870646279145
 20
108.9720155166326947
 30
0.0
 40
8.7108541323523205
 50
357.6326856556930807
 51
17.0754952244319789
  0
ARC
  5
B28B
  8
0
 10
-30139.0722417635588499
 20
-341.1113090953750202
 30
0.0
 40
34514.5083183930328232
 50
0.7428844971258323
 51
0.7465842599859974
  0
ARC
  5
B28C
  8
0
 10
4372.0306635474280483
 20
106.3496908588151939
 30
0.0
 40
0.5054562001031498
 50
357.7106101305606103
 51
3.8567831014177072
  0
ARC
  5
B28D
  8
0
 10
4372.4702414394769221
 20
106.3321171193716026
 30
0.0
 40
0.0655271609430198
 50
297.6463824787028898
 51
357.7106101305631114
  0
ARC
  5
B28E
  8
0
 10
4372.892194968108015
 20
106.1641110193990016
 30
0.0
 40
0.4066953958169616
 50
164.3134139169264074
 51
179.9199058160237996
  0
ARC
  5
B28F
  8
0
 10
4358.2827341711554254
 20
108.7047015290330023
 30
0.0
 40
13.9173124627433307
 50
359.6192124467139024
 51
5.7732371097893784
  0
ARC
  5
B290
  8
0
 10
-22668.8143562254808785
 20
-94.4449644202314005
 30
0.0
 40
27041.7764861762298096
 50
0.4250531209001293
 51
0.4302390529308561
  0
ENDSEC
  0
EOF
