  0
SECTION
  2
HEADER
  9
$ACADVER
  1
AC1009
  9
$INSBASE
 10
4342.3987470978299825
 20
110.9498708943401937
 30
0.0
  9
$EXTMIN
 10
4340.9901952878299198
 20
103.3837788325371037
 30
0.0
  9
$EXTMAX
 10
4343.8072989597303604
 20
110.9548711835830943
 30
0.0
  9
$LIMMIN
 10
0.0
 20
0.0
  9
$LIMMAX
 10
11.6929133858000007
 20
8.2677165353999982
  9
$ORTHOMODE
 70
     0
  9
$REGENMODE
 70
     1
  9
$FILLMODE
 70
     1
  9
$QTEXTMODE
 70
     0
  9
$MIRRTEXT
 70
     0
  9
$DRAGMODE
 70
     2
  9
$LTSCALE
 40
0.6431102362
  9
$OSMODE
 70
  4095
  9
$ATTMODE
 70
     1
  9
$TEXTSIZE
 40
0.2
  9
$TRACEWID
 40
0.05
  9
$TEXTSTYLE
  7
STANDARD
  9
$CLAYER
  8
0
  9
$CELTYPE
  6
BYLAYER
  9
$CECOLOR
 62
   256
  9
$DIMSCALE
 40
1.0
  9
$DIMASZ
 40
0.1875
  9
$DIMEXO
 40
0.0625
  9
$DIMDLI
 40
0.4443307087
  9
$DIMRND
 40
0.0
  9
$DIMDLE
 40
0.0
  9
$DIMEXE
 40
0.125
  9
$DIMTP
 40
0.01
  9
$DIMTM
 40
0.01
  9
$DIMTXT
 40
2.0
  9
$DIMCEN
 40
0.1052362205
  9
$DIMTSZ
 40
0.0
  9
$DIMTOL
 70
     1
  9
$DIMLIM
 70
     0
  9
$DIMTIH
 70
     1
  9
$DIMTOH
 70
     1
  9
$DIMSE1
 70
     0
  9
$DIMSE2
 70
     0
  9
$DIMTAD
 70
     0
  9
$DIMZIN
 70
     0
  9
$DIMBLK
  1

  9
$DIMASO
 70
     1
  9
$DIMSHO
 70
     1
  9
$DIMPOST
  1
\X
  9
$DIMAPOST
  1

  9
$DIMALT
 70
     1
  9
$DIMALTD
 70
     2
  9
$DIMALTF
 40
25.3999999999999986
  9
$DIMLFAC
 40
1.0
  9
$DIMTOFL
 70
     0
  9
$DIMTVP
 40
0.0
  9
$DIMTIX
 70
     0
  9
$DIMSOXD
 70
     0
  9
$DIMSAH
 70
     0
  9
$DIMBLK1
  1

  9
$DIMBLK2
  1

  9
$DIMSTYLE
  2
STANDARD
  9
$DIMCLRD
 70
     0
  9
$DIMCLRE
 70
     0
  9
$DIMCLRT
 70
     0
  9
$DIMTFAC
 40
1.0
  9
$DIMGAP
 40
0.09
  9
$LUNITS
 70
     2
  9
$LUPREC
 70
     4
  9
$SKETCHINC
 40
0.1
  9
$FILLETRAD
 40
0.0
  9
$AUNITS
 70
     0
  9
$AUPREC
 70
     0
  9
$MENU
  1
.
  9
$ELEVATION
 40
0.0
  9
$PELEVATION
 40
0.0
  9
$THICKNESS
 40
0.0
  9
$LIMCHECK
 70
     0
  9
$BLIPMODE
 70
     0
  9
$CHAMFERA
 40
0.0
  9
$CHAMFERB
 40
0.0
  9
$SKPOLY
 70
     0
  9
$TDCREATE
 40
2458060.468368056230247
  9
$TDUPDATE
 40
2459506.5708796298131347
  9
$TDINDWG
 40
0.3732825231
  9
$TDUSRTIMER
 40
0.3732825231
  9
$USRTIMER
 70
     1
  9
$ANGBASE
 50
0.0
  9
$ANGDIR
 70
     0
  9
$PDMODE
 70
     0
  9
$PDSIZE
 40
0.3125
  9
$PLINEWID
 40
0.0
  9
$COORDS
 70
     1
  9
$SPLFRAME
 70
     0
  9
$SPLINETYPE
 70
     6
  9
$SPLINESEGS
 70
     8
  9
$ATTDIA
 70
     1
  9
$ATTREQ
 70
     1
  9
$HANDLING
 70
     1
  9
$HANDSEED
  5
AF70
  9
$SURFTAB1
 70
     6
  9
$SURFTAB2
 70
     6
  9
$SURFTYPE
 70
     6
  9
$SURFU
 70
     6
  9
$SURFV
 70
     6
  9
$UCSNAME
  2

  9
$UCSORG
 10
0.0
 20
0.0
 30
0.0
  9
$UCSXDIR
 10
1.0
 20
0.0
 30
0.0
  9
$UCSYDIR
 10
0.0
 20
1.0
 30
0.0
  9
$PUCSNAME
  2

  9
$PUCSORG
 10
0.0
 20
0.0
 30
0.0
  9
$PUCSXDIR
 10
1.0
 20
0.0
 30
0.0
  9
$PUCSYDIR
 10
0.0
 20
1.0
 30
0.0
  9
$USERI1
 70
     0
  9
$USERI2
 70
     0
  9
$USERI3
 70
     0
  9
$USERI4
 70
     0
  9
$USERI5
 70
     0
  9
$USERR1
 40
0.0
  9
$USERR2
 40
0.0
  9
$USERR3
 40
0.0
  9
$USERR4
 40
0.0
  9
$USERR5
 40
0.0
  9
$WORLDVIEW
 70
     1
  9
$SHADEDGE
 70
     3
  9
$SHADEDIF
 70
    70
  9
$TILEMODE
 70
     1
  9
$MAXACTVP
 70
    64
  9
$PLIMCHECK
 70
     0
  9
$PEXTMIN
 10
1.0000000000000000E+20
 20
1.0000000000000000E+20
 30
1.0000000000000000E+20
  9
$PEXTMAX
 10
-1.0000000000000000E+20
 20
-1.0000000000000000E+20
 30
-1.0000000000000000E+20
  9
$PLIMMIN
 10
0.0
 20
0.0
  9
$PLIMMAX
 10
12.0
 20
9.0
  9
$UNITMODE
 70
     0
  9
$VISRETAIN
 70
     1
  9
$PLINEGEN
 70
     0
  9
$PSLTSCALE
 70
     1
  0
ENDSEC
  0
SECTION
  2
TABLES
  0
TABLE
  2
VPORT
 70
     1
  0
VPORT
  2
*ACTIVE
 70
     0
 10
0.0
 20
0.0
 11
1.0
 21
1.0
 12
77.3923994675305948
 22
2.8653127094761421
 13
0.0
 23
0.0
 14
1.0
 24
1.0
 15
0.0
 25
0.0
 16
0.0
 26
0.0
 36
122.0237731519760018
 17
4265.00634765625
 27
104.3040122985839986
 37
0.0
 40
7.6311010090462972
 41
1.67063492063492
 42
50.0
 43
0.0
 44
0.0
 50
0.0
 51
0.0
 71
     0
 72
   100
 73
     1
 74
     1
 75
     0
 76
     0
 77
     0
 78
     0
  0
ENDTAB
  0
TABLE
  2
LTYPE
 70
     2
  0
LTYPE
  2
CONTINUOUS
 70
     0
  3
Solid line
 72
    65
 73
     0
 40
0.0
  0
LTYPE
  2
PHANTOM2
 70
     0
  3
___ _ _ ___ _ _ ___ _ _ ___ _ _
 72
    65
 73
     6
 40
1.25
 49
0.625
 49
-0.125
 49
0.125
 49
-0.125
 49
0.125
 49
-0.125
  0
ENDTAB
  0
TABLE
  2
LAYER
 70
     2
  0
LAYER
  2
0
 70
     0
 62
   255
  6
CONTINUOUS
  0
LAYER
  2
DEFPOINTS
 70
     0
 62
     7
  6
CONTINUOUS
  0
ENDTAB
  0
TABLE
  2
STYLE
 70
     1
  0
STYLE
  2
STANDARD
 70
     0
 40
0.0
 41
0.8
 50
0.0
 71
     0
 42
0.2
  3
txt
  4

  0
ENDTAB
  0
TABLE
  2
VIEW
 70
     0
  0
ENDTAB
  0
TABLE
  2
UCS
 70
     0
  0
ENDTAB
  0
TABLE
  2
APPID
 70
    10
  0
APPID
  2
ACAD
 70
     0
  0
APPID
  2
ACAD_MLEADERVER
 70
     0
  0
APPID
  2
ACAD_EXEMPT_FROM_CAD_STANDARDS
 70
     0
  0
APPID
  2
ACAD_NAV_VCDISPLAY
 70
     0
  0
APPID
  2
ACAECLAYERSTANDARD
 70
     0
  0
APPID
  2
ACCMTRANSPARENCY
 70
     0
  0
APPID
  2
ACAD_DSTYLE_DIMJAG
 70
     0
  0
APPID
  2
ACAD_DSTYLE_DIMTALN
 70
     0
  0
APPID
  2
ACDBATTR
 70
     0
  0
APPID
  2
DCO15
 70
     0
  0
ENDTAB
  0
TABLE
  2
DIMSTYLE
 70
     1
  0
DIMSTYLE
  2
STANDARD
 70
     0
  3

  4

  5

  6

  7

 40
1.0
 41
0.1875
 42
0.0625
 43
0.38
 44
0.125
 45
0.0
 46
0.0
 47
0.01
 48
0.01
140
0.15625
141
0.09
142
0.0
143
25.3999999999999986
144
1.0
145
0.0
146
1.0
147
0.09
 71
     1
 72
     0
 73
     1
 74
     1
 75
     0
 76
     0
 77
     0
 78
     4
170
     0
171
     2
172
     0
173
     0
174
     0
175
     0
176
     0
177
     0
178
     0
  0
ENDTAB
  0
ENDSEC
  0
SECTION
  2
BLOCKS
  0
BLOCK
  8
0
  2
$MODEL_SPACE
 70
     0
 10
0.0
 20
0.0
 30
0.0
  3
$MODEL_SPACE
  1

  0
ENDBLK
  5
21
  8
0
  0
BLOCK
 67
     1
  8
0
  2
$PAPER_SPACE
 70
     0
 10
0.0
 20
0.0
 30
0.0
  3
$PAPER_SPACE
  1

  0
ENDBLK
  5
1D
 67
     1
  8
0
  0
ENDSEC
  0
SECTION
  2
ENTITIES
  0
ATTDEF
  5
9852
  8
DEFPOINTS
 10
4342.3947929119985929
 20
110.9538711835830043
 30
0.0
 40
0.001
  1
P25014-00
  3

  2
MODELNUMBER
 70
     0
1001
ACDBATTR
1070
     0
1070
     1
  0
ATTDEF
  5
9853
  8
DEFPOINTS
 10
4342.3947929119985929
 20
110.952204516916396
 30
0.0
 40
0.001
  1
SCRIPT
  3

  2
TRADENAME
 70
     0
1001
ACDBATTR
1070
     0
1070
     1
  0
ATTDEF
  5
9854
  8
DEFPOINTS
 10
4342.3947929119985929
 20
110.9505378502497024
 30
0.0
 40
0.001
  1
BATH SPOUT
  3

  2
PRODUCT
 70
     0
1001
ACDBATTR
1070
     0
1070
     1
  0
LINE
  5
AE81
  8
0
 10
4341.5040992176691361
 20
104.0722547887252034
 30
0.0
 11
4341.5040992176691361
 21
103.671223695934799
 31
0.0
  0
LINE
  5
AE82
  8
0
 10
4343.7017470718801633
 20
110.9498708943401937
 30
0.0
 11
4341.0957471237798018
 21
110.9498708943401937
 31
0.0
  0
LINE
  5
AE83
  8
0
 10
4341.2754949133641276
 20
110.5798707499974967
 30
0.0
 11
4343.521999282296747
 21
110.5798707499974967
 31
0.0
  0
ARC
  5
AE84
  8
0
 10
4341.3074982897496739
 20
110.5598707499975006
 30
0.0
 40
0.019999999999996
 50
90.0
 51
180.0000000000098055
  0
LINE
  5
AE85
  8
0
 10
4341.2578613557961944
 20
110.5856002401643963
 30
0.0
 11
4341.0295761894758471
 21
110.7514591219729994
 31
0.0
  0
ARC
  5
AE86
  8
0
 10
4341.2754949133641276
 20
110.6098707499974978
 30
0.0
 40
0.03
 50
234.0000000058527121
 51
270.0
  0
ARC
  5
AE87
  8
0
 10
4341.0721731737521623
 20
110.8215046297556938
 30
0.0
 40
0.0819809504085711
 50
180.4954061812084944
 51
238.6948356415207968
  0
ARC
  5
AE88
  8
0
 10
4341.0516654893726809
 20
110.8152780088171028
 30
0.0
 40
0.0617173526514058
 50
96.2520936395317506
 51
174.8706739825157968
  0
ARC
  5
AE89
  8
0
 10
4341.0257471237791833
 20
110.9439444792402014
 30
0.0
 40
0.0700000000000005
 50
285.9170248666579823
 51
0.0
  0
LINE
  5
AE8A
  8
0
 10
4341.0957471237798018
 20
110.9439444792402014
 30
0.0
 11
4341.0957471237798018
 21
110.9498708943401937
 31
0.0
  0
ARC
  5
AE8B
  8
0
 10
4341.3106075260084253
 20
110.5601909026317031
 30
0.0
 40
0.0231114538305011
 50
180.7937181964296087
 51
224.392890726156395
  0
ARC
  5
AE8C
  8
0
 10
4342.3987485451234534
 20
105.1851544692514011
 30
0.0
 40
1.8013756367148519
 50
268.9689098009062036
 51
269.9999539664156032
  0
ARC
  5
AE8D
  8
0
 10
4342.3987317349756268
 20
105.1842204612495948
 30
0.0
 40
1.8004414774519479
 50
255.9312243133383049
 51
268.9689098008540782
  0
ARC
  5
AE8E
  8
0
 10
4342.3965820749108389
 20
105.1756425235754051
 30
0.0
 40
1.791598284977773
 50
242.0359484283711993
 51
255.9312243133383049
  0
ARC
  5
AE8F
  8
0
 10
4341.6031888147608697
 20
103.6811777724379056
 30
0.0
 40
0.0995883120191245
 50
185.7364211994799916
 51
242.0230410824227079
  0
ARC
  5
AE90
  8
0
 10
4340.8798181831116381
 20
109.9907904275265054
 30
0.0
 40
0.6911509254952576
 50
13.3403690298074498
 51
53.1731688353608405
  0
ARC
  5
AE91
  8
0
 10
4338.685079013755967
 20
109.4402395328262969
 30
0.0
 40
2.9538452381029869
 50
0.6274651635009735
 51
13.9085403257615798
  0
ARC
  5
AE92
  8
0
 10
4218.0659163563914262
 20
109.7627454704660011
 30
0.0
 40
123.5731714230811065
 50
357.7039079038917748
 51
359.8654655679553116
  0
ARC
  5
AE93
  8
0
 10
4327.6312043925372564
 20
105.1139285954106981
 30
0.0
 40
13.9119479279024798
 50
355.7058908674292184
 51
358.7562333991705827
  0
LINE
  5
AE94
  8
0
 10
4343.2933949779908289
 20
104.0722547887252034
 30
0.0
 11
4343.2933949779908289
 21
103.671223695934799
 31
0.0
  0
ARC
  5
AE95
  8
0
 10
4343.4899959059102912
 20
110.5598707499975006
 30
0.0
 40
0.019999999999996
 50
359.9999999999894271
 51
90.0
  0
LINE
  5
AE96
  8
0
 10
4343.5396328398628611
 20
110.5856002401643963
 30
0.0
 11
4343.767918006184118
 21
110.7514591219729994
 31
0.0
  0
ARC
  5
AE97
  8
0
 10
4343.521999282296747
 20
110.6098707499974978
 30
0.0
 40
0.03
 50
270.0
 51
305.9999999941471742
  0
ARC
  5
AE98
  8
0
 10
4343.7158143991400721
 20
110.8269041408600941
 30
0.0
 40
0.0916882584736597
 50
304.6296150399642215
 51
356.1800782838793111
  0
ARC
  5
AE99
  8
0
 10
4343.7458286532910279
 20
110.815277899708903
 30
0.0
 40
0.061717466882086
 50
5.1294181968428987
 51
83.747868484894326
  0
ARC
  5
AE9A
  8
0
 10
4343.7717470718807817
 20
110.9439444792402014
 30
0.0
 40
0.0700000000000005
 50
180.0
 51
254.082975133341904
  0
LINE
  5
AE9B
  8
0
 10
4343.7017470718801633
 20
110.9439444792402014
 30
0.0
 11
4343.7017470718801633
 21
110.9498708943401937
 31
0.0
  0
ARC
  5
AE9C
  8
0
 10
4343.4868866696524492
 20
110.5601909026317031
 30
0.0
 40
0.0231114538305011
 50
315.6071092738434913
 51
359.2062818035703913
  0
ARC
  5
AE9D
  8
0
 10
4342.3987456505374212
 20
105.1851544692508043
 30
0.0
 40
1.801375636714299
 50
270.0000460335845105
 51
271.0310901990937964
  0
ARC
  5
AE9E
  8
0
 10
4342.3987624606852478
 20
105.1842204612495948
 30
0.0
 40
1.8004414774519479
 50
271.0310901991459218
 51
284.0687756866615814
  0
ARC
  5
AE9F
  8
0
 10
4342.4009121207482167
 20
105.1756425235754051
 30
0.0
 40
1.791598284977773
 50
284.0687756866615814
 51
297.9640515716287155
  0
ARC
  5
AEA0
  8
0
 10
4343.1943053809000048
 20
103.6811777724379056
 30
0.0
 40
0.0995883120191245
 50
297.9769589175772921
 51
354.2635788005198947
  0
ARC
  5
AEA1
  8
0
 10
4343.917676012548327
 20
109.9907904275265054
 30
0.0
 40
0.6911509254952576
 50
126.8268311646391027
 51
166.6596309701924952
  0
ARC
  5
AEA2
  8
0
 10
4346.1124151819049075
 20
109.4402395328262969
 30
0.0
 40
2.9538452381029869
 50
166.0914596742383935
 51
179.3725348364989998
  0
ARC
  5
AEA3
  8
0
 10
4466.7315778392676293
 20
109.7627454704660011
 30
0.0
 40
123.5731714230811065
 50
180.1345344320446884
 51
182.2960920961081115
  0
ARC
  5
AEA4
  8
0
 10
4357.1662898031227087
 20
105.1139285954106981
 30
0.0
 40
13.9119479279024798
 50
181.2437666008293888
 51
184.2941091325706964
  0
LINE
  5
AEA6
  8
0
 10
4341.044944272270186
 20
110.8766282888409052
 30
0.0
 11
4343.752549923389779
 21
110.8766282888409052
 31
0.0
  0
LINE
  5
AEA7
  8
0
 10
4341.0295761894758471
 20
110.7514591219729994
 30
0.0
 11
4343.767918006184118
 21
110.7514591219729994
 31
0.0
  0
ENDSEC
  0
EOF
