  0
SECTION
  2
HEADER
  9
$ACADVER
  1
AC1009
  9
$INSBASE
 10
6675.2792566675070702
 20
297.0715024551761871
 30
0.0
  9
$EXTMIN
 10
6674.1291219925060432
 20
293.0471154441228805
 30
0.0
  9
$EXTMAX
 10
6676.4293913425062783
 20
298.221637130176191
 30
0.0
  9
$LIMMIN
 10
0.0
 20
0.0
  9
$LIMMAX
 10
11.6929133858000007
 20
8.2677165353999982
  9
$ORTHOMODE
 70
     0
  9
$REGENMODE
 70
     1
  9
$FILLMODE
 70
     1
  9
$QTEXTMODE
 70
     0
  9
$MIRRTEXT
 70
     0
  9
$DRAGMODE
 70
     2
  9
$LTSCALE
 40
0.6431102362
  9
$OSMODE
 70
  4095
  9
$ATTMODE
 70
     1
  9
$TEXTSIZE
 40
0.2
  9
$TRACEWID
 40
0.05
  9
$TEXTSTYLE
  7
STANDARD
  9
$CLAYER
  8
0
  9
$CELTYPE
  6
BYLAYER
  9
$CECOLOR
 62
   256
  9
$DIMSCALE
 40
1.0
  9
$DIMASZ
 40
0.1875
  9
$DIMEXO
 40
0.0625
  9
$DIMDLI
 40
0.4443307087
  9
$DIMRND
 40
0.0
  9
$DIMDLE
 40
0.0
  9
$DIMEXE
 40
0.125
  9
$DIMTP
 40
0.01
  9
$DIMTM
 40
0.01
  9
$DIMTXT
 40
2.0
  9
$DIMCEN
 40
0.1052362205
  9
$DIMTSZ
 40
0.0
  9
$DIMTOL
 70
     1
  9
$DIMLIM
 70
     0
  9
$DIMTIH
 70
     1
  9
$DIMTOH
 70
     1
  9
$DIMSE1
 70
     0
  9
$DIMSE2
 70
     0
  9
$DIMTAD
 70
     0
  9
$DIMZIN
 70
     0
  9
$DIMBLK
  1

  9
$DIMASO
 70
     1
  9
$DIMSHO
 70
     1
  9
$DIMPOST
  1
\X
  9
$DIMAPOST
  1

  9
$DIMALT
 70
     1
  9
$DIMALTD
 70
     2
  9
$DIMALTF
 40
25.3999999999999986
  9
$DIMLFAC
 40
1.0
  9
$DIMTOFL
 70
     0
  9
$DIMTVP
 40
0.0
  9
$DIMTIX
 70
     0
  9
$DIMSOXD
 70
     0
  9
$DIMSAH
 70
     0
  9
$DIMBLK1
  1

  9
$DIMBLK2
  1

  9
$DIMSTYLE
  2
STANDARD
  9
$DIMCLRD
 70
     0
  9
$DIMCLRE
 70
     0
  9
$DIMCLRT
 70
     0
  9
$DIMTFAC
 40
1.0
  9
$DIMGAP
 40
0.09
  9
$LUNITS
 70
     2
  9
$LUPREC
 70
     4
  9
$SKETCHINC
 40
0.1
  9
$FILLETRAD
 40
0.0
  9
$AUNITS
 70
     0
  9
$AUPREC
 70
     0
  9
$MENU
  1
.
  9
$ELEVATION
 40
0.0
  9
$PELEVATION
 40
0.0
  9
$THICKNESS
 40
0.0
  9
$LIMCHECK
 70
     0
  9
$BLIPMODE
 70
     0
  9
$CHAMFERA
 40
0.0
  9
$CHAMFERB
 40
0.0
  9
$SKPOLY
 70
     0
  9
$TDCREATE
 40
2458060.468368056230247
  9
$TDUPDATE
 40
2460755.6643865741789341
  9
$TDINDWG
 40
0.8213149306
  9
$TDUSRTIMER
 40
0.8213149306
  9
$USRTIMER
 70
     1
  9
$ANGBASE
 50
0.0
  9
$ANGDIR
 70
     0
  9
$PDMODE
 70
     0
  9
$PDSIZE
 40
0.3125
  9
$PLINEWID
 40
0.0
  9
$COORDS
 70
     1
  9
$SPLFRAME
 70
     0
  9
$SPLINETYPE
 70
     6
  9
$SPLINESEGS
 70
     8
  9
$ATTDIA
 70
     1
  9
$ATTREQ
 70
     1
  9
$HANDLING
 70
     1
  9
$HANDSEED
  5
2F722
  9
$SURFTAB1
 70
     6
  9
$SURFTAB2
 70
     6
  9
$SURFTYPE
 70
     6
  9
$SURFU
 70
     6
  9
$SURFV
 70
     6
  9
$UCSNAME
  2

  9
$UCSORG
 10
0.0
 20
0.0
 30
0.0
  9
$UCSXDIR
 10
1.0
 20
0.0
 30
0.0
  9
$UCSYDIR
 10
0.0
 20
1.0
 30
0.0
  9
$PUCSNAME
  2

  9
$PUCSORG
 10
0.0
 20
0.0
 30
0.0
  9
$PUCSXDIR
 10
1.0
 20
0.0
 30
0.0
  9
$PUCSYDIR
 10
0.0
 20
1.0
 30
0.0
  9
$USERI1
 70
     0
  9
$USERI2
 70
     0
  9
$USERI3
 70
     0
  9
$USERI4
 70
     0
  9
$USERI5
 70
     0
  9
$USERR1
 40
0.0
  9
$USERR2
 40
0.0
  9
$USERR3
 40
0.0
  9
$USERR4
 40
0.0
  9
$USERR5
 40
0.0
  9
$WORLDVIEW
 70
     1
  9
$SHADEDGE
 70
     3
  9
$SHADEDIF
 70
    70
  9
$TILEMODE
 70
     1
  9
$MAXACTVP
 70
    64
  9
$PLIMCHECK
 70
     0
  9
$PEXTMIN
 10
1.0000000000000000E+20
 20
1.0000000000000000E+20
 30
1.0000000000000000E+20
  9
$PEXTMAX
 10
-1.0000000000000000E+20
 20
-1.0000000000000000E+20
 30
-1.0000000000000000E+20
  9
$PLIMMIN
 10
0.0
 20
0.0
  9
$PLIMMAX
 10
12.0
 20
9.0
  9
$UNITMODE
 70
     0
  9
$VISRETAIN
 70
     1
  9
$PLINEGEN
 70
     0
  9
$PSLTSCALE
 70
     1
  0
ENDSEC
  0
SECTION
  2
TABLES
  0
TABLE
  2
VPORT
 70
     1
  0
VPORT
  2
*ACTIVE
 70
     0
 10
0.0
 20
0.0
 11
1.0
 21
1.0
 12
2763.9139002221941155
 22
163.0547711846105017
 13
0.0
 23
0.0
 14
1.0
 24
1.0
 15
0.0
 25
0.0
 16
0.0
 26
0.0
 36
60.4960186965801583
 17
3911.3653564453120453
 27
132.5796051025390057
 37
0.0
 40
5.2103315247110791
 41
2.204387990762124
 42
50.0
 43
0.0
 44
0.0
 50
0.0
 51
0.0
 71
     0
 72
   100
 73
     1
 74
     1
 75
     0
 76
     0
 77
     0
 78
     0
  0
ENDTAB
  0
TABLE
  2
LTYPE
 70
     2
  0
LTYPE
  2
CONTINUOUS
 70
     0
  3
Solid line
 72
    65
 73
     0
 40
0.0
  0
LTYPE
  2
PHANTOM2
 70
     0
  3
___ _ _ ___ _ _ ___ _ _ ___ _ _
 72
    65
 73
     6
 40
1.25
 49
0.625
 49
-0.125
 49
0.125
 49
-0.125
 49
0.125
 49
-0.125
  0
ENDTAB
  0
TABLE
  2
LAYER
 70
     2
  0
LAYER
  2
0
 70
     0
 62
   255
  6
CONTINUOUS
  0
LAYER
  2
DEFPOINTS
 70
     0
 62
     7
  6
CONTINUOUS
  0
ENDTAB
  0
TABLE
  2
STYLE
 70
     1
  0
STYLE
  2
STANDARD
 70
     0
 40
0.0
 41
0.8
 50
0.0
 71
     0
 42
0.2
  3
txt
  4

  0
ENDTAB
  0
TABLE
  2
VIEW
 70
     0
  0
ENDTAB
  0
TABLE
  2
UCS
 70
     0
  0
ENDTAB
  0
TABLE
  2
APPID
 70
    11
  0
APPID
  2
ACAD
 70
     0
  0
APPID
  2
ACAD_MLEADERVER
 70
     0
  0
APPID
  2
ACAD_EXEMPT_FROM_CAD_STANDARDS
 70
     0
  0
APPID
  2
ACAD_NAV_VCDISPLAY
 70
     0
  0
APPID
  2
ACAECLAYERSTANDARD
 70
     0
  0
APPID
  2
ACCMTRANSPARENCY
 70
     0
  0
APPID
  2
ACAD_DSTYLE_DIMJAG
 70
     0
  0
APPID
  2
ACAD_DSTYLE_DIMTALN
 70
     0
  0
APPID
  2
ACDBATTR
 70
     0
  0
APPID
  2
ACADANNOTATIVE
 70
     0
  0
APPID
  2
DCO15
 70
     0
  0
ENDTAB
  0
TABLE
  2
DIMSTYLE
 70
     1
  0
DIMSTYLE
  2
STANDARD
 70
     0
  3

  4

  5

  6

  7

 40
1.0
 41
0.1875
 42
0.0625
 43
0.38
 44
0.125
 45
0.0
 46
0.0
 47
0.01
 48
0.01
140
0.15625
141
0.09
142
0.0
143
25.3999999999999986
144
1.0
145
0.0
146
1.0
147
0.09
 71
     1
 72
     0
 73
     1
 74
     1
 75
     0
 76
     0
 77
     0
 78
     4
170
     0
171
     2
172
     0
173
     0
174
     0
175
     0
176
     0
177
     0
178
     0
  0
ENDTAB
  0
ENDSEC
  0
SECTION
  2
BLOCKS
  0
BLOCK
  8
0
  2
$MODEL_SPACE
 70
     0
 10
0.0
 20
0.0
 30
0.0
  3
$MODEL_SPACE
  1

  0
ENDBLK
  5
21
  8
0
  0
BLOCK
 67
     1
  8
0
  2
$PAPER_SPACE
 70
     0
 10
0.0
 20
0.0
 30
0.0
  3
$PAPER_SPACE
  1

  0
ENDBLK
  5
1D
 67
     1
  8
0
  0
BLOCK
  8
0
  2
_FILLED
 70
     0
 10
0.0
 20
0.0
 30
0.0
  3
_FILLED
  1

  0
SOLID
  5
2EA64
  8
0
  6
BYBLOCK
 62
     0
 10
0.0
 20
0.0
 30
0.0
 11
-1.0
 21
0.1666666667
 31
0.0
 12
-1.0
 22
-0.1666666667
 32
0.0
 13
-1.0
 23
-0.1666666667
 33
0.0
  0
ENDBLK
  5
2EA65
  8
0
  6
BYBLOCK
 62
     0
  0
ENDSEC
  0
SECTION
  2
ENTITIES
  0
ATTDEF
  5
26A5B
  8
DEFPOINTS
 10
6675.2728833806177136
 20
297.0697058417325138
 30
0.0
 40
0.001
  1
P25015-00
  3

  2
MODELNUMBER
 70
     0
1001
ACDBATTR
1070
     0
1070
     1
  0
ATTDEF
  5
26A5C
  8
DEFPOINTS
 10
6675.272757570959584
 20
297.0680390013534975
 30
0.0
 40
0.001
  1
QUINCY
  3

  2
TRADENAME
 70
     0
1001
ACDBATTR
1070
     0
1070
     1
  0
ATTDEF
  5
26A5D
  8
DEFPOINTS
 10
6675.2728833806177136
 20
297.0663725083991835
 30
0.0
 40
0.001
  1
SOAP DISPENSER
  3

  2
PRODUCT
 70
     0
1001
ACDBATTR
1070
     0
1070
     1
  0
CIRCLE
  5
2F675
  8
0
 10
6675.2792566675070702
 20
297.0715024551761871
 30
0.0
 40
0.5312276361000002
  0
CIRCLE
  5
2F676
  8
0
 10
6675.2792566675070702
 20
297.0715024551761871
 30
0.0
 40
0.6251228733
  0
ARC
  5
2F677
  8
0
 10
6675.2792566675070702
 20
297.0715024551761871
 30
0.0
 40
0.6784548386392065
 50
285.5143245514975092
 51
254.4856754485024908
  0
ARC
  5
2F678
  8
0
 10
6675.2792566675070702
 20
297.0715024551761871
 30
0.0
 40
1.0100260185000001
 50
280.3506103839027901
 51
259.6493896160970962
  0
ARC
  5
2F679
  8
0
 10
6675.2792566675070702
 20
297.0715024551761871
 30
0.0
 40
1.0794136021477201
 50
279.6786160319934993
 51
260.3213839680066144
  0
ARC
  5
2F67A
  8
0
 10
6675.2792566675070702
 20
297.0715024551761871
 30
0.0
 40
1.150134674999999
 50
279.0782831838753282
 51
260.9217168161246718
  0
LINE
  5
2F67B
  8
0
 10
6675.0977840519963138
 20
293.0794208148373059
 30
0.0
 11
6675.0977840519963138
 21
296.4732999003982741
 31
0.0
  0
ARC
  5
2F67C
  8
0
 10
6675.2782258433026072
 20
294.7653556049514236
 30
0.0
 40
1.7182401608285141
 50
267.4146734055958063
 51
270.0343734718400128
  0
ARC
  5
2F67D
  8
0
 10
6675.2401505197067308
 20
293.9221064100980243
 30
0.0
 40
0.8741317940367704
 50
263.8841153759989879
 51
267.4146734055958063
  0
ARC
  5
2F67E
  8
0
 10
6675.1700374648844445
 20
293.2677589822212099
 30
0.0
 40
0.2160387939024039
 50
256.9027557605567154
 51
263.8841153759989879
  0
ARC
  5
2F67F
  8
0
 10
6675.1314250741706928
 20
293.1017959593323212
 30
0.0
 40
0.0456432491162758
 50
241.6744808720090134
 51
256.9027557605567154
  0
ARC
  5
2F680
  8
0
 10
6675.1207110546220065
 20
293.0819190794807128
 30
0.0
 40
0.0230627139692462
 50
186.2187585369582052
 51
241.6744808720090134
  0
ARC
  5
2F681
  8
0
 10
6675.2785996609463837
 20
291.35205425017881
 30
0.0
 40
1.723214764402424
 50
89.9781549550368851
 51
92.4523393957408786
  0
ARC
  5
2F682
  8
0
 10
6675.2433892858080071
 20
292.174197305979817
 30
0.0
 40
0.9003180669250145
 50
92.4523393957408786
 51
95.8856046336697574
  0
ARC
  5
2F683
  8
0
 10
6675.174698953738698
 20
292.8405372148944821
 30
0.0
 40
0.2304470077412883
 50
95.8856046336697574
 51
100.7154489065812015
  0
ARC
  5
2F684
  8
0
 10
6675.1459299931393616
 20
292.992567931827125
 30
0.0
 40
0.0757182386483435
 50
100.7154489065812015
 51
108.7995428926873984
  0
ARC
  5
2F685
  8
0
 10
6675.1247426644913503
 20
293.0548069284507164
 30
0.0
 40
0.009971789344719
 50
108.7995428926864037
 51
128.0263842967422931
  0
ARC
  5
2F686
  8
0
 10
6675.1202156032222774
 20
293.0605958059720137
 30
0.0
 40
0.0026229536083128
 50
128.0263842967401899
 51
147.355755331796388
  0
ARC
  5
2F687
  8
0
 10
6675.1192502525600503
 20
293.061214224343189
 30
0.0
 40
0.0014765055349025
 50
147.355755331799088
 51
229.1182413426174094
  0
ARC
  5
2F688
  8
0
 10
6675.1247144649960319
 20
293.0675263433097939
 30
0.0
 40
0.0098251858740693
 50
229.1182413426174094
 51
248.0110519741946007
  0
ARC
  5
2F689
  8
0
 10
6675.1352086606057128
 20
293.0935148207835255
 30
0.0
 40
0.03785247798212
 50
248.0110519741946007
 51
256.2807102941869175
  0
ARC
  5
2F68A
  8
0
 10
6675.158360276644089
 20
293.1883478009846726
 30
0.0
 40
0.135470567796687
 50
256.2807102941869175
 51
261.9211591841187214
  0
ARC
  5
2F68B
  8
0
 10
6674.6751074902231267
 20
289.783824155364016
 30
0.0
 40
3.3031795320498829
 50
81.7123987761208355
 51
81.9211591841186646
  0
LINE
  5
2F68C
  8
0
 10
6675.4607292830160077
 20
293.0794208148373059
 30
0.0
 11
6675.4607292830160077
 21
296.4732999003982741
 31
0.0
  0
ARC
  5
2F68D
  8
0
 10
6675.2802874917088047
 20
294.7653556049514236
 30
0.0
 40
1.7182401608285141
 50
269.9656265281599872
 51
272.5853265944043073
  0
ARC
  5
2F68E
  8
0
 10
6675.3183628153046811
 20
293.9221064100980243
 30
0.0
 40
0.8741317940367704
 50
272.5853265944043073
 51
276.1158846240008984
  0
ARC
  5
2F68F
  8
0
 10
6675.388475870127877
 20
293.2677589822212099
 30
0.0
 40
0.2160387939024039
 50
276.1158846240008984
 51
283.0972442394432846
  0
ARC
  5
2F690
  8
0
 10
6675.4270882608434476
 20
293.1017959593323212
 30
0.0
 40
0.0456432491162758
 50
283.0972442394432846
 51
298.3255191279910719
  0
ARC
  5
2F691
  8
0
 10
6675.4378022803912245
 20
293.0819190794807128
 30
0.0
 40
0.0230627139692462
 50
298.3255191279910719
 51
353.7812414630416811
  0
ARC
  5
2F692
  8
0
 10
6675.2799136740659378
 20
291.35205425017881
 30
0.0
 40
1.723214764402424
 50
87.5476606042591357
 51
90.0218450449631149
  0
ARC
  5
2F693
  8
0
 10
6675.3151240492052239
 20
292.174197305979817
 30
0.0
 40
0.9003180669250145
 50
84.1143953663302568
 51
87.5476606042591357
  0
ARC
  5
2F694
  8
0
 10
6675.3838143812727139
 20
292.8405372148944821
 30
0.0
 40
0.2304470077412883
 50
79.2845510934187558
 51
84.1143953663302568
  0
ARC
  5
2F695
  8
0
 10
6675.4125833418729599
 20
292.992567931827125
 30
0.0
 40
0.0757182386483435
 50
71.2004571073125305
 51
79.2845510934187558
  0
ARC
  5
2F696
  8
0
 10
6675.4337706705218807
 20
293.0548069284507164
 30
0.0
 40
0.009971789344719
 50
51.9736157032577211
 51
71.2004571073135821
  0
ARC
  5
2F697
  8
0
 10
6675.4382977317900441
 20
293.0605958059720137
 30
0.0
 40
0.0026229536083128
 50
32.6442446682035907
 51
51.9736157032597319
  0
ARC
  5
2F698
  8
0
 10
6675.4392630824540902
 20
293.061214224343189
 30
0.0
 40
0.0014765055349025
 50
310.8817586573825906
 51
32.644244668200848
  0
ARC
  5
2F699
  8
0
 10
6675.4337988700162896
 20
293.0675263433097939
 30
0.0
 40
0.0098251858740693
 50
291.9889480258054277
 51
310.8817586573825906
  0
ARC
  5
2F69A
  8
0
 10
6675.4233046744056992
 20
293.0935148207835255
 30
0.0
 40
0.03785247798212
 50
283.7192897058130825
 51
291.9889480258054277
  0
ARC
  5
2F69B
  8
0
 10
6675.4001530583682325
 20
293.1883478009846726
 30
0.0
 40
0.135470567796687
 50
278.0788408158812786
 51
283.7192897058130825
  0
ARC
  5
2F69C
  8
0
 10
6675.8834058447891948
 20
289.783824155364016
 30
0.0
 40
3.3031795320498829
 50
98.0788408158813354
 51
98.287601223879193
  0
ENDSEC
  0
EOF
