  0
SECTION
  2
HEADER
  9
$ACADVER
  1
AC1009
  9
$INSBASE
 10
4244.0199813712124524
 20
97.3707099869281052
 30
0.0
  9
$EXTMIN
 10
4240.3769600143750722
 20
93.7857129290783291
 30
-0.0000000349181948
  9
$EXTMAX
 10
4247.5060353490725902
 20
97.3738264379568363
 30
0.0000000814935746
  9
$LIMMIN
 10
0.0
 20
0.0
  9
$LIMMAX
 10
11.6929133858000007
 20
8.2677165353999982
  9
$ORTHOMODE
 70
     0
  9
$REGENMODE
 70
     1
  9
$FILLMODE
 70
     1
  9
$QTEXTMODE
 70
     0
  9
$MIRRTEXT
 70
     0
  9
$DRAGMODE
 70
     2
  9
$LTSCALE
 40
0.6431102362
  9
$OSMODE
 70
  4095
  9
$ATTMODE
 70
     1
  9
$TEXTSIZE
 40
0.2
  9
$TRACEWID
 40
0.05
  9
$TEXTSTYLE
  7
STANDARD
  9
$CLAYER
  8
0
  9
$CELTYPE
  6
BYLAYER
  9
$CECOLOR
 62
   256
  9
$DIMSCALE
 40
1.0
  9
$DIMASZ
 40
0.1875
  9
$DIMEXO
 40
0.0625
  9
$DIMDLI
 40
0.4443307087
  9
$DIMRND
 40
0.0
  9
$DIMDLE
 40
0.0
  9
$DIMEXE
 40
0.125
  9
$DIMTP
 40
0.01
  9
$DIMTM
 40
0.01
  9
$DIMTXT
 40
2.0
  9
$DIMCEN
 40
0.1052362205
  9
$DIMTSZ
 40
0.0
  9
$DIMTOL
 70
     1
  9
$DIMLIM
 70
     0
  9
$DIMTIH
 70
     1
  9
$DIMTOH
 70
     1
  9
$DIMSE1
 70
     0
  9
$DIMSE2
 70
     0
  9
$DIMTAD
 70
     0
  9
$DIMZIN
 70
     0
  9
$DIMBLK
  1

  9
$DIMASO
 70
     1
  9
$DIMSHO
 70
     1
  9
$DIMPOST
  1
\X
  9
$DIMAPOST
  1

  9
$DIMALT
 70
     1
  9
$DIMALTD
 70
     2
  9
$DIMALTF
 40
25.3999999999999986
  9
$DIMLFAC
 40
1.0
  9
$DIMTOFL
 70
     0
  9
$DIMTVP
 40
0.0
  9
$DIMTIX
 70
     0
  9
$DIMSOXD
 70
     0
  9
$DIMSAH
 70
     0
  9
$DIMBLK1
  1

  9
$DIMBLK2
  1

  9
$DIMSTYLE
  2
STANDARD
  9
$DIMCLRD
 70
     0
  9
$DIMCLRE
 70
     0
  9
$DIMCLRT
 70
     0
  9
$DIMTFAC
 40
1.0
  9
$DIMGAP
 40
0.09
  9
$LUNITS
 70
     2
  9
$LUPREC
 70
     4
  9
$SKETCHINC
 40
0.1
  9
$FILLETRAD
 40
0.0
  9
$AUNITS
 70
     0
  9
$AUPREC
 70
     0
  9
$MENU
  1
.
  9
$ELEVATION
 40
0.0
  9
$PELEVATION
 40
0.0
  9
$THICKNESS
 40
0.0
  9
$LIMCHECK
 70
     0
  9
$BLIPMODE
 70
     0
  9
$CHAMFERA
 40
0.0
  9
$CHAMFERB
 40
0.0
  9
$SKPOLY
 70
     0
  9
$TDCREATE
 40
2458060.468368056230247
  9
$TDUPDATE
 40
2459431.735636574216187
  9
$TDINDWG
 40
0.338097338
  9
$TDUSRTIMER
 40
0.338097338
  9
$USRTIMER
 70
     1
  9
$ANGBASE
 50
0.0
  9
$ANGDIR
 70
     0
  9
$PDMODE
 70
     0
  9
$PDSIZE
 40
0.3125
  9
$PLINEWID
 40
0.0
  9
$COORDS
 70
     1
  9
$SPLFRAME
 70
     0
  9
$SPLINETYPE
 70
     6
  9
$SPLINESEGS
 70
     8
  9
$ATTDIA
 70
     1
  9
$ATTREQ
 70
     1
  9
$HANDLING
 70
     1
  9
$HANDSEED
  5
A7BB
  9
$SURFTAB1
 70
     6
  9
$SURFTAB2
 70
     6
  9
$SURFTYPE
 70
     6
  9
$SURFU
 70
     6
  9
$SURFV
 70
     6
  9
$UCSNAME
  2

  9
$UCSORG
 10
0.0
 20
0.0
 30
0.0
  9
$UCSXDIR
 10
1.0
 20
0.0
 30
0.0
  9
$UCSYDIR
 10
0.0
 20
1.0
 30
0.0
  9
$PUCSNAME
  2

  9
$PUCSORG
 10
0.0
 20
0.0
 30
0.0
  9
$PUCSXDIR
 10
1.0
 20
0.0
 30
0.0
  9
$PUCSYDIR
 10
0.0
 20
1.0
 30
0.0
  9
$USERI1
 70
     0
  9
$USERI2
 70
     0
  9
$USERI3
 70
     0
  9
$USERI4
 70
     0
  9
$USERI5
 70
     0
  9
$USERR1
 40
0.0
  9
$USERR2
 40
0.0
  9
$USERR3
 40
0.0
  9
$USERR4
 40
0.0
  9
$USERR5
 40
0.0
  9
$WORLDVIEW
 70
     1
  9
$SHADEDGE
 70
     3
  9
$SHADEDIF
 70
    70
  9
$TILEMODE
 70
     1
  9
$MAXACTVP
 70
    64
  9
$PLIMCHECK
 70
     0
  9
$PEXTMIN
 10
1.0000000000000000E+20
 20
1.0000000000000000E+20
 30
1.0000000000000000E+20
  9
$PEXTMAX
 10
-1.0000000000000000E+20
 20
-1.0000000000000000E+20
 30
-1.0000000000000000E+20
  9
$PLIMMIN
 10
0.0
 20
0.0
  9
$PLIMMAX
 10
12.0
 20
9.0
  9
$UNITMODE
 70
     0
  9
$VISRETAIN
 70
     1
  9
$PLINEGEN
 70
     0
  9
$PSLTSCALE
 70
     1
  0
ENDSEC
  0
SECTION
  2
TABLES
  0
TABLE
  2
VPORT
 70
     1
  0
VPORT
  2
*ACTIVE
 70
     0
 10
0.0
 20
0.0
 11
1.0
 21
1.0
 12
-21.0648499745257212
 22
-8.7242426150664016
 13
0.0
 23
0.0
 14
1.0
 24
1.0
 15
0.0
 25
0.0
 16
0.0
 26
0.0
 36
122.0237731519760018
 17
4265.00634765625
 27
104.3040122985839986
 37
0.0
 40
3.6203420733295109
 41
2.8440779610194902
 42
50.0
 43
0.0
 44
0.0
 50
0.0
 51
0.0
 71
     0
 72
   100
 73
     1
 74
     1
 75
     0
 76
     0
 77
     0
 78
     0
  0
ENDTAB
  0
TABLE
  2
LTYPE
 70
     2
  0
LTYPE
  2
CONTINUOUS
 70
     0
  3
Solid line
 72
    65
 73
     0
 40
0.0
  0
LTYPE
  2
PHANTOM2
 70
     0
  3
___ _ _ ___ _ _ ___ _ _ ___ _ _
 72
    65
 73
     6
 40
1.25
 49
0.625
 49
-0.125
 49
0.125
 49
-0.125
 49
0.125
 49
-0.125
  0
ENDTAB
  0
TABLE
  2
LAYER
 70
     2
  0
LAYER
  2
0
 70
     0
 62
   255
  6
CONTINUOUS
  0
LAYER
  2
DEFPOINTS
 70
     0
 62
     7
  6
CONTINUOUS
  0
ENDTAB
  0
TABLE
  2
STYLE
 70
     1
  0
STYLE
  2
STANDARD
 70
     0
 40
0.0
 41
0.8
 50
0.0
 71
     0
 42
0.2
  3
txt
  4

  0
ENDTAB
  0
TABLE
  2
VIEW
 70
     0
  0
ENDTAB
  0
TABLE
  2
UCS
 70
     0
  0
ENDTAB
  0
TABLE
  2
APPID
 70
    10
  0
APPID
  2
ACAD
 70
     0
  0
APPID
  2
ACAD_MLEADERVER
 70
     0
  0
APPID
  2
ACAD_EXEMPT_FROM_CAD_STANDARDS
 70
     0
  0
APPID
  2
ACAD_NAV_VCDISPLAY
 70
     0
  0
APPID
  2
ACAECLAYERSTANDARD
 70
     0
  0
APPID
  2
ACCMTRANSPARENCY
 70
     0
  0
APPID
  2
ACAD_DSTYLE_DIMJAG
 70
     0
  0
APPID
  2
ACAD_DSTYLE_DIMTALN
 70
     0
  0
APPID
  2
ACDBATTR
 70
     0
  0
APPID
  2
DCO15
 70
     0
  0
ENDTAB
  0
TABLE
  2
DIMSTYLE
 70
     1
  0
DIMSTYLE
  2
STANDARD
 70
     0
  3

  4

  5

  6

  7

 40
1.0
 41
0.1875
 42
0.0625
 43
0.38
 44
0.125
 45
0.0
 46
0.0
 47
0.01
 48
0.01
140
0.15625
141
0.09
142
0.0
143
25.3999999999999986
144
1.0
145
0.0
146
1.0
147
0.09
 71
     1
 72
     0
 73
     1
 74
     1
 75
     0
 76
     0
 77
     0
 78
     4
170
     0
171
     2
172
     0
173
     0
174
     0
175
     0
176
     0
177
     0
178
     0
  0
ENDTAB
  0
ENDSEC
  0
SECTION
  2
BLOCKS
  0
BLOCK
  8
0
  2
$MODEL_SPACE
 70
     0
 10
0.0
 20
0.0
 30
0.0
  3
$MODEL_SPACE
  1

  0
ENDBLK
  5
21
  8
0
  0
BLOCK
 67
     1
  8
0
  2
$PAPER_SPACE
 70
     0
 10
0.0
 20
0.0
 30
0.0
  3
$PAPER_SPACE
  1

  0
ENDBLK
  5
1D
 67
     1
  8
0
  0
ENDSEC
  0
SECTION
  2
ENTITIES
  0
ATTDEF
  5
9852
  8
DEFPOINTS
 10
4244.014528293636431
 20
97.3661560078729167
 30
0.0
 40
0.001
  1
P25022-LV
  3

  2
MODELNUMBER
 70
     0
1001
ACDBATTR
1070
     0
1070
     1
  0
ATTDEF
  5
9853
  8
DEFPOINTS
 10
4244.014528293636431
 20
97.3644893412062515
 30
0.0
 40
0.001
  1
SCRIPT
  3

  2
TRADENAME
 70
     0
1001
ACDBATTR
1070
     0
1070
     1
  0
ATTDEF
  5
9854
  8
DEFPOINTS
 10
4244.014528293636431
 20
97.3628226745395864
 30
0.0
 40
0.001
  1
VALVE TRIM
  3

  2
PRODUCT
 70
     0
1001
ACDBATTR
1070
     0
1070
     1
  0
LINE
  5
A624
  8
0
 10
4240.8399106176429996
 20
97.3707099869281052
 30
0.0
 11
4247.2000521247809957
 21
97.3707099869281052
 31
0.0
  0
LINE
  5
A625
  8
0
 10
4240.8399106176429996
 20
97.3417262099867742
 30
0.0
 11
4240.8399106176429996
 21
97.3707099869281052
 31
0.0
  0
ARC
  5
A626
  8
0
 10
4240.8109528956383656
 20
97.0679671336196037
 30
0.0
 40
0.1893900816885226
 50
102.8488980063638962
 51
118.3741072542512995
  0
ARC
  5
A627
  8
0
 10
4240.7772456189668446
 20
97.1303748306353754
 30
0.0
 40
0.1184612360230638
 50
118.3741072542512995
 51
137.1381353006304948
  0
ARC
  5
A628
  8
0
 10
4240.7467260213516056
 20
97.1586975597929126
 30
0.0
 40
0.0768244394903741
 50
137.138135300629898
 51
159.789162016532913
  0
ARC
  5
A629
  8
0
 10
4240.7461088487862071
 20
97.1587243662794293
 30
0.0
 40
0.0762362386348299
 50
159.6478226663876114
 51
179.7694440143197028
  0
ARC
  5
A62A
  8
0
 10
4240.7629053381979247
 20
97.1602456000573511
 30
0.0
 40
0.0930400374329953
 50
180.7479100339909905
 51
197.0846593733618874
  0
ARC
  5
A62B
  8
0
 10
4240.7445682815687178
 20
97.1568952913457053
 30
0.0
 40
0.0745599087453896
 50
198.7637203285742089
 51
229.954374825153792
  0
ARC
  5
A62C
  8
0
 10
4240.8300648213980821
 20
97.2586214794636277
 30
0.0
 40
0.2074428484771564
 50
229.954374825153792
 51
243.3180305539102051
  0
ARC
  5
A62D
  8
0
 10
4240.9442302966463103
 20
97.4857923276385634
 30
0.0
 40
0.4616875141023666
 50
243.3180305539102051
 51
249.5567894997826102
  0
LINE
  5
A62E
  8
0
 10
4241.2552822342640866
 20
96.8755682416577599
 30
0.0
 11
4240.7829726293357453
 21
97.0531824278305919
 31
0.0
  0
LINE
  5
A62F
  8
0
 10
4241.2588021210631268
 20
96.8749282842281048
 30
0.0
 11
4246.7811606213608684
 21
96.8749282842281048
 31
0.0
  0
ARC
  5
A630
  8
0
 10
4241.2588021210631268
 20
96.8849282842281667
 30
0.0
 40
0.01
 50
249.3910000000055902
 51
269.9999999999478746
  0
ARC
  5
A631
  8
0
 10
4231.8695832290131875
 20
71.509836432417174
 30
0.0
 40
27.0462231472513004
 50
68.3414190922536449
 51
69.5634994521594336
  0
ARC
  5
A632
  8
0
 10
4239.0215006416410688
 20
89.5196974984680054
 30
0.0
 40
7.6682712870698619
 50
64.3849950686019668
 51
68.3414190922536449
  0
ARC
  5
A633
  8
0
 10
4241.1621449714939445
 20
93.9845657849229781
 30
0.0
 40
2.716765762250037
 50
55.5606762255842099
 51
64.3849950686019668
  0
ARC
  5
A634
  8
0
 10
4241.8343908930310135
 20
94.9649121504985914
 30
0.0
 40
1.528071699203978
 50
42.563339174272663
 51
55.5606762255842099
  0
ARC
  5
A635
  8
0
 10
4241.6376377270444209
 20
94.7842205470753782
 30
0.0
 40
1.7952069905340919
 50
27.02642776442989
 51
42.563339174272663
  0
ARC
  5
A636
  8
0
 10
4241.0755019876887673
 20
94.5647801876079654
 30
0.0
 40
2.3964200464212722
 50
17.0889094638284291
 51
25.5927369281368087
  0
ARC
  5
A637
  8
0
 10
4236.8635248960290483
 20
93.2534253126529507
 30
0.0
 40
6.8078047888323763
 50
14.3979659988253204
 51
17.2214360289684798
  0
LINE
  5
A638
  8
0
 10
4243.4671959971501565
 20
94.938709986928103
 30
0.0
 11
4244.5727667452729293
 21
94.938709986928103
 31
0.0
  0
LINE
  5
A639
  8
0
 10
4244.5613669173162634
 20
94.918709986928107
 30
0.0
 11
4243.4785958251086413
 21
94.9187099869280786
 31
0.0
  0
LINE
  5
A63A
  8
0
 10
4243.5399106176419082
 20
94.938709986928103
 30
0.0
 11
4243.5399106176419082
 21
94.9187099869280786
 31
0.0
  0
ARC
  5
A63B
  8
0
 10
4243.4671959971501565
 20
94.9487099869280939
 30
0.0
 40
0.01
 50
194.3979659988395099
 51
269.9999999999478746
  0
ARC
  5
A63C
  8
0
 10
4156.2452360249490084
 20
72.0129573884553906
 30
0.0
 40
90.1783846280429202
 50
14.5705840977792107
 51
14.7080423101774702
  0
ARC
  5
A63D
  8
0
 10
4243.4790808001826008
 20
94.9083000453888985
 30
0.0
 40
0.0104212323489724
 50
92.6673490718390411
 51
177.898218251114514
  0
ARC
  5
A63E
  8
0
 10
4241.3226293012176029
 20
96.8739761482775066
 30
0.0
 40
0.0222670396510616
 50
183.0948010226535132
 51
245.1961523686121893
  0
ARC
  5
A63F
  8
0
 10
4240.7485106176427507
 20
97.3417262099867742
 30
0.0
 40
0.0914
 50
282.8488980063647205
 51
359.9999999999919282
  0
LINE
  5
A640
  8
0
 10
4247.2569901130873404
 20
97.0531824278305919
 30
0.0
 11
4240.7829726293357453
 21
97.0531824278305919
 31
0.0
  0
LINE
  5
A641
  8
0
 10
4247.2956807545688207
 20
97.2452341443613619
 30
0.0
 11
4240.7442819878551745
 21
97.2452341443613619
 31
0.0
  0
ARC
  5
A642
  8
0
 10
4244.0407688166469597
 20
95.0726703960338142
 30
0.0
 40
1.286948146488754
 50
247.4141890273920126
 51
269.0744889835638105
  0
ARC
  5
A643
  8
0
 10
4244.0210677954655694
 20
93.1635554069080172
 30
0.0
 40
1.188206756630368
 50
109.8864217193283963
 51
113.5419273293970974
  0
ARC
  5
A644
  8
0
 10
4238.5636978428756265
 20
93.3692827839229693
 30
0.0
 40
5.1349000642990337
 50
10.2580418616538598
 51
15.0123173285898108
  0
ARC
  5
A645
  8
0
 10
4275.0305699813188767
 20
98.4364277418619338
 30
0.0
 40
31.6873405835823192
 50
187.5304314888823001
 51
187.8171080312586128
  0
ARC
  5
A646
  8
0
 10
4243.3196595828685531
 20
94.0829266765097714
 30
0.0
 40
0.3210147291242193
 50
352.1828919687412736
 51
7.817108031258666
  0
ARC
  5
A647
  8
0
 10
4243.4668089761671581
 20
94.0627249531144258
 30
0.0
 40
0.1724850904126888
 50
320.5776016932537118
 51
352.1828919687412736
  0
LINE
  5
A648
  8
0
 10
4243.6000511872853167
 20
93.9531913071840989
 30
0.0
 11
4243.5059503530874281
 21
93.9186311446973718
 31
0.0
  0
LINE
  5
A649
  8
0
 10
4241.3003947364122723
 20
96.8727739907517105
 30
0.0
 11
4241.3003947364122723
 21
96.8749282842281048
 31
0.0
  0
LINE
  5
A64A
  8
0
 10
4243.490800443894841
 20
93.9694176922840683
 30
0.0
 11
4243.490800443894841
 21
94.1678809849264553
 31
0.0
  0
ARC
  5
A64B
  8
0
 10
4243.5835004438949909
 20
93.9694176922840541
 30
0.0
 40
0.0927
 50
179.9999999999934914
 51
246.4720314198596895
  0
ARC
  5
A64C
  8
0
 10
4243.5835004438949909
 20
94.1678809849264269
 30
0.0
 40
0.0927
 50
113.5419273294461959
 51
179.9999999999992042
  0
LINE
  5
A64D
  8
0
 10
4247.2000521247809957
 20
97.3417262099867742
 30
0.0
 11
4247.2000521247809957
 21
97.3707099869281052
 31
0.0
  0
ARC
  5
A64E
  8
0
 10
4247.2290098467856296
 20
97.0679671336196037
 30
0.0
 40
0.1893900816885226
 50
61.6258927457486578
 51
77.1511019936360896
  0
ARC
  5
A64F
  8
0
 10
4247.2627171234571506
 20
97.1303748306353754
 30
0.0
 40
0.1184612360230638
 50
42.8618646993694909
 51
61.6258927457486578
  0
ARC
  5
A650
  8
0
 10
4247.2932367210723896
 20
97.1586975597929126
 30
0.0
 40
0.0768244394903741
 50
20.2108379834670409
 51
42.861864699370102
  0
ARC
  5
A651
  8
0
 10
4247.2938538936368786
 20
97.1587243662794293
 30
0.0
 40
0.0762362386348299
 50
0.2305559856803052
 51
20.3521773336123601
  0
ARC
  5
A652
  8
0
 10
4247.2770574042260705
 20
97.1602456000573511
 30
0.0
 40
0.0930400374329953
 50
342.9153406266379989
 51
359.2520899660091231
  0
ARC
  5
A653
  8
0
 10
4247.2953944608543679
 20
97.1568952913457053
 30
0.0
 40
0.0745599087453896
 50
310.0456251748461796
 51
341.2362796714257911
  0
ARC
  5
A654
  8
0
 10
4247.2098979210250036
 20
97.2586214794636277
 30
0.0
 40
0.2074428484771564
 50
296.6819694460897949
 51
310.0456251748461796
  0
ARC
  5
A655
  8
0
 10
4247.0957324457767754
 20
97.4857923276385634
 30
0.0
 40
0.4616875141023666
 50
290.4432105002172761
 51
296.6819694460897949
  0
LINE
  5
A656
  8
0
 10
4246.7846805081589991
 20
96.8755682416577599
 30
0.0
 11
4247.2569901130873404
 21
97.0531824278305919
 31
0.0
  0
ARC
  5
A657
  8
0
 10
4246.7811606213608684
 20
96.8849282842281667
 30
0.0
 40
0.01
 50
270.0000000000521254
 51
290.6089999999942961
  0
ARC
  5
A658
  8
0
 10
4256.1703795134098982
 20
71.509836432417174
 30
0.0
 40
27.0462231472513004
 50
110.4365005478404953
 51
111.6585809077462983
  0
ARC
  5
A659
  8
0
 10
4249.0184621007820169
 20
89.5196974984680054
 30
0.0
 40
7.6682712870698619
 50
111.6585809077462983
 51
115.6150049313980048
  0
ARC
  5
A65A
  8
0
 10
4246.8778177709300508
 20
93.9845657849229781
 30
0.0
 40
2.716765762250037
 50
115.6150049313980048
 51
124.4393237744157972
  0
ARC
  5
A65B
  8
0
 10
4246.2055718493929817
 20
94.9649121504985914
 30
0.0
 40
1.528071699203978
 50
124.4393237744157972
 51
137.4366608257273015
  0
ARC
  5
A65C
  8
0
 10
4246.4023250153795743
 20
94.7842205470753782
 30
0.0
 40
1.7952069905340919
 50
137.4366608257273015
 51
152.9735722355700887
  0
ARC
  5
A65D
  8
0
 10
4246.9644607547343185
 20
94.5647801876079654
 30
0.0
 40
2.3964200464212722
 50
154.4072630718632126
 51
162.911090536171514
  0
ARC
  5
A65E
  8
0
 10
4251.176437846394947
 20
93.2534253126529507
 30
0.0
 40
6.8078047888323763
 50
162.7785639710315024
 51
165.602034001174701
  0
LINE
  5
A65F
  8
0
 10
4244.5000521247811776
 20
94.938709986928103
 30
0.0
 11
4244.5000521247811776
 21
94.9187099869280786
 31
0.0
  0
ARC
  5
A660
  8
0
 10
4244.5727667452729293
 20
94.9487099869280939
 30
0.0
 40
0.01
 50
270.0000000000521254
 51
345.6020340011605185
  0
ARC
  5
A661
  8
0
 10
4331.7947267174749868
 20
72.0129573884553906
 30
0.0
 40
90.1783846280429202
 50
165.2919576898225102
 51
165.4294159022207964
  0
ARC
  5
A662
  8
0
 10
4244.5608819422413944
 20
94.9083000453888985
 30
0.0
 40
0.0104212323489724
 50
2.1017817488854309
 51
87.3326509281609447
  0
ARC
  5
A663
  8
0
 10
4246.7173334412063923
 20
96.8739761482775066
 30
0.0
 40
0.0222670396510616
 50
294.803847631387498
 51
356.9051989773464015
  0
ARC
  5
A664
  8
0
 10
4247.2914521247812445
 20
97.3417262099867742
 30
0.0
 40
0.0914
 50
180.0000000000081002
 51
257.1511019936353932
  0
ARC
  5
A665
  8
0
 10
4244.0062057909981377
 20
95.0389762520031383
 30
0.0
 40
1.253161824188058
 50
270.6298456338421943
 51
292.8814763552500153
  0
ARC
  5
A666
  8
0
 10
4244.0188949469584259
 20
93.1635554069080172
 30
0.0
 40
1.188206756630368
 50
66.4580726706028599
 51
70.1135782806715895
  0
ARC
  5
A667
  8
0
 10
4249.4762648995483687
 20
93.3692827839229693
 30
0.0
 40
5.1349000642990337
 50
164.9876826714101981
 51
169.7419581383460923
  0
ARC
  5
A668
  8
0
 10
4213.0093927611042091
 20
98.4364277418619338
 30
0.0
 40
31.6873405835823192
 50
352.1828919687412736
 51
352.4695685111176999
  0
ARC
  5
A669
  8
0
 10
4244.7203031595554421
 20
94.0829266765097714
 30
0.0
 40
0.3210147291242193
 50
172.182891968741302
 51
187.8171080312586128
  0
ARC
  5
A66A
  8
0
 10
4244.5731537662577466
 20
94.0627249531144258
 30
0.0
 40
0.1724850904126888
 50
187.8171080312586128
 51
219.4223983067462882
  0
LINE
  5
A66B
  8
0
 10
4244.439911555137769
 20
93.9531913071840989
 30
0.0
 11
4244.5340123893356576
 21
93.9186311446973718
 31
0.0
  0
LINE
  5
A66C
  8
0
 10
4246.7395680060108134
 20
96.8727739907517105
 30
0.0
 11
4246.7395680060108134
 21
96.8749282842281048
 31
0.0
  0
LINE
  5
A66D
  8
0
 10
4244.5491622985291542
 20
93.9694176922840683
 30
0.0
 11
4244.5491622985291542
 21
94.1678809849264553
 31
0.0
  0
ARC
  5
A66E
  8
0
 10
4244.4564622985290043
 20
93.9694176922840541
 30
0.0
 40
0.0927
 50
293.5279685801403957
 51
0.0000000000065138
  0
ARC
  5
A66F
  8
0
 10
4244.4564622985290043
 20
94.1678809849264269
 30
0.0
 40
0.0927
 50
0.0000000000008142
 51
66.4580726705538041
  0
ENDSEC
  0
EOF
