  0
SECTION
  2
HEADER
  9
$ACADVER
  1
AC1009
  9
$INSBASE
 10
4256.6861413297274339
 20
96.4583819095406909
 30
0.0
  9
$EXTMIN
 10
4254.6029972800552059
 20
93.1067404359867936
 30
0.0
  9
$EXTMAX
 10
4258.7692853793987524
 20
96.4583819095406767
 30
0.0
  9
$LIMMIN
 10
0.0
 20
0.0
  9
$LIMMAX
 10
11.6929133858000007
 20
8.2677165353999982
  9
$ORTHOMODE
 70
     0
  9
$REGENMODE
 70
     1
  9
$FILLMODE
 70
     1
  9
$QTEXTMODE
 70
     0
  9
$MIRRTEXT
 70
     0
  9
$DRAGMODE
 70
     2
  9
$LTSCALE
 40
0.6431102362
  9
$OSMODE
 70
  4095
  9
$ATTMODE
 70
     1
  9
$TEXTSIZE
 40
0.2
  9
$TRACEWID
 40
0.05
  9
$TEXTSTYLE
  7
STANDARD
  9
$CLAYER
  8
0
  9
$CELTYPE
  6
BYLAYER
  9
$CECOLOR
 62
   256
  9
$DIMSCALE
 40
1.0
  9
$DIMASZ
 40
0.1875
  9
$DIMEXO
 40
0.0625
  9
$DIMDLI
 40
0.4443307087
  9
$DIMRND
 40
0.0
  9
$DIMDLE
 40
0.0
  9
$DIMEXE
 40
0.125
  9
$DIMTP
 40
0.01
  9
$DIMTM
 40
0.01
  9
$DIMTXT
 40
2.0
  9
$DIMCEN
 40
0.1052362205
  9
$DIMTSZ
 40
0.0
  9
$DIMTOL
 70
     1
  9
$DIMLIM
 70
     0
  9
$DIMTIH
 70
     1
  9
$DIMTOH
 70
     1
  9
$DIMSE1
 70
     0
  9
$DIMSE2
 70
     0
  9
$DIMTAD
 70
     0
  9
$DIMZIN
 70
     0
  9
$DIMBLK
  1

  9
$DIMASO
 70
     1
  9
$DIMSHO
 70
     1
  9
$DIMPOST
  1
\X
  9
$DIMAPOST
  1

  9
$DIMALT
 70
     1
  9
$DIMALTD
 70
     2
  9
$DIMALTF
 40
25.3999999999999986
  9
$DIMLFAC
 40
1.0
  9
$DIMTOFL
 70
     0
  9
$DIMTVP
 40
0.0
  9
$DIMTIX
 70
     0
  9
$DIMSOXD
 70
     0
  9
$DIMSAH
 70
     0
  9
$DIMBLK1
  1

  9
$DIMBLK2
  1

  9
$DIMSTYLE
  2
STANDARD
  9
$DIMCLRD
 70
     0
  9
$DIMCLRE
 70
     0
  9
$DIMCLRT
 70
     0
  9
$DIMTFAC
 40
1.0
  9
$DIMGAP
 40
0.09
  9
$LUNITS
 70
     2
  9
$LUPREC
 70
     4
  9
$SKETCHINC
 40
0.1
  9
$FILLETRAD
 40
0.0
  9
$AUNITS
 70
     0
  9
$AUPREC
 70
     0
  9
$MENU
  1
.
  9
$ELEVATION
 40
0.0
  9
$PELEVATION
 40
0.0
  9
$THICKNESS
 40
0.0
  9
$LIMCHECK
 70
     0
  9
$BLIPMODE
 70
     0
  9
$CHAMFERA
 40
0.0
  9
$CHAMFERB
 40
0.0
  9
$SKPOLY
 70
     0
  9
$TDCREATE
 40
2458060.468368056230247
  9
$TDUPDATE
 40
2459432.6451388890855014
  9
$TDINDWG
 40
0.3411876157
  9
$TDUSRTIMER
 40
0.3411876157
  9
$USRTIMER
 70
     1
  9
$ANGBASE
 50
0.0
  9
$ANGDIR
 70
     0
  9
$PDMODE
 70
     0
  9
$PDSIZE
 40
0.3125
  9
$PLINEWID
 40
0.0
  9
$COORDS
 70
     1
  9
$SPLFRAME
 70
     0
  9
$SPLINETYPE
 70
     6
  9
$SPLINESEGS
 70
     8
  9
$ATTDIA
 70
     1
  9
$ATTREQ
 70
     1
  9
$HANDLING
 70
     1
  9
$HANDSEED
  5
A9F1
  9
$SURFTAB1
 70
     6
  9
$SURFTAB2
 70
     6
  9
$SURFTYPE
 70
     6
  9
$SURFU
 70
     6
  9
$SURFV
 70
     6
  9
$UCSNAME
  2

  9
$UCSORG
 10
0.0
 20
0.0
 30
0.0
  9
$UCSXDIR
 10
1.0
 20
0.0
 30
0.0
  9
$UCSYDIR
 10
0.0
 20
1.0
 30
0.0
  9
$PUCSNAME
  2

  9
$PUCSORG
 10
0.0
 20
0.0
 30
0.0
  9
$PUCSXDIR
 10
1.0
 20
0.0
 30
0.0
  9
$PUCSYDIR
 10
0.0
 20
1.0
 30
0.0
  9
$USERI1
 70
     0
  9
$USERI2
 70
     0
  9
$USERI3
 70
     0
  9
$USERI4
 70
     0
  9
$USERI5
 70
     0
  9
$USERR1
 40
0.0
  9
$USERR2
 40
0.0
  9
$USERR3
 40
0.0
  9
$USERR4
 40
0.0
  9
$USERR5
 40
0.0
  9
$WORLDVIEW
 70
     1
  9
$SHADEDGE
 70
     3
  9
$SHADEDIF
 70
    70
  9
$TILEMODE
 70
     1
  9
$MAXACTVP
 70
    64
  9
$PLIMCHECK
 70
     0
  9
$PEXTMIN
 10
1.0000000000000000E+20
 20
1.0000000000000000E+20
 30
1.0000000000000000E+20
  9
$PEXTMAX
 10
-1.0000000000000000E+20
 20
-1.0000000000000000E+20
 30
-1.0000000000000000E+20
  9
$PLIMMIN
 10
0.0
 20
0.0
  9
$PLIMMAX
 10
12.0
 20
9.0
  9
$UNITMODE
 70
     0
  9
$VISRETAIN
 70
     1
  9
$PLINEGEN
 70
     0
  9
$PSLTSCALE
 70
     1
  0
ENDSEC
  0
SECTION
  2
TABLES
  0
TABLE
  2
VPORT
 70
     1
  0
VPORT
  2
*ACTIVE
 70
     0
 10
0.0
 20
0.0
 11
1.0
 21
1.0
 12
-8.3202063265230208
 22
-9.5214511258202563
 13
0.0
 23
0.0
 14
1.0
 24
1.0
 15
0.0
 25
0.0
 16
0.0
 26
0.0
 36
122.0237731519760018
 17
4265.00634765625
 27
104.3040122985839986
 37
0.0
 40
3.3817460376876149
 41
2.8440779610194902
 42
50.0
 43
0.0
 44
0.0
 50
0.0
 51
0.0
 71
     0
 72
   100
 73
     1
 74
     1
 75
     0
 76
     0
 77
     0
 78
     0
  0
ENDTAB
  0
TABLE
  2
LTYPE
 70
     2
  0
LTYPE
  2
CONTINUOUS
 70
     0
  3
Solid line
 72
    65
 73
     0
 40
0.0
  0
LTYPE
  2
PHANTOM2
 70
     0
  3
___ _ _ ___ _ _ ___ _ _ ___ _ _
 72
    65
 73
     6
 40
1.25
 49
0.625
 49
-0.125
 49
0.125
 49
-0.125
 49
0.125
 49
-0.125
  0
ENDTAB
  0
TABLE
  2
LAYER
 70
     2
  0
LAYER
  2
0
 70
     0
 62
   255
  6
CONTINUOUS
  0
LAYER
  2
DEFPOINTS
 70
     0
 62
     7
  6
CONTINUOUS
  0
ENDTAB
  0
TABLE
  2
STYLE
 70
     1
  0
STYLE
  2
STANDARD
 70
     0
 40
0.0
 41
0.8
 50
0.0
 71
     0
 42
0.2
  3
txt
  4

  0
ENDTAB
  0
TABLE
  2
VIEW
 70
     0
  0
ENDTAB
  0
TABLE
  2
UCS
 70
     0
  0
ENDTAB
  0
TABLE
  2
APPID
 70
    10
  0
APPID
  2
ACAD
 70
     0
  0
APPID
  2
ACAD_MLEADERVER
 70
     0
  0
APPID
  2
ACAD_EXEMPT_FROM_CAD_STANDARDS
 70
     0
  0
APPID
  2
ACAD_NAV_VCDISPLAY
 70
     0
  0
APPID
  2
ACAECLAYERSTANDARD
 70
     0
  0
APPID
  2
ACCMTRANSPARENCY
 70
     0
  0
APPID
  2
ACAD_DSTYLE_DIMJAG
 70
     0
  0
APPID
  2
ACAD_DSTYLE_DIMTALN
 70
     0
  0
APPID
  2
ACDBATTR
 70
     0
  0
APPID
  2
DCO15
 70
     0
  0
ENDTAB
  0
TABLE
  2
DIMSTYLE
 70
     1
  0
DIMSTYLE
  2
STANDARD
 70
     0
  3

  4

  5

  6

  7

 40
1.0
 41
0.1875
 42
0.0625
 43
0.38
 44
0.125
 45
0.0
 46
0.0
 47
0.01
 48
0.01
140
0.15625
141
0.09
142
0.0
143
25.3999999999999986
144
1.0
145
0.0
146
1.0
147
0.09
 71
     1
 72
     0
 73
     1
 74
     1
 75
     0
 76
     0
 77
     0
 78
     4
170
     0
171
     2
172
     0
173
     0
174
     0
175
     0
176
     0
177
     0
178
     0
  0
ENDTAB
  0
ENDSEC
  0
SECTION
  2
BLOCKS
  0
BLOCK
  8
0
  2
$MODEL_SPACE
 70
     0
 10
0.0
 20
0.0
 30
0.0
  3
$MODEL_SPACE
  1

  0
ENDBLK
  5
21
  8
0
  0
BLOCK
 67
     1
  8
0
  2
$PAPER_SPACE
 70
     0
 10
0.0
 20
0.0
 30
0.0
  3
$PAPER_SPACE
  1

  0
ENDBLK
  5
1D
 67
     1
  8
0
  0
ENDSEC
  0
SECTION
  2
ENTITIES
  0
ATTDEF
  5
9852
  8
DEFPOINTS
 10
4256.6822742802050925
 20
96.4537652198740147
 30
0.0
 40
0.001
  1
P25024-LV
  3

  2
MODELNUMBER
 70
     0
1001
ACDBATTR
1070
     0
1070
     1
  0
ATTDEF
  5
9853
  8
DEFPOINTS
 10
4256.6822742802050925
 20
96.4520985532073638
 30
0.0
 40
0.001
  1
SCRIPT
  3

  2
TRADENAME
 70
     0
1001
ACDBATTR
1070
     0
1070
     1
  0
ATTDEF
  5
9854
  8
DEFPOINTS
 10
4256.6822742802050925
 20
96.4504318865406844
 30
0.0
 40
0.001
  1
VALVE TRIM
  3

  2
PRODUCT
 70
     0
1001
ACDBATTR
1070
     0
1070
     1
  0
LINE
  5
A81E
  8
0
 10
4254.6665488123462637
 20
96.1408543505181399
 30
0.0
 11
4255.122406445049819
 21
95.8216593997759958
 31
0.0
  0
LINE
  5
A81F
  8
0
 10
4255.1307913600139727
 20
95.8189466804406749
 30
0.0
 11
4258.2414912994399856
 21
95.8189466804406749
 31
0.0
  0
LINE
  5
A820
  8
0
 10
4255.1695480833859619
 20
95.8181459857759705
 30
0.0
 11
4255.170502314177611
 21
95.8189466804406749
 31
0.0
  0
LINE
  5
A821
  8
0
 10
4254.7733657391772795
 20
96.4583819095406767
 30
0.0
 11
4258.5989169202766789
 21
96.4583819095406767
 31
0.0
  0
LINE
  5
A822
  8
0
 10
4254.7735844707567594
 20
96.4386242881290912
 30
0.0
 11
4254.7735844707567594
 21
96.4583819095406767
 31
0.0
  0
ARC
  5
A823
  8
0
 10
4254.7684810127593664
 20
96.2869701217144325
 30
0.0
 40
0.1781572116791325
 50
216.0048935488169093
 51
235.0998875035438118
  0
ARC
  5
A824
  8
0
 10
4254.7186264432230018
 20
96.2507421506734318
 30
0.0
 40
0.1165297503543642
 50
193.5748735859220062
 51
216.0048935488175914
  0
ARC
  5
A825
  8
0
 10
4254.6872894865728085
 20
96.2431754882335042
 30
0.0
 40
0.0842922065188516
 50
158.1681010658076048
 51
193.5748735859220062
  0
ARC
  5
A826
  8
0
 10
4254.6852081340475706
 20
96.244009314302545
 30
0.0
 40
0.0820500436684801
 50
126.7247602384215952
 51
158.1681010658076048
  0
ARC
  5
A827
  8
0
 10
4254.7414297445784541
 20
96.1686502242888253
 30
0.0
 40
0.1760705836489905
 50
105.9306537895920997
 51
126.7247602384215952
  0
ARC
  5
A828
  8
0
 10
4254.6497663047293827
 20
96.4897850447651564
 30
0.0
 40
0.1578901312970886
 50
285.9306537895920997
 51
295.151720180881
  0
ARC
  5
A829
  8
0
 10
4254.6747238662610471
 20
96.4366313138082347
 30
0.0
 40
0.099168763872134
 50
295.1517201808813979
 51
330.8855522454109064
  0
ARC
  5
A82A
  8
0
 10
4254.6529228719964522
 20
96.4413666421325786
 30
0.0
 40
0.120692758362169
 50
333.9586720204258086
 51
358.6980259984708255
  0
ARC
  5
A82B
  8
0
 10
4255.1310100915943622
 20
95.8339466804406754
 30
0.0
 40
0.015
 50
235.0000000022475035
 51
270.0
  0
ARC
  5
A82C
  8
0
 10
4250.9903056633147571
 20
89.7634552353679851
 30
0.0
 40
7.3317124222277688
 50
52.1145313987873493
 51
55.2345367291469387
  0
ARC
  5
A82D
  8
0
 10
4254.2069697100923804
 20
93.896538705341186
 30
0.0
 40
2.0944130170783271
 50
40.6741313815385226
 51
52.1324413359125174
  0
ARC
  5
A82E
  8
0
 10
4254.6163924554630285
 20
94.2483763371096757
 30
0.0
 40
1.554582762687839
 50
23.5772376834118198
 51
40.6741313815385226
  0
ARC
  5
A82F
  8
0
 10
4253.5792152671883741
 20
93.795735375615493
 30
0.0
 40
2.686227742308342
 50
15.5019649898562299
 51
23.5772376834118198
  0
ARC
  5
A830
  8
0
 10
4254.3015248660731231
 20
93.9960762332369342
 30
0.0
 40
1.9366494502846221
 50
8.7849769348678102
 51
15.5019649898562299
  0
LINE
  5
A831
  8
0
 10
4256.2251183901707918
 20
94.2833816102406672
 30
0.0
 11
4257.1471642692831665
 21
94.2833816102406672
 31
0.0
  0
LINE
  5
A832
  8
0
 10
4256.2318035894213608
 20
94.2703816102406762
 30
0.0
 11
4257.1404791377262882
 21
94.2703816102406762
 31
0.0
  0
ARC
  5
A833
  8
0
 10
4256.2253371217511813
 20
94.2933816102406865
 30
0.0
 40
0.01
 50
188.784976934832514
 51
270.0000000000521254
  0
ARC
  5
A834
  8
0
 10
4255.1824038352006028
 20
95.8028250965956829
 30
0.0
 40
0.02
 50
129.9999985831979927
 51
235.1794162987083041
  0
ARC
  5
A835
  8
0
 10
4248.4055066478031222
 20
92.8838990895367544
 30
0.0
 40
7.9364223761291193
 50
8.3185126464025174
 51
9.9753168841708106
  0
ARC
  5
A836
  8
0
 10
4256.2318035894213608
 20
94.2603816102406853
 30
0.0
 40
0.01
 50
90.0
 51
189.813674708951595
  0
ARC
  5
A837
  8
0
 10
4256.6861415858447799
 20
94.1944847406532944
 30
0.0
 40
1.0877443046665209
 50
246.7371694766167138
 51
293.2473307290730986
  0
ARC
  5
A838
  8
0
 10
4257.0786768702309928
 20
93.2805737052886172
 30
0.0
 40
0.0931
 50
293.2820771239788087
 51
0.0
  0
ARC
  5
A839
  8
0
 10
4249.2968852362555481
 20
93.2132049517281871
 30
0.0
 40
7.0095447478322033
 50
3.2770134239544988
 51
6.70900850785016
  0
ARC
  5
A83A
  8
0
 10
4249.9449288392606832
 20
93.2503100628815957
 30
0.0
 40
6.3604397481057928
 50
0.9425882986175103
 51
3.2770134239544988
  0
ARC
  5
A83B
  8
0
 10
4256.1924503300715514
 20
93.3530989946402201
 30
0.0
 40
0.1120727340266696
 50
349.7842261342771053
 51
0.9425882986175103
  0
ARC
  5
A83C
  8
0
 10
4256.2756196048230777
 20
93.3381108407296551
 30
0.0
 40
0.0275637225532769
 50
291.6434692775101212
 51
349.7842261342777874
  0
ARC
  5
A83D
  8
0
 10
4255.1928162105887168
 20
96.111319186260431
 30
0.0
 40
3.0046672237876382
 50
289.5953291100448723
 51
291.3311264808406804
  0
ARC
  5
A83E
  8
0
 10
4256.9389478649227385
 20
91.9232652113068553
 30
0.0
 40
1.7526511856783431
 50
111.4476901194478984
 51
112.8839211835501004
  0
LINE
  5
A83F
  8
0
 10
4256.2005057892220066
 20
93.2806678762580646
 30
0.0
 11
4256.2005057892220066
 21
93.4522007047851986
 31
0.0
  0
ARC
  5
A840
  8
0
 10
4256.2936057892229655
 20
93.2806678762580646
 30
0.0
 40
0.0931
 50
180.0000000000057128
 51
246.6836767616320003
  0
ARC
  5
A841
  8
0
 10
4256.2936057892229655
 20
93.4522007047851986
 30
0.0
 40
0.0931
 50
112.8839211835513936
 51
180.0
  0
LINE
  5
A842
  8
0
 10
4256.3613600612570735
 20
94.2733816103406781
 30
0.0
 11
4256.3613600612570735
 21
94.2703816102406762
 31
0.0
  0
ARC
  5
A843
  8
0
 10
4256.3513600612577648
 20
94.2733816103406781
 30
0.0
 40
0.0099999999999936
 50
0.0
 51
90.0
  0
LINE
  5
A844
  8
0
 10
4258.7057338471067851
 20
96.1408543505181399
 30
0.0
 11
4258.2498762144050488
 21
95.8216593997759958
 31
0.0
  0
LINE
  5
A845
  8
0
 10
4258.2027345760679964
 20
95.8181459857759705
 30
0.0
 11
4258.2017803452763474
 21
95.8189466804406749
 31
0.0
  0
LINE
  5
A846
  8
0
 10
4258.5986981886981084
 20
96.4386242881290912
 30
0.0
 11
4258.5986981886981084
 21
96.4583819095406767
 31
0.0
  0
ARC
  5
A847
  8
0
 10
4258.6038016466936824
 20
96.2869701217144325
 30
0.0
 40
0.1781572116791325
 50
304.9001124964561882
 51
323.9951064511831191
  0
ARC
  5
A848
  8
0
 10
4258.6536562162309565
 20
96.2507421506734318
 30
0.0
 40
0.1165297503543642
 50
323.9951064511823802
 51
346.4251264140780222
  0
ARC
  5
A849
  8
0
 10
4258.6849931728802403
 20
96.2431754882335042
 30
0.0
 40
0.0842922065188516
 50
346.4251264140780222
 51
21.8318989341924485
  0
ARC
  5
A84A
  8
0
 10
4258.6870745254045687
 20
96.244009314302545
 30
0.0
 40
0.0820500436684801
 50
21.8318989341924485
 51
53.275239761578348
  0
ARC
  5
A84B
  8
0
 10
4258.6308529148764137
 20
96.1686502242888253
 30
0.0
 40
0.1760705836489905
 50
53.275239761578348
 51
74.0693462104078861
  0
ARC
  5
A84C
  8
0
 10
4258.7225163547245756
 20
96.4897850447651564
 30
0.0
 40
0.1578901312970886
 50
244.848279819119
 51
254.0693462104079003
  0
ARC
  5
A84D
  8
0
 10
4258.6975587931929113
 20
96.4366313138082347
 30
0.0
 40
0.099168763872134
 50
209.1144477545890936
 51
244.8482798191186021
  0
ARC
  5
A84E
  8
0
 10
4258.7193597874584157
 20
96.4413666421325786
 30
0.0
 40
0.120692758362169
 50
181.301974001529203
 51
206.0413279795741914
  0
ARC
  5
A84F
  8
0
 10
4258.2412725678586867
 20
95.8339466804406754
 30
0.0
 40
0.015
 50
270.0
 51
304.9999999977525249
  0
ARC
  5
A850
  8
0
 10
4262.3819769961382917
 20
89.7634552353679851
 30
0.0
 40
7.3317124222277688
 50
124.7654632708530045
 51
127.8854686012125939
  0
ARC
  5
A851
  8
0
 10
4259.1653129493606684
 20
93.896538705341186
 30
0.0
 40
2.0944130170783271
 50
127.8675586640874968
 51
139.3258686184614987
  0
ARC
  5
A852
  8
0
 10
4258.7558902039909299
 20
94.2483763371096757
 30
0.0
 40
1.554582762687839
 50
139.3258686184614987
 51
156.4227623165882051
  0
ARC
  5
A853
  8
0
 10
4259.7930673922674032
 20
93.795735375615493
 30
0.0
 40
2.686227742308342
 50
156.4227623165882051
 51
164.4980350101430133
  0
ARC
  5
A854
  8
0
 10
4259.0707577933817447
 20
93.9960762332369342
 30
0.0
 40
1.9366494502846221
 50
164.4980350101438091
 51
171.2150230651321863
  0
ARC
  5
A855
  8
0
 10
4257.1469455377027771
 20
94.2933816102406865
 30
0.0
 40
0.01
 50
269.9999999999478746
 51
351.215023065167486
  0
ARC
  5
A856
  8
0
 10
4258.1898788242533556
 20
95.8028250965956829
 30
0.0
 40
0.02
 50
304.8205837012916959
 51
50.0000014168020428
  0
ARC
  5
A857
  8
0
 10
4264.9667760116499267
 20
92.8838990895367544
 30
0.0
 40
7.9364223761291193
 50
170.0246831158291911
 51
171.6814873535973902
  0
ARC
  5
A858
  8
0
 10
4257.1404790700344165
 20
94.2603816102406853
 30
0.0
 40
0.01
 50
350.1863252910483766
 51
90.0
  0
ARC
  5
A859
  8
0
 10
4264.0753974231965913
 20
93.2132049517281871
 30
0.0
 40
7.0095447478322033
 50
173.2909914921498
 51
176.7229865760454004
  0
ARC
  5
A85A
  8
0
 10
4263.4273538201923657
 20
93.2503100628815957
 30
0.0
 40
6.3604397481057928
 50
176.7229865760454004
 51
179.057411701382506
  0
ARC
  5
A85B
  8
0
 10
4257.1798323293805879
 20
93.3530989946402201
 30
0.0
 40
0.1120727340266696
 50
179.057411701382506
 51
190.2157738657228947
  0
ARC
  5
A85C
  8
0
 10
4257.0966630546308807
 20
93.3381108407296551
 30
0.0
 40
0.0275637225532769
 50
190.2157738657220989
 51
248.3565307224899072
  0
ARC
  5
A85D
  8
0
 10
4258.1794664488643321
 20
96.111319186260431
 30
0.0
 40
3.0046672237876382
 50
248.6688735191592912
 51
250.4046708899550993
  0
ARC
  5
A85E
  8
0
 10
4256.4333347945321293
 20
91.9232652113068553
 30
0.0
 40
1.7526511856783431
 50
67.1160788164498427
 51
68.5523098805520732
  0
LINE
  5
A85F
  8
0
 10
4257.1717768702310423
 20
93.2805737052886172
 30
0.0
 11
4257.1717768702310423
 21
93.4522007047851986
 31
0.0
  0
ARC
  5
A860
  8
0
 10
4257.0786768702309928
 20
93.4522007047851986
 30
0.0
 40
0.0931
 50
0.0
 51
67.1160788164485922
  0
LINE
  5
A861
  8
0
 10
4257.0109225981968848
 20
94.2733816103406781
 30
0.0
 11
4257.0109225981968848
 21
94.2703816102406762
 31
0.0
  0
ARC
  5
A862
  8
0
 10
4257.0209225981961936
 20
94.2733816103406781
 30
0.0
 40
0.0099999999999936
 50
90.0
 51
180.0
  0
LINE
  5
A864
  8
0
 10
4258.7057338470685863
 20
96.1408543504915798
 30
0.0
 11
4254.666548812383553
 21
96.1408543504915798
 31
0.0
  0
LINE
  5
A865
  8
0
 10
4258.6554104128863401
 20
96.3468651856450151
 30
0.0
 11
4254.7168722465676183
 21
96.3468651856450151
 31
0.0
  0
ENDSEC
  0
EOF
