  0
SECTION
  2
HEADER
  9
$ACADVER
  1
AC1009
  9
$INSBASE
 10
4298.2896715114047765
 20
587.0435419628015552
 30
0.0
  9
$EXTMIN
 10
4284.9996523605313996
 20
585.8973008664994495
 30
-0.0015258207003583
  9
$EXTMAX
 10
4311.6419276563829044
 20
588.2044098981017441
 30
0.0000000349246037
  9
$LIMMIN
 10
0.0
 20
0.0
  9
$LIMMAX
 10
11.6929133858000007
 20
8.2677165353999982
  9
$ORTHOMODE
 70
     0
  9
$REGENMODE
 70
     1
  9
$FILLMODE
 70
     1
  9
$QTEXTMODE
 70
     0
  9
$MIRRTEXT
 70
     0
  9
$DRAGMODE
 70
     2
  9
$LTSCALE
 40
0.6431102362
  9
$OSMODE
 70
     7
  9
$ATTMODE
 70
     1
  9
$TEXTSIZE
 40
0.2
  9
$TRACEWID
 40
0.05
  9
$TEXTSTYLE
  7
STANDARD
  9
$CLAYER
  8
0
  9
$CELTYPE
  6
BYLAYER
  9
$CECOLOR
 62
   256
  9
$DIMSCALE
 40
1.0
  9
$DIMASZ
 40
0.1875
  9
$DIMEXO
 40
0.0625
  9
$DIMDLI
 40
0.4443307087
  9
$DIMRND
 40
0.0
  9
$DIMDLE
 40
0.0
  9
$DIMEXE
 40
0.125
  9
$DIMTP
 40
0.01
  9
$DIMTM
 40
0.01
  9
$DIMTXT
 40
2.0
  9
$DIMCEN
 40
0.1052362205
  9
$DIMTSZ
 40
0.0
  9
$DIMTOL
 70
     1
  9
$DIMLIM
 70
     0
  9
$DIMTIH
 70
     1
  9
$DIMTOH
 70
     1
  9
$DIMSE1
 70
     0
  9
$DIMSE2
 70
     0
  9
$DIMTAD
 70
     0
  9
$DIMZIN
 70
     0
  9
$DIMBLK
  1

  9
$DIMASO
 70
     1
  9
$DIMSHO
 70
     1
  9
$DIMPOST
  1
\X
  9
$DIMAPOST
  1

  9
$DIMALT
 70
     1
  9
$DIMALTD
 70
     2
  9
$DIMALTF
 40
25.3999999999999986
  9
$DIMLFAC
 40
1.0
  9
$DIMTOFL
 70
     0
  9
$DIMTVP
 40
0.0
  9
$DIMTIX
 70
     0
  9
$DIMSOXD
 70
     0
  9
$DIMSAH
 70
     0
  9
$DIMBLK1
  1

  9
$DIMBLK2
  1

  9
$DIMSTYLE
  2
STANDARD
  9
$DIMCLRD
 70
     0
  9
$DIMCLRE
 70
     0
  9
$DIMCLRT
 70
     0
  9
$DIMTFAC
 40
1.0
  9
$DIMGAP
 40
0.09
  9
$LUNITS
 70
     2
  9
$LUPREC
 70
     4
  9
$SKETCHINC
 40
0.1
  9
$FILLETRAD
 40
0.0
  9
$AUNITS
 70
     0
  9
$AUPREC
 70
     0
  9
$MENU
  1
.
  9
$ELEVATION
 40
0.0
  9
$PELEVATION
 40
0.0
  9
$THICKNESS
 40
0.0
  9
$LIMCHECK
 70
     0
  9
$BLIPMODE
 70
     0
  9
$CHAMFERA
 40
0.0
  9
$CHAMFERB
 40
0.0
  9
$SKPOLY
 70
     0
  9
$TDCREATE
 40
2458060.468368056230247
  9
$TDUPDATE
 40
2459681.5546875
  9
$TDINDWG
 40
4.6769167824000002
  9
$TDUSRTIMER
 40
4.6769167824000002
  9
$USRTIMER
 70
     1
  9
$ANGBASE
 50
0.0
  9
$ANGDIR
 70
     0
  9
$PDMODE
 70
     0
  9
$PDSIZE
 40
0.3125
  9
$PLINEWID
 40
0.0
  9
$COORDS
 70
     1
  9
$SPLFRAME
 70
     0
  9
$SPLINETYPE
 70
     6
  9
$SPLINESEGS
 70
     8
  9
$ATTDIA
 70
     1
  9
$ATTREQ
 70
     1
  9
$HANDLING
 70
     1
  9
$HANDSEED
  5
2292C
  9
$SURFTAB1
 70
     6
  9
$SURFTAB2
 70
     6
  9
$SURFTYPE
 70
     6
  9
$SURFU
 70
     6
  9
$SURFV
 70
     6
  9
$UCSNAME
  2

  9
$UCSORG
 10
0.0
 20
0.0
 30
0.0
  9
$UCSXDIR
 10
1.0
 20
0.0
 30
0.0
  9
$UCSYDIR
 10
0.0
 20
1.0
 30
0.0
  9
$PUCSNAME
  2

  9
$PUCSORG
 10
0.0
 20
0.0
 30
0.0
  9
$PUCSXDIR
 10
1.0
 20
0.0
 30
0.0
  9
$PUCSYDIR
 10
0.0
 20
1.0
 30
0.0
  9
$USERI1
 70
     0
  9
$USERI2
 70
     0
  9
$USERI3
 70
     0
  9
$USERI4
 70
     0
  9
$USERI5
 70
     0
  9
$USERR1
 40
0.0
  9
$USERR2
 40
0.0
  9
$USERR3
 40
0.0
  9
$USERR4
 40
0.0
  9
$USERR5
 40
0.0
  9
$WORLDVIEW
 70
     1
  9
$SHADEDGE
 70
     3
  9
$SHADEDIF
 70
    70
  9
$TILEMODE
 70
     1
  9
$MAXACTVP
 70
    64
  9
$PLIMCHECK
 70
     0
  9
$PEXTMIN
 10
1.0000000000000000E+20
 20
1.0000000000000000E+20
 30
1.0000000000000000E+20
  9
$PEXTMAX
 10
-1.0000000000000000E+20
 20
-1.0000000000000000E+20
 30
-1.0000000000000000E+20
  9
$PLIMMIN
 10
0.0
 20
0.0
  9
$PLIMMAX
 10
12.0
 20
9.0
  9
$UNITMODE
 70
     0
  9
$VISRETAIN
 70
     1
  9
$PLINEGEN
 70
     0
  9
$PSLTSCALE
 70
     1
  0
ENDSEC
  0
SECTION
  2
TABLES
  0
TABLE
  2
VPORT
 70
     1
  0
VPORT
  2
*ACTIVE
 70
     0
 10
0.0
 20
0.0
 11
1.0
 21
1.0
 12
61.889393524082152
 22
-11.6777555309826102
 13
0.0
 23
0.0
 14
1.0
 24
1.0
 15
0.0
 25
0.0
 16
0.0
 26
0.0
 36
98.7941898181710343
 17
4236.431396484375
 27
598.728610913283319
 37
0.0
 40
11.7056594803890093
 41
2.2831541218637992
 42
50.0
 43
0.0
 44
0.0
 50
0.0
 51
0.0
 71
     0
 72
   100
 73
     1
 74
     1
 75
     0
 76
     0
 77
     0
 78
     0
  0
ENDTAB
  0
TABLE
  2
LTYPE
 70
     2
  0
LTYPE
  2
CONTINUOUS
 70
     0
  3
Solid line
 72
    65
 73
     0
 40
0.0
  0
LTYPE
  2
PHANTOM2
 70
     0
  3
___ _ _ ___ _ _ ___ _ _ ___ _ _
 72
    65
 73
     6
 40
1.25
 49
0.625
 49
-0.125
 49
0.125
 49
-0.125
 49
0.125
 49
-0.125
  0
ENDTAB
  0
TABLE
  2
LAYER
 70
     2
  0
LAYER
  2
0
 70
     0
 62
   255
  6
CONTINUOUS
  0
LAYER
  2
DEFPOINTS
 70
     0
 62
     7
  6
CONTINUOUS
  0
ENDTAB
  0
TABLE
  2
STYLE
 70
     1
  0
STYLE
  2
STANDARD
 70
     0
 40
0.0
 41
0.8
 50
0.0
 71
     0
 42
0.2
  3
txt
  4

  0
ENDTAB
  0
TABLE
  2
VIEW
 70
     0
  0
ENDTAB
  0
TABLE
  2
UCS
 70
     0
  0
ENDTAB
  0
TABLE
  2
APPID
 70
    10
  0
APPID
  2
ACAD
 70
     0
  0
APPID
  2
ACAD_MLEADERVER
 70
     0
  0
APPID
  2
ACAD_EXEMPT_FROM_CAD_STANDARDS
 70
     0
  0
APPID
  2
ACAD_NAV_VCDISPLAY
 70
     0
  0
APPID
  2
ACAECLAYERSTANDARD
 70
     0
  0
APPID
  2
ACCMTRANSPARENCY
 70
     0
  0
APPID
  2
ACAD_DSTYLE_DIMJAG
 70
     0
  0
APPID
  2
ACAD_DSTYLE_DIMTALN
 70
     0
  0
APPID
  2
ACDBATTR
 70
     0
  0
APPID
  2
DCO15
 70
     0
  0
ENDTAB
  0
TABLE
  2
DIMSTYLE
 70
     1
  0
DIMSTYLE
  2
STANDARD
 70
     0
  3

  4

  5

  6

  7

 40
1.0
 41
0.1875
 42
0.0625
 43
0.38
 44
0.125
 45
0.0
 46
0.0
 47
0.01
 48
0.01
140
0.15625
141
0.09
142
0.0
143
25.3999999999999986
144
1.0
145
0.0
146
1.0
147
0.09
 71
     1
 72
     0
 73
     1
 74
     1
 75
     0
 76
     0
 77
     0
 78
     4
170
     0
171
     2
172
     0
173
     0
174
     0
175
     0
176
     0
177
     0
178
     0
  0
ENDTAB
  0
ENDSEC
  0
SECTION
  2
BLOCKS
  0
BLOCK
  8
0
  2
$MODEL_SPACE
 70
     0
 10
0.0
 20
0.0
 30
0.0
  3
$MODEL_SPACE
  1

  0
ENDBLK
  5
21
  8
0
  0
BLOCK
 67
     1
  8
0
  2
$PAPER_SPACE
 70
     0
 10
0.0
 20
0.0
 30
0.0
  3
$PAPER_SPACE
  1

  0
ENDBLK
  5
1D
 67
     1
  8
0
  0
ENDSEC
  0
SECTION
  2
ENTITIES
  0
ATTDEF
  5
3930
  8
DEFPOINTS
 10
4298.289974602723305
 20
587.0471620703095823
 30
0.0
 40
0.001
  1
P25041-00
  3

  2
MODELNUMBER
 70
     0
1001
ACDBATTR
1070
     0
1070
     1
  0
ATTDEF
  5
3931
  8
DEFPOINTS
 10
4298.289974602723305
 20
587.0454954036429172
 30
0.0
 40
0.001
  1
SCRIPT
  3

  2
TRADENAME
 70
     0
1001
ACDBATTR
1070
     0
1070
     1
  0
ATTDEF
  5
3932
  8
DEFPOINTS
 10
4298.289974602723305
 20
587.043828736976252
 30
0.0
 40
0.001
  1
TOWEL BAR
  3

  2
PRODUCT
 70
     0
1001
ACDBATTR
1070
     0
1070
     1
  0
LINE
  5
22822
  8
0
 10
4286.9756603721352803
 20
587.4120074082707106
 30
0.0
 11
4286.9756603721352803
 21
586.6750765173323998
 31
0.0
  0
ARC
  5
22823
  8
0
 10
4286.289671511403867
 20
587.0435419628015552
 30
0.0
 40
0.8956218262999984
 50
24.7527615225044997
 51
335.2472384774955003
  0
ARC
  5
22824
  8
0
 10
4286.289671511403867
 20
587.0435419628015552
 30
0.0
 40
0.9345890040999993
 50
23.6560884286835709
 51
336.3439115713164256
  0
ARC
  5
22825
  8
0
 10
4286.289671511403867
 20
587.0435419628015552
 30
0.0
 40
1.143475010947129
 50
19.144256491071669
 51
340.8557435089284127
  0
ARC
  5
22826
  8
0
 10
4286.2035485878686814
 20
587.3126862508458998
 30
0.0
 40
0.0806988039480727
 50
86.8540181136123266
 51
155.9894049086958887
  0
ARC
  5
22827
  8
0
 10
4286.4003447320519626
 20
586.3314348287880193
 30
0.0
 40
1.079113156130544
 50
92.0041171540041347
 51
100.268678094341098
  0
ARC
  5
22828
  8
0
 10
4286.8314535547224295
 20
574.7942786159386515
 30
0.0
 40
12.6243184049111008
 50
89.8068493234762428
 51
89.8307829092297254
  0
ARC
  5
22829
  8
0
 10
4286.8314535547224295
 20
574.7942786159386515
 30
0.0
 40
12.6243184049111008
 50
90.1692170907702604
 51
92.128362292549113
  0
ARC
  5
2282A
  8
0
 10
4286.9656197012045595
 20
587.4075678457081722
 30
0.0
 40
0.0109783782267949
 50
23.8529994460782184
 51
88.403587401035324
  0
LINE
  5
2282B
  8
0
 10
4309.5952473614606788
 20
587.4185419628015552
 30
0.0
 11
4286.9840956613479648
 21
587.4185419628015552
 31
0.0
  0
LINE
  5
2282C
  8
0
 10
4286.9659255484048117
 20
587.4185419628015552
 30
0.0
 11
4286.7941690052175545
 21
587.4185419628015552
 31
0.0
  0
ARC
  5
2282D
  8
0
 10
4286.9843835863766799
 20
587.4094585610007471
 30
0.0
 40
0.0090879639687451
 50
91.8155496704101068
 51
163.7120968087536141
  0
ARC
  5
2282E
  8
0
 10
4286.2035485878686814
 20
586.7743976747572106
 30
0.0
 40
0.0806988039480727
 50
204.0105950913039976
 51
273.1459818863876876
  0
ARC
  5
2282F
  8
0
 10
4286.4003447320519626
 20
587.7556490968149774
 30
0.0
 40
1.079113156130544
 50
259.7313219056588878
 51
267.9958828459958795
  0
ARC
  5
22830
  8
0
 10
4286.8314535547224295
 20
599.2928053096643453
 30
0.0
 40
12.6243184049111008
 50
270.169217090770303
 51
270.1931506765238282
  0
ARC
  5
22831
  8
0
 10
4286.8314535547224295
 20
599.2928053096643453
 30
0.0
 40
12.6243184049111008
 50
267.8716377074508728
 51
269.8307829092298107
  0
ARC
  5
22832
  8
0
 10
4286.9656197012045595
 20
586.6795160798950519
 30
0.0
 40
0.0109783782267949
 50
271.5964125989647187
 51
336.1470005539218278
  0
LINE
  5
22833
  8
0
 10
4309.5952473614606788
 20
586.6685419628015552
 30
0.0
 11
4286.9840956613479648
 21
586.6685419628015552
 31
0.0
  0
LINE
  5
22834
  8
0
 10
4286.9659255484048117
 20
586.6685419628015552
 30
0.0
 11
4286.7941690052175545
 21
586.6685419628015552
 31
0.0
  0
ARC
  5
22835
  8
0
 10
4286.9843835863766799
 20
586.6776253646022496
 30
0.0
 40
0.0090879639687451
 50
196.2879031912463006
 51
268.1844503295898789
  0
ARC
  5
22836
  8
0
 10
4286.847822919860846
 20
587.0435419628015552
 30
0.0
 40
0.7789111792565099
 50
157.1887599411500105
 51
202.8112400588499895
  0
ARC
  5
22837
  8
0
 10
4286.2852519714397204
 20
586.3555762459018297
 30
0.0
 40
0.2604215918935117
 50
92.2562486549115022
 51
100.1039612626530015
  0
ARC
  5
22838
  8
0
 10
4286.2621420467667122
 20
586.4852626889853582
 30
0.0
 40
0.1286921641330922
 50
100.1039612626530015
 51
111.9427120146815042
  0
ARC
  5
22839
  8
0
 10
4286.2272887906719916
 20
586.5733587986991324
 30
0.0
 40
0.0339591234346465
 50
112.9403728797489066
 51
133.0515602935469985
  0
ARC
  5
2283A
  8
0
 10
4286.2113836307844394
 20
586.5932794051204837
 30
0.0
 40
0.0087701850157571
 50
146.0752446318093973
 51
213.7854383401615053
  0
ARC
  5
2283B
  8
0
 10
4286.245017717884366
 20
586.6092382986463463
 30
0.0
 40
0.0459221340344552
 50
206.9826993520960912
 51
233.7442680472566963
  0
ARC
  5
2283C
  8
0
 10
4286.2832674651162961
 20
586.6621226115277068
 30
0.0
 40
0.1111886408222402
 50
233.9664832326274961
 51
254.0775922697013982
  0
ARC
  5
2283D
  8
0
 10
4286.2940909650533285
 20
586.3555762459018297
 30
0.0
 40
0.2604215918935117
 50
79.8960387373469558
 51
87.7437513450885263
  0
ARC
  5
2283E
  8
0
 10
4286.3172008897263368
 20
586.4852626889853582
 30
0.0
 40
0.1286921641330922
 50
68.0572879853184958
 51
79.8960387373469558
  0
ARC
  5
2283F
  8
0
 10
4286.3520541458210573
 20
586.5733587986991324
 30
0.0
 40
0.0339591234346465
 50
46.9484397064529873
 51
67.0596271202510366
  0
ARC
  5
22840
  8
0
 10
4286.3679593057077
 20
586.5932794051204837
 30
0.0
 40
0.0087701850157571
 50
326.2145616598385232
 51
33.9247553681906027
  0
ARC
  5
22841
  8
0
 10
4286.3343252186095924
 20
586.6092382986463463
 30
0.0
 40
0.0459221340344552
 50
306.25573195274319
 51
333.0173006479038804
  0
ARC
  5
22842
  8
0
 10
4286.2960754713758433
 20
586.6621226115277068
 30
0.0
 40
0.1111886408222402
 50
285.9224077302985734
 51
306.0335167673724754
  0
ARC
  5
22843
  8
0
 10
4286.289671468245615
 20
586.2347610222733465
 30
0.0
 40
0.3813172954299105
 50
87.7948807763987986
 51
92.2051192236012014
  0
ARC
  5
22844
  8
0
 10
4286.289671468245615
 20
586.6779095333165515
 30
0.0
 40
0.1281397582149533
 50
253.2604710905984859
 51
286.7395289094014856
  0
LINE
  5
22845
  8
0
 10
4309.6036826506733632
 20
587.4120074082707106
 30
0.0
 11
4309.6036826506733632
 21
586.6750765173323998
 31
0.0
  0
ARC
  5
22846
  8
0
 10
4310.289671511403867
 20
587.0435419628015552
 30
0.0
 40
0.8956218262999984
 50
204.7527615225044997
 51
155.2472384774955003
  0
ARC
  5
22847
  8
0
 10
4310.289671511403867
 20
587.0435419628015552
 30
0.0
 40
0.9345890040999993
 50
203.6560884286836028
 51
156.3439115713163972
  0
ARC
  5
22848
  8
0
 10
4310.289671511403867
 20
587.0435419628015552
 30
0.0
 40
1.143475010947129
 50
199.1442564910715873
 51
160.855743508928299
  0
ARC
  5
22849
  8
0
 10
4310.3757944349408717
 20
587.3126862508458998
 30
0.0
 40
0.0806988039480727
 50
24.0105950913040402
 51
93.1459818863876592
  0
ARC
  5
2284A
  8
0
 10
4310.1789982907575904
 20
586.3314348287880193
 30
0.0
 40
1.079113156130544
 50
79.731321905658902
 51
87.9958828459958369
  0
ARC
  5
2284B
  8
0
 10
4309.7478894680871235
 20
574.7942786159386515
 30
0.0
 40
12.6243184049111008
 50
90.1692170907702604
 51
90.193150676523743
  0
ARC
  5
2284C
  8
0
 10
4309.7478894680871235
 20
574.7942786159386515
 30
0.0
 40
12.6243184049111008
 50
87.8716377074509012
 51
89.8307829092297254
  0
ARC
  5
2284D
  8
0
 10
4309.613723321604084
 20
587.4075678457081722
 30
0.0
 40
0.0109783782267949
 50
91.5964125989647044
 51
156.1470005539217141
  0
LINE
  5
2284E
  8
0
 10
4309.6134174744038319
 20
587.4185419628015552
 30
0.0
 11
4309.7851740175919986
 21
587.4185419628015552
 31
0.0
  0
ARC
  5
2284F
  8
0
 10
4309.5949594364337827
 20
587.4094585610007471
 30
0.0
 40
0.0090879639687451
 50
16.287903191246329
 51
88.1844503295898932
  0
ARC
  5
22850
  8
0
 10
4310.3757944349408717
 20
586.7743976747572106
 30
0.0
 40
0.0806988039480727
 50
266.8540181136123124
 51
335.989404908695974
  0
ARC
  5
22851
  8
0
 10
4310.1789982907575904
 20
587.7556490968149774
 30
0.0
 40
1.079113156130544
 50
272.0041171540041205
 51
280.2686780943411122
  0
ARC
  5
22852
  8
0
 10
4309.7478894680871235
 20
599.2928053096643453
 30
0.0
 40
12.6243184049111008
 50
269.8068493234761718
 51
269.8307829092298107
  0
ARC
  5
22853
  8
0
 10
4309.7478894680871235
 20
599.2928053096643453
 30
0.0
 40
12.6243184049111008
 50
270.169217090770303
 51
272.1283622925491272
  0
ARC
  5
22854
  8
0
 10
4309.613723321604084
 20
586.6795160798950519
 30
0.0
 40
0.0109783782267949
 50
203.8529994460782007
 51
268.4035874010352813
  0
LINE
  5
22855
  8
0
 10
4309.6134174744038319
 20
586.6685419628015552
 30
0.0
 11
4309.7851740175919986
 21
586.6685419628015552
 31
0.0
  0
ARC
  5
22856
  8
0
 10
4309.5949594364337827
 20
586.6776253646022496
 30
0.0
 40
0.0090879639687451
 50
271.8155496704101211
 51
343.7120968087535857
  0
ARC
  5
22857
  8
0
 10
4309.7315201029487071
 20
587.0435419628015552
 30
0.0
 40
0.7789111792565099
 50
337.1887599411500105
 51
22.8112400588500392
  0
ARC
  5
22858
  8
0
 10
4310.2940910513698327
 20
586.3555762459018297
 30
0.0
 40
0.2604215918935117
 50
79.8960387373469558
 51
87.7437513450885263
  0
ARC
  5
22859
  8
0
 10
4310.3172009760428409
 20
586.4852626889853582
 30
0.0
 40
0.1286921641330922
 50
68.0572879853184958
 51
79.8960387373469558
  0
ARC
  5
2285A
  8
0
 10
4310.352054232136652
 20
586.5733587986991324
 30
0.0
 40
0.0339591234346465
 50
46.9484397064529873
 51
67.0596271202510366
  0
ARC
  5
2285B
  8
0
 10
4310.3679593920251136
 20
586.5932794051204837
 30
0.0
 40
0.0087701850157571
 50
326.2145616598385232
 51
33.9247553681906027
  0
ARC
  5
2285C
  8
0
 10
4310.3343253049260966
 20
586.6092382986463463
 30
0.0
 40
0.0459221340344552
 50
306.25573195274319
 51
333.0173006479038804
  0
ARC
  5
2285D
  8
0
 10
4310.296075557693257
 20
586.6621226115277068
 30
0.0
 40
0.1111886408222402
 50
285.9224077302985734
 51
306.0335167673724754
  0
ARC
  5
2285E
  8
0
 10
4310.285252057757134
 20
586.3555762459018297
 30
0.0
 40
0.2604215918935117
 50
92.2562486549115022
 51
100.1039612626530015
  0
ARC
  5
2285F
  8
0
 10
4310.2621421330841258
 20
586.4852626889853582
 30
0.0
 40
0.1286921641330922
 50
100.1039612626530015
 51
111.9427120146815042
  0
ARC
  5
22860
  8
0
 10
4310.2272888769903147
 20
586.5733587986991324
 30
0.0
 40
0.0339591234346465
 50
112.9403728797489066
 51
133.0515602935469985
  0
ARC
  5
22861
  8
0
 10
4310.2113837171009436
 20
586.5932794051204837
 30
0.0
 40
0.0087701850157571
 50
146.0752446318093973
 51
213.7854383401615053
  0
ARC
  5
22862
  8
0
 10
4310.2450178041990512
 20
586.6092382986463463
 30
0.0
 40
0.0459221340344552
 50
206.9826993520960912
 51
233.7442680472566963
  0
ARC
  5
22863
  8
0
 10
4310.2832675514328002
 20
586.6621226115277068
 30
0.0
 40
0.1111886408222402
 50
233.9664832326274961
 51
254.0775922697013982
  0
ARC
  5
22864
  8
0
 10
4310.2896715545630286
 20
586.2347610222733465
 30
0.0
 40
0.3813172954299105
 50
87.7948807763987986
 51
92.2051192236012014
  0
ARC
  5
22865
  8
0
 10
4310.2896715545630286
 20
586.6779095333165515
 30
0.0
 40
0.1281397582149533
 50
253.2604710905984859
 51
286.7395289094014856
  0
VIEWPORT
  5
7BC8
 67
     1
  8
0
 10
8.4975296442687753
 20
4.5
 30
0.0
 40
16.9950592885375507
 41
9.0
 68
     1
 69
     1
1001
ACAD
1000
MVIEW
1002
{
1070
    16
1010
0.0
1020
0.0
1030
0.0
1010
0.0
1020
0.0
1030
1.0
1040
0.0
1040
9.0
1040
8.4975296442687753
1040
4.5
1040
50.0
1040
0.0
1040
0.0
1070
     0
1070
   100
1070
     1
1070
     1
1070
     0
1070
     0
1070
     0
1070
     0
1040
0.0
1040
0.0
1040
0.0
1040
1.0
1040
1.0
1040
0.0
1040
0.0
1070
     0
1002
{
1002
}
1002
}
  0
ENDSEC
  0
EOF
