  0
SECTION
  2
HEADER
  9
$ACADVER
  1
AC1009
  9
$INSBASE
 10
497.9653302484143751
 20
-4.3234031379502857
 30
0.0
  9
$EXTMIN
 10
492.8220384373158822
 20
-10.8580534869389798
 30
0.0
  9
$EXTMAX
 10
503.1086220595128111
 20
-3.1799497579071252
 30
0.0
  9
$LIMMIN
 10
0.0
 20
0.0
  9
$LIMMAX
 10
11.6929133858000007
 20
8.2677165353999982
  9
$ORTHOMODE
 70
     0
  9
$REGENMODE
 70
     1
  9
$FILLMODE
 70
     1
  9
$QTEXTMODE
 70
     0
  9
$MIRRTEXT
 70
     0
  9
$DRAGMODE
 70
     2
  9
$LTSCALE
 40
0.6431102362
  9
$OSMODE
 70
  4095
  9
$ATTMODE
 70
     1
  9
$TEXTSIZE
 40
0.2
  9
$TRACEWID
 40
0.05
  9
$TEXTSTYLE
  7
STANDARD
  9
$CLAYER
  8
0
  9
$CELTYPE
  6
BYLAYER
  9
$CECOLOR
 62
   256
  9
$DIMSCALE
 40
1.0
  9
$DIMASZ
 40
0.1875
  9
$DIMEXO
 40
0.0625
  9
$DIMDLI
 40
0.4443307087
  9
$DIMRND
 40
0.0
  9
$DIMDLE
 40
0.0
  9
$DIMEXE
 40
0.125
  9
$DIMTP
 40
0.01
  9
$DIMTM
 40
0.01
  9
$DIMTXT
 40
1.0
  9
$DIMCEN
 40
0.1052362205
  9
$DIMTSZ
 40
0.0
  9
$DIMTOL
 70
     1
  9
$DIMLIM
 70
     0
  9
$DIMTIH
 70
     1
  9
$DIMTOH
 70
     1
  9
$DIMSE1
 70
     0
  9
$DIMSE2
 70
     0
  9
$DIMTAD
 70
     0
  9
$DIMZIN
 70
     0
  9
$DIMBLK
  1

  9
$DIMASO
 70
     1
  9
$DIMSHO
 70
     1
  9
$DIMPOST
  1
\X
  9
$DIMAPOST
  1

  9
$DIMALT
 70
     1
  9
$DIMALTD
 70
     2
  9
$DIMALTF
 40
25.3999999999999986
  9
$DIMLFAC
 40
1.0
  9
$DIMTOFL
 70
     0
  9
$DIMTVP
 40
0.0
  9
$DIMTIX
 70
     0
  9
$DIMSOXD
 70
     0
  9
$DIMSAH
 70
     0
  9
$DIMBLK1
  1

  9
$DIMBLK2
  1

  9
$DIMSTYLE
  2
STANDARD
  9
$DIMCLRD
 70
     0
  9
$DIMCLRE
 70
     0
  9
$DIMCLRT
 70
     0
  9
$DIMTFAC
 40
1.0
  9
$DIMGAP
 40
0.09
  9
$LUNITS
 70
     2
  9
$LUPREC
 70
     4
  9
$SKETCHINC
 40
0.1
  9
$FILLETRAD
 40
0.0
  9
$AUNITS
 70
     0
  9
$AUPREC
 70
     0
  9
$MENU
  1
.
  9
$ELEVATION
 40
0.0
  9
$PELEVATION
 40
0.0
  9
$THICKNESS
 40
0.0
  9
$LIMCHECK
 70
     0
  9
$BLIPMODE
 70
     0
  9
$CHAMFERA
 40
0.0
  9
$CHAMFERB
 40
0.0
  9
$SKPOLY
 70
     0
  9
$TDCREATE
 40
2458172.4620254631154239
  9
$TDUPDATE
 40
2459727.6699652778916061
  9
$TDINDWG
 40
0.1690337153
  9
$TDUSRTIMER
 40
0.1690337153
  9
$USRTIMER
 70
     1
  9
$ANGBASE
 50
0.0
  9
$ANGDIR
 70
     0
  9
$PDMODE
 70
     0
  9
$PDSIZE
 40
0.3125
  9
$PLINEWID
 40
0.0
  9
$COORDS
 70
     1
  9
$SPLFRAME
 70
     0
  9
$SPLINETYPE
 70
     6
  9
$SPLINESEGS
 70
     8
  9
$ATTDIA
 70
     1
  9
$ATTREQ
 70
     1
  9
$HANDLING
 70
     1
  9
$HANDSEED
  5
E178
  9
$SURFTAB1
 70
     6
  9
$SURFTAB2
 70
     6
  9
$SURFTYPE
 70
     6
  9
$SURFU
 70
     6
  9
$SURFV
 70
     6
  9
$UCSNAME
  2

  9
$UCSORG
 10
0.0
 20
0.0
 30
0.0
  9
$UCSXDIR
 10
1.0
 20
0.0
 30
0.0
  9
$UCSYDIR
 10
0.0
 20
1.0
 30
0.0
  9
$PUCSNAME
  2

  9
$PUCSORG
 10
0.0
 20
0.0
 30
0.0
  9
$PUCSXDIR
 10
1.0
 20
0.0
 30
0.0
  9
$PUCSYDIR
 10
0.0
 20
1.0
 30
0.0
  9
$USERI1
 70
     0
  9
$USERI2
 70
     0
  9
$USERI3
 70
     0
  9
$USERI4
 70
     0
  9
$USERI5
 70
     0
  9
$USERR1
 40
0.0
  9
$USERR2
 40
0.0
  9
$USERR3
 40
0.0
  9
$USERR4
 40
0.0
  9
$USERR5
 40
0.0
  9
$WORLDVIEW
 70
     1
  9
$SHADEDGE
 70
     3
  9
$SHADEDIF
 70
    70
  9
$TILEMODE
 70
     1
  9
$MAXACTVP
 70
    64
  9
$PLIMCHECK
 70
     0
  9
$PEXTMIN
 10
1.0000000000000000E+20
 20
1.0000000000000000E+20
 30
1.0000000000000000E+20
  9
$PEXTMAX
 10
-1.0000000000000000E+20
 20
-1.0000000000000000E+20
 30
-1.0000000000000000E+20
  9
$PLIMMIN
 10
0.0
 20
0.0
  9
$PLIMMAX
 10
12.0
 20
9.0
  9
$UNITMODE
 70
     0
  9
$VISRETAIN
 70
     1
  9
$PLINEGEN
 70
     0
  9
$PSLTSCALE
 70
     1
  0
ENDSEC
  0
SECTION
  2
TABLES
  0
TABLE
  2
VPORT
 70
     1
  0
VPORT
  2
*ACTIVE
 70
     0
 10
0.0
 20
0.0
 11
1.0
 21
1.0
 12
373.3541716483417758
 22
-12.3312757928008807
 13
0.0
 23
0.0
 14
1.0
 24
1.0
 15
0.0
 25
0.0
 16
0.0
 26
0.0
 36
30.6214257250603907
 17
124.6111586000725993
 27
5.3122741703778242
 37
0.0
 40
7.7261920613639994
 41
2.005224660397074
 42
50.0
 43
0.0
 44
0.0
 50
0.0
 51
0.0
 71
     0
 72
   100
 73
     1
 74
     1
 75
     0
 76
     0
 77
     0
 78
     0
  0
ENDTAB
  0
TABLE
  2
LTYPE
 70
     2
  0
LTYPE
  2
CONTINUOUS
 70
     0
  3
Solid line
 72
    65
 73
     0
 40
0.0
  0
LTYPE
  2
PHANTOM2
 70
     0
  3
___ _ _ ___ _ _ ___ _ _ ___ _ _
 72
    65
 73
     6
 40
1.25
 49
0.625
 49
-0.125
 49
0.125
 49
-0.125
 49
0.125
 49
-0.125
  0
ENDTAB
  0
TABLE
  2
LAYER
 70
     2
  0
LAYER
  2
0
 70
     0
 62
   255
  6
CONTINUOUS
  0
LAYER
  2
DEFPOINTS
 70
     0
 62
     7
  6
CONTINUOUS
  0
ENDTAB
  0
TABLE
  2
STYLE
 70
     1
  0
STYLE
  2
STANDARD
 70
     0
 40
0.0
 41
0.8
 50
0.0
 71
     0
 42
0.2
  3
txt
  4

  0
ENDTAB
  0
TABLE
  2
VIEW
 70
     0
  0
ENDTAB
  0
TABLE
  2
UCS
 70
     0
  0
ENDTAB
  0
TABLE
  2
APPID
 70
    11
  0
APPID
  2
ACAD
 70
     0
  0
APPID
  2
ACAD_MLEADERVER
 70
     0
  0
APPID
  2
ACAD_EXEMPT_FROM_CAD_STANDARDS
 70
     0
  0
APPID
  2
ACAD_DSTYLE_DIMJAG
 70
     0
  0
APPID
  2
ACAD_DSTYLE_DIMTALN
 70
     0
  0
APPID
  2
ACAD_NAV_VCDISPLAY
 70
     0
  0
APPID
  2
ACAECLAYERSTANDARD
 70
     0
  0
APPID
  2
ACCMTRANSPARENCY
 70
     0
  0
APPID
  2
ACDBATTR
 70
     0
  0
APPID
  2
GRADIENTCOLOR1ACI
 70
     0
  0
APPID
  2
GRADIENTCOLOR2ACI
 70
     0
  0
ENDTAB
  0
TABLE
  2
DIMSTYLE
 70
     1
  0
DIMSTYLE
  2
STANDARD
 70
     0
  3

  4

  5

  6

  7

 40
1.0
 41
0.1875
 42
0.0625
 43
0.38
 44
0.125
 45
0.0
 46
0.0
 47
0.01
 48
0.01
140
0.15625
141
0.09
142
0.0
143
25.3999999999999986
144
1.0
145
0.0
146
1.0
147
0.09
 71
     1
 72
     0
 73
     1
 74
     1
 75
     0
 76
     0
 77
     0
 78
     4
170
     0
171
     2
172
     0
173
     0
174
     0
175
     0
176
     0
177
     0
178
     0
  0
ENDTAB
  0
ENDSEC
  0
SECTION
  2
BLOCKS
  0
BLOCK
  8
0
  2
$MODEL_SPACE
 70
     0
 10
0.0
 20
0.0
 30
0.0
  3
$MODEL_SPACE
  1

  0
ENDBLK
  5
21
  8
0
  0
BLOCK
 67
     1
  8
0
  2
$PAPER_SPACE
 70
     0
 10
0.0
 20
0.0
 30
0.0
  3
$PAPER_SPACE
  1

  0
ENDBLK
  5
1D
 67
     1
  8
0
  0
ENDSEC
  0
SECTION
  2
ENTITIES
  0
ATTDEF
  5
7EBB
  8
DEFPOINTS
 10
497.959177116212004
 20
-4.3253747848231798
 30
0.0
 40
0.001
  1
P25051-SLC
  3

  2
MODELNUMBER
 70
     0
1001
ACDBATTR
1070
     0
1070
     1
  0
ATTDEF
  5
7EBC
  8
DEFPOINTS
 10
497.959177116212004
 20
-4.327041451489845
 30
0.0
 40
0.001
  1
ONE
  3

  2
TRADENAME
 70
     0
1001
ACDBATTR
1070
     0
1070
     1
  0
ATTDEF
  5
7EBD
  8
DEFPOINTS
 10
497.959177116212004
 20
-4.328708118156511
 30
0.0
 40
0.001
  1
BATHROOM SINK FAUCET
  3

  2
PRODUCT
 70
     0
1001
ACDBATTR
1070
     0
1070
     1
  0
CIRCLE
  5
DF79
  8
0
 10
493.9653302484143751
 20
-4.3234031379502857
 30
0.0
 40
0.5615000000000001
  0
CIRCLE
  5
DF7A
  8
0
 10
493.9653302484143751
 20
-4.3234031379502857
 30
0.0
 40
0.5935000000000002
  0
CIRCLE
  5
DF7B
  8
0
 10
493.9653302484143751
 20
-4.3234031379502857
 30
0.0
 40
0.6595
  0
CIRCLE
  5
DF7C
  8
0
 10
493.9653302484143751
 20
-4.3234031379502857
 30
0.0
 40
0.9252
  0
CIRCLE
  5
DF7D
  8
0
 10
493.9653302484143751
 20
-4.3234031379502857
 30
0.0
 40
0.9275
  0
CIRCLE
  5
DF7E
  8
0
 10
493.9653302484143751
 20
-4.3234031379502857
 30
0.0
 40
1.143291811098502
  0
ARC
  5
DF7F
  8
0
 10
497.9653302484143751
 20
-4.3234031379502857
 30
0.0
 40
0.8897526289599949
 50
304.1273813750509021
 51
235.8726186249490127
  0
ARC
  5
DF80
  8
0
 10
497.9653302484143751
 20
-4.3234031379502857
 30
0.0
 40
1.1434533800431601
 50
296.1548980513323954
 51
243.8451019486674909
  0
ARC
  5
DF81
  8
0
 10
497.9653302484143751
 20
-4.3234031379502857
 30
0.0
 40
0.9347573110999999
 50
302.3422900452333124
 51
237.6577099547666023
  0
CIRCLE
  5
DF82
  8
0
 10
501.9653302484143751
 20
-4.3234031379502857
 30
0.0
 40
0.5615000000000001
  0
CIRCLE
  5
DF83
  8
0
 10
501.9653302484143751
 20
-4.3234031379502857
 30
0.0
 40
0.5935000000000002
  0
CIRCLE
  5
DF84
  8
0
 10
501.9653302484143751
 20
-4.3234031379502857
 30
0.0
 40
0.6595
  0
CIRCLE
  5
DF85
  8
0
 10
501.9653302484143751
 20
-4.3234031379502857
 30
0.0
 40
0.9252
  0
CIRCLE
  5
DF86
  8
0
 10
501.9653302484143751
 20
-4.3234031379502857
 30
0.0
 40
0.9275
  0
CIRCLE
  5
DF87
  8
0
 10
501.9653302484143751
 20
-4.3234031379502857
 30
0.0
 40
1.143291811098502
  0
ARC
  5
DF89
  8
0
 10
497.9826936533845014
 20
-9.2213178358069552
 30
0.0
 40
1.636827748884631
 50
264.2162563084282851
 51
269.3921972042577977
  0
ARC
  5
DF8A
  8
0
 10
497.97121119102178
 20
-9.4999484537852439
 30
0.0
 40
1.3585605001554839
 50
248.8638761217941067
 51
263.5138444773223227
  0
ARC
  5
DF8B
  8
0
 10
497.9530033429281843
 20
-9.5470467600673956
 30
0.0
 40
1.308065191592757
 50
242.1138803344620101
 51
248.8638761217941067
  0
ARC
  5
DF8C
  8
0
 10
475.1401773571968192
 20
-8.3966654915212189
 30
0.0
 40
22.24319780586303
 50
354.9155056762259051
 51
357.2001876493686723
  0
ARC
  5
DF8D
  8
0
 10
443.8807845057107215
 20
-6.6442075823732898
 30
0.0
 40
53.5513438756324618
 50
356.9611084139733066
 51
359.0469620206671948
  0
ARC
  5
DF8E
  8
0
 10
497.9653302484143751
 20
-4.7405226266393319
 30
0.0
 40
0.7701239040000506
 50
90.0001104405507562
 51
100.5089869723196045
  0
ARC
  5
DF8F
  8
0
 10
497.9654038418868254
 20
-4.7409193541896917
 30
0.0
 40
0.7705273996609751
 50
100.5089869723196045
 51
125.9078464987247941
  0
LINE
  5
DF90
  8
0
 10
497.4247203038606244
 20
-7.5349208526477289
 30
0.0
 11
497.4808869839299064
 21
-4.1794074126482661
 31
0.0
  0
ARC
  5
DF91
  8
0
 10
497.5597759330897247
 20
-4.1807279051593724
 30
0.0
 40
0.0789
 50
125.9078464987209998
 51
179.0410370057400087
  0
LINE
  5
DF92
  8
0
 10
497.295850091823695
 20
-10.3679631115812896
 30
0.0
 11
497.295850091823695
 21
-10.6279115783310694
 31
0.0
  0
ARC
  5
DF93
  8
0
 10
497.3810500918236812
 20
-10.62791157833108
 30
0.0
 40
0.0852
 50
179.9999999999988063
 51
242.1138803344620101
  0
LINE
  5
DF94
  8
0
 10
497.489457948552797
 20
-4.1449425582882284
 30
0.0
 11
497.138608112557904
 21
-3.994480273396916
 31
0.0
  0
LINE
  5
DF95
  8
0
 10
497.1607261841409127
 20
-4.7032347328653179
 30
0.0
 11
497.4755777208068253
 21
-4.4965937541625456
 31
0.0
  0
ARC
  5
DF96
  8
0
 10
497.9215308346203983
 20
-8.7478484895920445
 30
0.0
 40
2.1106594987057208
 50
271.189060434837188
 51
275.2024860524729206
  0
ARC
  5
DF97
  8
0
 10
497.9594493058070839
 20
-9.4999484537852439
 30
0.0
 40
1.3585605001554839
 50
276.4861555226776773
 51
291.1361238782058081
  0
ARC
  5
DF98
  8
0
 10
497.9776571539006227
 20
-9.5470467600673956
 30
0.0
 40
1.308065191592757
 50
291.1361238782058081
 51
297.8861196655379899
  0
ARC
  5
DF99
  8
0
 10
520.7904831396322152
 20
-8.3966654915212189
 30
0.0
 40
22.24319780586303
 50
182.799812350631214
 51
185.0844943237740949
  0
ARC
  5
DF9A
  8
0
 10
552.0498759911181423
 20
-6.6442075823732898
 30
0.0
 40
53.5513438756324618
 50
180.9530379793326915
 51
183.0388915860266934
  0
ARC
  5
DF9B
  8
0
 10
497.965283285608507
 20
-4.7410332850347556
 30
0.0
 40
0.7706345637359893
 50
79.4945047306118369
 51
89.9966187376082161
  0
ARC
  5
DF9C
  8
0
 10
497.9652566549420953
 20
-4.7409193541896917
 30
0.0
 40
0.7705273996609751
 50
54.0921535012751491
 51
79.4910130276803386
  0
LINE
  5
DF9D
  8
0
 10
498.5059401929682963
 20
-7.5349208526477289
 30
0.0
 11
498.4497735128990143
 21
-4.1794074126482661
 31
0.0
  0
ARC
  5
DF9E
  8
0
 10
498.3708845637393097
 20
-4.1807279051593724
 30
0.0
 40
0.0789
 50
0.9589629942600129
 51
54.0921535012790002
  0
LINE
  5
DF9F
  8
0
 10
498.6348104050052257
 20
-10.3679631115812896
 30
0.0
 11
498.6348104050052257
 21
-10.6279115783310694
 31
0.0
  0
ARC
  5
DFA0
  8
0
 10
498.5496104050051258
 20
-10.62791157833108
 30
0.0
 40
0.0852
 50
297.8861196655378194
 51
0.0000000000012213
  0
LINE
  5
DFA1
  8
0
 10
498.44120254827601
 20
-4.1449425582882284
 30
0.0
 11
498.7920523842710168
 21
-3.994480273396916
 31
0.0
  0
LINE
  5
DFA2
  8
0
 10
498.7699343126878944
 20
-4.7032347328653179
 30
0.0
 11
498.4550827760220955
 21
-4.4965937541625456
 31
0.0
  0
ENDSEC
  0
EOF
