  0
SECTION
  2
HEADER
  9
$ACADVER
  1
AC1009
  9
$INSBASE
 10
4733.4601470445486484
 20
485.9057873607688975
 30
0.0
  9
$EXTMIN
 10
4725.9586032347360742
 20
485.878224610262123
 30
-0.0000000000112498
  9
$EXTMAX
 10
4740.7887090215062926
 20
489.2752951196471258
 30
0.0000000000002956
  9
$LIMMIN
 10
0.0
 20
0.0
  9
$LIMMAX
 10
11.6929133858000007
 20
8.2677165353999982
  9
$ORTHOMODE
 70
     0
  9
$REGENMODE
 70
     1
  9
$FILLMODE
 70
     1
  9
$QTEXTMODE
 70
     0
  9
$MIRRTEXT
 70
     0
  9
$DRAGMODE
 70
     2
  9
$LTSCALE
 40
0.6431102362
  9
$OSMODE
 70
  4095
  9
$ATTMODE
 70
     1
  9
$TEXTSIZE
 40
0.2
  9
$TRACEWID
 40
0.05
  9
$TEXTSTYLE
  7
STANDARD
  9
$CLAYER
  8
0
  9
$CELTYPE
  6
BYLAYER
  9
$CECOLOR
 62
   256
  9
$DIMSCALE
 40
1.0
  9
$DIMASZ
 40
0.1875
  9
$DIMEXO
 40
0.0625
  9
$DIMDLI
 40
0.4443307087
  9
$DIMRND
 40
0.0
  9
$DIMDLE
 40
0.0
  9
$DIMEXE
 40
0.125
  9
$DIMTP
 40
0.01
  9
$DIMTM
 40
0.01
  9
$DIMTXT
 40
2.0
  9
$DIMCEN
 40
0.1052362205
  9
$DIMTSZ
 40
0.0
  9
$DIMTOL
 70
     1
  9
$DIMLIM
 70
     0
  9
$DIMTIH
 70
     1
  9
$DIMTOH
 70
     1
  9
$DIMSE1
 70
     0
  9
$DIMSE2
 70
     0
  9
$DIMTAD
 70
     0
  9
$DIMZIN
 70
     0
  9
$DIMBLK
  1

  9
$DIMASO
 70
     1
  9
$DIMSHO
 70
     1
  9
$DIMPOST
  1
\X
  9
$DIMAPOST
  1

  9
$DIMALT
 70
     1
  9
$DIMALTD
 70
     2
  9
$DIMALTF
 40
25.3999999999999986
  9
$DIMLFAC
 40
1.0
  9
$DIMTOFL
 70
     0
  9
$DIMTVP
 40
0.0
  9
$DIMTIX
 70
     0
  9
$DIMSOXD
 70
     0
  9
$DIMSAH
 70
     0
  9
$DIMBLK1
  1

  9
$DIMBLK2
  1

  9
$DIMSTYLE
  2
STANDARD
  9
$DIMCLRD
 70
     0
  9
$DIMCLRE
 70
     0
  9
$DIMCLRT
 70
     0
  9
$DIMTFAC
 40
1.0
  9
$DIMGAP
 40
0.09
  9
$LUNITS
 70
     2
  9
$LUPREC
 70
     4
  9
$SKETCHINC
 40
0.1
  9
$FILLETRAD
 40
0.0
  9
$AUNITS
 70
     0
  9
$AUPREC
 70
     0
  9
$MENU
  1
.
  9
$ELEVATION
 40
0.0
  9
$PELEVATION
 40
0.0
  9
$THICKNESS
 40
0.0
  9
$LIMCHECK
 70
     0
  9
$BLIPMODE
 70
     0
  9
$CHAMFERA
 40
0.0
  9
$CHAMFERB
 40
0.0
  9
$SKPOLY
 70
     0
  9
$TDCREATE
 40
2458060.468368056230247
  9
$TDUPDATE
 40
2459691.5584490741603076
  9
$TDINDWG
 40
1.5298497685000001
  9
$TDUSRTIMER
 40
1.5298497685000001
  9
$USRTIMER
 70
     1
  9
$ANGBASE
 50
0.0
  9
$ANGDIR
 70
     0
  9
$PDMODE
 70
     0
  9
$PDSIZE
 40
0.3125
  9
$PLINEWID
 40
0.0
  9
$COORDS
 70
     1
  9
$SPLFRAME
 70
     0
  9
$SPLINETYPE
 70
     6
  9
$SPLINESEGS
 70
     8
  9
$ATTDIA
 70
     1
  9
$ATTREQ
 70
     1
  9
$HANDLING
 70
     1
  9
$HANDSEED
  5
22F90
  9
$SURFTAB1
 70
     6
  9
$SURFTAB2
 70
     6
  9
$SURFTYPE
 70
     6
  9
$SURFU
 70
     6
  9
$SURFV
 70
     6
  9
$UCSNAME
  2

  9
$UCSORG
 10
0.0
 20
0.0
 30
0.0
  9
$UCSXDIR
 10
1.0
 20
0.0
 30
0.0
  9
$UCSYDIR
 10
0.0
 20
1.0
 30
0.0
  9
$PUCSNAME
  2

  9
$PUCSORG
 10
0.0
 20
0.0
 30
0.0
  9
$PUCSXDIR
 10
1.0
 20
0.0
 30
0.0
  9
$PUCSYDIR
 10
0.0
 20
1.0
 30
0.0
  9
$USERI1
 70
     0
  9
$USERI2
 70
     0
  9
$USERI3
 70
     0
  9
$USERI4
 70
     0
  9
$USERI5
 70
     0
  9
$USERR1
 40
0.0
  9
$USERR2
 40
0.0
  9
$USERR3
 40
0.0
  9
$USERR4
 40
0.0
  9
$USERR5
 40
0.0
  9
$WORLDVIEW
 70
     1
  9
$SHADEDGE
 70
     3
  9
$SHADEDIF
 70
    70
  9
$TILEMODE
 70
     1
  9
$MAXACTVP
 70
    64
  9
$PLIMCHECK
 70
     0
  9
$PEXTMIN
 10
1.0000000000000000E+20
 20
1.0000000000000000E+20
 30
1.0000000000000000E+20
  9
$PEXTMAX
 10
-1.0000000000000000E+20
 20
-1.0000000000000000E+20
 30
-1.0000000000000000E+20
  9
$PLIMMIN
 10
0.0
 20
0.0
  9
$PLIMMAX
 10
12.0
 20
9.0
  9
$UNITMODE
 70
     0
  9
$VISRETAIN
 70
     1
  9
$PLINEGEN
 70
     0
  9
$PSLTSCALE
 70
     1
  0
ENDSEC
  0
SECTION
  2
TABLES
  0
TABLE
  2
VPORT
 70
     1
  0
VPORT
  2
*ACTIVE
 70
     0
 10
0.0
 20
0.0
 11
1.0
 21
1.0
 12
822.0082996828085697
 22
354.9971547624156187
 13
0.0
 23
0.0
 14
1.0
 24
1.0
 15
0.0
 25
0.0
 16
0.0
 26
0.0
 36
60.4960186965801583
 17
3911.3653564453120453
 27
132.5796051025390057
 37
0.0
 40
8.9190429007385195
 41
1.67063492063492
 42
50.0
 43
0.0
 44
0.0
 50
0.0
 51
0.0
 71
     0
 72
   100
 73
     1
 74
     1
 75
     0
 76
     0
 77
     0
 78
     0
  0
ENDTAB
  0
TABLE
  2
LTYPE
 70
     2
  0
LTYPE
  2
CONTINUOUS
 70
     0
  3
Solid line
 72
    65
 73
     0
 40
0.0
  0
LTYPE
  2
PHANTOM2
 70
     0
  3
___ _ _ ___ _ _ ___ _ _ ___ _ _
 72
    65
 73
     6
 40
1.25
 49
0.625
 49
-0.125
 49
0.125
 49
-0.125
 49
0.125
 49
-0.125
  0
ENDTAB
  0
TABLE
  2
LAYER
 70
     2
  0
LAYER
  2
0
 70
     0
 62
   255
  6
CONTINUOUS
  0
LAYER
  2
DEFPOINTS
 70
     0
 62
     7
  6
CONTINUOUS
  0
ENDTAB
  0
TABLE
  2
STYLE
 70
     1
  0
STYLE
  2
STANDARD
 70
     0
 40
0.0
 41
0.8
 50
0.0
 71
     0
 42
0.2
  3
txt
  4

  0
ENDTAB
  0
TABLE
  2
VIEW
 70
     0
  0
ENDTAB
  0
TABLE
  2
UCS
 70
     0
  0
ENDTAB
  0
TABLE
  2
APPID
 70
    11
  0
APPID
  2
ACAD
 70
     0
  0
APPID
  2
ACAD_MLEADERVER
 70
     0
  0
APPID
  2
ACAD_EXEMPT_FROM_CAD_STANDARDS
 70
     0
  0
APPID
  2
ACAD_NAV_VCDISPLAY
 70
     0
  0
APPID
  2
ACAECLAYERSTANDARD
 70
     0
  0
APPID
  2
ACCMTRANSPARENCY
 70
     0
  0
APPID
  2
ACAD_DSTYLE_DIMJAG
 70
     0
  0
APPID
  2
ACAD_DSTYLE_DIMTALN
 70
     0
  0
APPID
  2
ACDBATTR
 70
     0
  0
APPID
  2
ACADANNOTATIVE
 70
     0
  0
APPID
  2
DCO15
 70
     0
  0
ENDTAB
  0
TABLE
  2
DIMSTYLE
 70
     1
  0
DIMSTYLE
  2
STANDARD
 70
     0
  3

  4

  5

  6

  7

 40
1.0
 41
0.1875
 42
0.0625
 43
0.38
 44
0.125
 45
0.0
 46
0.0
 47
0.01
 48
0.01
140
0.15625
141
0.09
142
0.0
143
25.3999999999999986
144
1.0
145
0.0
146
1.0
147
0.09
 71
     1
 72
     0
 73
     1
 74
     1
 75
     0
 76
     0
 77
     0
 78
     4
170
     0
171
     2
172
     0
173
     0
174
     0
175
     0
176
     0
177
     0
178
     0
  0
ENDTAB
  0
ENDSEC
  0
SECTION
  2
BLOCKS
  0
BLOCK
  8
0
  2
$MODEL_SPACE
 70
     0
 10
0.0
 20
0.0
 30
0.0
  3
$MODEL_SPACE
  1

  0
ENDBLK
  5
21
  8
0
  0
BLOCK
 67
     1
  8
0
  2
$PAPER_SPACE
 70
     0
 10
0.0
 20
0.0
 30
0.0
  3
$PAPER_SPACE
  1

  0
ENDBLK
  5
1D
 67
     1
  8
0
  0
ENDSEC
  0
SECTION
  2
ENTITIES
  0
ATTDEF
  5
159BF
  8
DEFPOINTS
 10
4733.4545279684380148
 20
485.9044248581950001
 30
0.0
 40
0.001
  1
P25054-SPR
  3

  2
MODELNUMBER
 70
     0
1001
ACDBATTR
1070
     0
1070
     1
  0
ATTDEF
  5
159C0
  8
DEFPOINTS
 10
4733.4545279684380148
 20
485.9027580178159269
 30
0.0
 40
0.001
  1
SCRIPT
  3

  2
TRADENAME
 70
     0
1001
ACDBATTR
1070
     0
1070
     1
  0
ATTDEF
  5
159C1
  8
DEFPOINTS
 10
4733.4545279684380148
 20
485.9010915248616129
 30
0.0
 40
0.001
  1
BATHROOM SINK FAUCET
  3

  2
PRODUCT
 70
     0
1001
ACDBATTR
1070
     0
1070
     1
  0
ARC
  5
22D1B
  8
0
 10
4733.4570023255855631
 20
487.4153292641003077
 30
0.0
 40
1.8469020002481811
 50
71.6951121017179105
 51
89.9024424623617762
  0
ARC
  5
22D1C
  8
0
 10
4734.0093514955860883
 20
489.0862046107628203
 30
0.0
 40
0.0870977498564331
 50
8.6050673991705491
 51
71.4464451681226791
  0
ARC
  5
22D1D
  8
0
 10
4727.617566266596441
 20
488.4303547212758758
 30
0.0
 40
6.5123439673458909
 50
0.8306643445685103
 51
5.8952356470097111
  0
ARC
  5
22D1E
  8
0
 10
4737.4049213277003219
 20
488.4181779749886232
 30
0.0
 40
3.277429172979621
 50
178.1363027727807093
 51
180.247487123886998
  0
ARC
  5
22D1F
  8
0
 10
4734.0833689259252424
 20
488.4130023696607168
 30
0.0
 40
0.0450579446456042
 50
291.510989696509796
 51
348.5026180669418068
  0
ARC
  5
22D20
  8
0
 10
4734.0521468137949341
 20
488.4888438103130852
 30
0.0
 40
0.1270713644744607
 50
271.5960436307307191
 51
292.0691568063634236
  0
ARC
  5
22D21
  8
0
 10
4733.4532737127628934
 20
499.5303511385826027
 30
0.0
 40
11.1847641680116094
 50
270.0352097658443995
 51
273.0874496306839205
  0
ARC
  5
22D22
  8
0
 10
4734.1075915371111478
 20
488.5227479649823863
 30
0.0
 40
0.0219025299774529
 50
9.3455420286070723
 51
68.9594404339907641
  0
ARC
  5
22D23
  8
0
 10
4734.0689392005533591
 20
488.4540590089936245
 30
0.0
 40
0.1005390517440504
 50
62.4407432576052983
 51
81.0772329491902468
  0
ARC
  5
22D24
  8
0
 10
4733.4376608657003089
 20
483.9478372639723034
 30
0.0
 40
4.6507504976685201
 50
82.004816164432853
 51
89.7229762882707149
  0
ARC
  5
22D25
  8
0
 10
4740.3126368284347336
 20
487.9697570108353943
 30
0.0
 40
6.2783322635602712
 50
176.4242571370511996
 51
180.9066369327395023
  0
ARC
  5
22D26
  8
0
 10
4872.3028237362223081
 20
490.0585176168337966
 30
0.0
 40
138.2850455808066101
 50
180.9066369327395023
 51
181.2456611686322958
  0
ARC
  5
22D27
  8
0
 10
4735.8251832770019973
 20
487.0620806459605205
 30
0.0
 40
1.774751942317796
 50
180.3152849976576988
 51
198.5367951788475978
  0
ARC
  5
22D28
  8
0
 10
4734.7007592277195727
 20
486.7108268646618967
 30
0.0
 40
0.5974950288652858
 50
200.8809929599804036
 51
233.1388595788390887
  0
ARC
  5
22D29
  8
0
 10
4734.3298607074593747
 20
486.2172151948946066
 30
0.0
 40
0.0201019380217355
 50
272.3019895878455827
 51
355.5163472422634072
  0
ARC
  5
22D2A
  8
0
 10
4734.3251520460353277
 20
486.2149509685182238
 30
0.0
 40
0.024758774915581
 50
1.6033768944249529
 51
46.0503694668685668
  0
LINE
  5
22D2B
  8
0
 10
4733.4601470903498921
 20
486.1971148545072197
 30
0.0
 11
4734.3831478676493134
 21
486.197130360768881
 31
0.0
  0
ARC
  5
22D2C
  8
0
 10
4734.3830744974566187
 20
486.1769684370378855
 30
0.0
 40
0.0201620572293346
 50
54.0740872080911785
 51
89.7914988740235458
  0
LINE
  5
22D2D
  8
0
 10
4734.3949043556776815
 20
486.1932951944071988
 30
0.0
 11
4734.5719606880202264
 21
486.0646668292362733
 31
0.0
  0
ARC
  5
22D2E
  8
0
 10
4734.5519122553341731
 20
486.0165091169445191
 30
0.0
 40
0.0521642109721991
 50
280.5809328716582058
 51
67.3976557316661058
  0
ARC
  5
22D2F
  8
0
 10
4734.5786242422564101
 20
485.9077539550120264
 30
0.0
 40
0.0599771981813162
 50
106.5985902278847988
 51
180.0072147572178949
  0
LINE
  5
22D30
  8
0
 10
4734.518647044548743
 20
485.9077464026070743
 30
0.0
 11
4734.518647044548743
 21
485.9057718545071793
 31
0.0
  0
LINE
  5
22D31
  8
0
 10
4734.518647044548743
 20
485.9057718545071793
 30
0.0
 11
4733.4601470445486484
 21
485.9057873607688975
 31
0.0
  0
ARC
  5
22D32
  8
0
 10
4733.4612766105528863
 20
487.4277695121000988
 30
0.0
 40
1.8344594227551689
 50
90.0352798039572093
 51
108.3671656319832977
  0
ARC
  5
22D33
  8
0
 10
4732.910942593512118
 20
489.0862046107628203
 30
0.0
 40
0.0870977498564331
 50
108.5535548318773067
 51
171.3949326008294065
  0
ARC
  5
22D34
  8
0
 10
4739.3020216771628839
 20
488.4304118971900834
 30
0.0
 40
6.5116356840446787
 50
174.104626609012513
 51
179.1697484389391946
  0
ARC
  5
22D35
  8
0
 10
4729.5112932966612789
 20
488.4181580162024829
 30
0.0
 40
3.2815085136636739
 50
359.7531690241585807
 51
1.8617282622459059
  0
ARC
  5
22D36
  8
0
 10
4732.8369251631747829
 20
488.4130023696607168
 30
0.0
 40
0.0450579446456042
 50
191.4973819330581932
 51
248.4890103034900903
  0
ARC
  5
22D37
  8
0
 10
4732.8681472753032722
 20
488.4888438103130852
 30
0.0
 40
0.1270713644744607
 50
247.9308431936366048
 51
268.4039563692692809
  0
ARC
  5
22D38
  8
0
 10
4733.4710328637120256
 20
499.6775600741772791
 30
0.0
 40
11.3319762202996195
 50
266.932380569883378
 51
269.9449600335721016
  0
ARC
  5
22D39
  8
0
 10
4732.8126870754813353
 20
488.5227692396074985
 30
0.0
 40
0.0218771183539877
 50
111.0227336418295039
 51
170.7968622170604078
  0
ARC
  5
22D3A
  8
0
 10
4732.8513548885457567
 20
488.4540590089936245
 30
0.0
 40
0.1005390517440504
 50
98.9227670508097532
 51
117.5592567423946946
  0
ARC
  5
22D3B
  8
0
 10
4733.5978465370899357
 20
482.3546069658116835
 30
0.0
 40
6.2454446186114421
 50
91.263359070936886
 51
97.0088484764058165
  0
ARC
  5
22D3C
  8
0
 10
4726.6076572606643822
 20
487.9697570108353943
 30
0.0
 40
6.2783322635602712
 50
359.0933630672604977
 51
3.5757428629487449
  0
ARC
  5
22D3D
  8
0
 10
4594.6174703528768077
 20
490.0585176168337966
 30
0.0
 40
138.2850455808066101
 50
358.7543388313677042
 51
359.0933630672604977
  0
ARC
  5
22D3E
  8
0
 10
4731.0951108120971185
 20
487.0620806459605205
 30
0.0
 40
1.774751942317796
 50
341.4632048211523738
 51
359.6847150023422728
  0
ARC
  5
22D3F
  8
0
 10
4732.2195348613777242
 20
486.7108268646618967
 30
0.0
 40
0.5974950288652858
 50
306.861140421160826
 51
339.1190070400195964
  0
ARC
  5
22D40
  8
0
 10
4732.5946204948641025
 20
486.2151805060004222
 30
0.0
 40
0.0242325158235268
 50
133.438474994492708
 51
178.8380432501269865
  0
ARC
  5
22D41
  8
0
 10
4732.5904324631655982
 20
486.217211875861608
 30
0.0
 40
0.0200985847905809
 50
184.3943529879834955
 51
267.7002465832487133
  0
LINE
  5
22D42
  8
0
 10
4733.4601469987492237
 20
486.1971148545072197
 30
0.0
 11
4732.5371462214488929
 21
486.197130360768881
 31
0.0
  0
ARC
  5
22D43
  8
0
 10
4732.5372195916406781
 20
486.1769684370378855
 30
0.0
 40
0.0201620572293208
 50
90.208501125924343
 51
125.925912791956705
  0
LINE
  5
22D44
  8
0
 10
4732.5253897334214344
 20
486.1932951944071988
 30
0.0
 11
4732.3483334010788894
 21
486.0646668292362733
 31
0.0
  0
ARC
  5
22D45
  8
0
 10
4732.3683818337640332
 20
486.0165091169445191
 30
0.0
 40
0.0521642109721985
 50
112.6023442683351021
 51
259.4190671283417942
  0
ARC
  5
22D46
  8
0
 10
4732.3416698468427057
 20
485.9077539550120264
 30
0.0
 40
0.0599771981813168
 50
359.9927852427820767
 51
73.4014097721152012
  0
LINE
  5
22D47
  8
0
 10
4732.4016470445485538
 20
485.9077464026070743
 30
0.0
 11
4732.4016470445485538
 21
485.9057718545071793
 31
0.0
  0
LINE
  5
22D48
  8
0
 10
4732.4016470445485538
 20
485.9057718545071793
 30
0.0
 11
4733.4601470445486484
 21
485.9057873607688975
 31
0.0
  0
ARC
  5
22D49
  8
0
 10
4738.3391929600566073
 20
486.2300910196655082
 30
0.0
 40
0.0199658717586187
 50
268.6906943128317948
 51
53.4500020370453228
  0
LINE
  5
22D4A
  8
0
 10
4738.338736745749884
 20
486.210130360768801
 30
0.0
 11
4736.5823558926640544
 21
486.210130360768801
 31
0.0
  0
LINE
  5
22D4B
  8
0
 10
4738.5186562362496261
 20
485.9077619088687925
 30
0.0
 11
4738.5186562362496261
 21
485.9057873607688975
 31
0.0
  0
LINE
  5
22D4C
  8
0
 10
4738.5186562362496261
 20
485.9057873607688975
 30
0.0
 11
4737.4609380628899089
 21
485.9057873607688975
 31
0.0
  0
ARC
  5
22D4D
  8
0
 10
4736.3702891278771858
 20
486.0147849894316892
 30
0.0
 40
0.0545021363380162
 50
113.7395997546061039
 51
179.314306974353201
  0
ARC
  5
22D4E
  8
0
 10
4736.3677889700884407
 20
486.0164747667528786
 30
0.0
 40
0.0520084256766512
 50
181.1430880495688029
 51
260.1572047050224796
  0
ARC
  5
22D4F
  8
0
 10
4736.3416546370017386
 20
485.9077614893798227
 30
0.0
 40
0.0600015992480936
 50
0.0004005718879113
 51
73.2983674872390907
  0
LINE
  5
22D50
  8
0
 10
4736.4016562362494369
 20
485.9077619088687925
 30
0.0
 11
4736.4016562362494369
 21
485.9057873607688975
 31
0.0
  0
LINE
  5
22D51
  8
0
 10
4736.4016562362494369
 20
485.9057873607688975
 30
0.0
 11
4737.4609380628899089
 21
485.9057873607688975
 31
0.0
  0
ARC
  5
22D52
  8
0
 10
4739.9613616364204063
 20
488.978886837842424
 30
0.0
 40
3.171900836557263
 50
230.8568118294616056
 51
239.4912540534868981
  0
LINE
  5
22D53
  8
0
 10
4738.3051562362497862
 20
486.1971303607689947
 30
0.0
 11
4738.3051562362497862
 21
486.209168123299321
 31
0.0
  0
LINE
  5
22D54
  8
0
 10
4736.3483476285500728
 20
486.0646754040689075
 30
0.0
 11
4736.5209524243109627
 21
486.1900801287292211
 31
0.0
  0
ARC
  5
22D55
  8
0
 10
4736.5445308340977135
 20
486.1580366974582148
 30
0.0
 40
0.0397834500230911
 50
100.684970508786904
 51
126.3466243154267943
  0
LINE
  5
22D56
  8
0
 10
4736.5371546301494163
 20
486.1971303607688242
 30
0.0
 11
4738.383157059349287
 21
486.1971303607689947
 31
0.0
  0
ARC
  5
22D57
  8
0
 10
4738.383157059349287
 20
486.1771279509513874
 30
0.0
 40
0.0200024098176068
 50
54.002242972080353
 51
90.0
  0
LINE
  5
22D58
  8
0
 10
4738.3949135473485512
 20
486.1933107006688033
 30
0.0
 11
4738.5719698795219301
 21
486.06468233522628
 31
0.0
  0
ARC
  5
22D59
  8
0
 10
4738.5521288652125804
 20
486.0165026128145769
 30
0.0
 40
0.0521051964829001
 50
280.2679093511305837
 51
67.6175211594404431
  0
ARC
  5
22D5A
  8
0
 10
4738.5786562362500263
 20
485.9077619088687925
 30
0.0
 40
0.0600000000000018
 50
106.6979361960191
 51
179.9999999999836859
  0
LINE
  5
22D5B
  8
0
 10
4736.6151562362501863
 20
486.210130360768801
 30
0.0
 11
4736.6151562362501863
 21
486.1971303607688242
 31
0.0
  0
ARC
  5
22D5C
  8
0
 10
4738.4894617096770162
 20
487.1863404412678733
 30
0.0
 40
0.8525604091838102
 50
194.1545149197918079
 51
231.5287834937458058
  0
ARC
  5
22D5D
  8
0
 10
4739.4645937963259712
 20
487.3716888101220093
 30
0.0
 40
1.8443474262969759
 50
182.1663078332300927
 51
192.3295551023030043
  0
ARC
  5
22D5E
  8
0
 10
4684.1666480657149805
 20
483.8742636894526186
 30
0.0
 40
53.5647017665961229
 50
3.668974241738137
 51
4.0446277385848068
  0
ARC
  5
22D5F
  8
0
 10
4738.0134593023722118
 20
487.7061288611827763
 30
0.0
 40
0.4189804887684609
 50
167.0958184912907996
 51
187.3722539645837912
  0
ARC
  5
22D60
  8
0
 10
4737.8718516026483485
 20
487.7505906071020831
 30
0.0
 40
0.2712729224315058
 50
124.4970080914322068
 51
169.5708915920965012
  0
ARC
  5
22D61
  8
0
 10
4737.8625897251758943
 20
487.6710414830009199
 30
0.0
 40
0.335747896383715
 50
94.688365159900485
 51
115.4686050178140988
  0
ARC
  5
22D62
  8
0
 10
4738.3954782460577917
 20
470.4064367029678806
 30
0.0
 40
17.6081470308303096
 50
91.0211448976018431
 51
91.8235897735852973
  0
ARC
  5
22D63
  8
0
 10
4739.7996452838806363
 20
49005.2398156524577644
 30
0.0
 40
48517.2280587499699323
 50
269.9979711874390205
 51
270.0006762707492953
  0
ARC
  5
22D64
  8
0
 10
4740.3723911127335668
 20
488.0313181476240061
 30
0.0
 40
0.0195580710777082
 50
269.7373334734376158
 51
332.2633310813158118
  0
ARC
  5
22D65
  8
0
 10
4737.8014006213479661
 20
488.9339002702959078
 30
0.0
 40
0.6140679626605289
 50
273.1503327419443963
 51
296.7743421404268247
  0
ARC
  5
22D66
  8
0
 10
4738.0868172511818557
 20
488.3682420990870128
 30
0.0
 40
0.0195185107126546
 50
89.6679729212547443
 51
116.7743421404266968
  0
ARC
  5
22D67
  8
0
 10
4738.1071213792502022
 20
491.871955793463485
 30
0.0
 40
3.484254014691766
 50
269.6679729212547159
 51
270.3320270787452841
  0
ARC
  5
22D68
  8
0
 10
4738.1273700158726569
 20
488.3778177939943816
 30
0.0
 40
0.0099426550192128
 50
359.5761567421429845
 51
90.3320270787452557
  0
ARC
  5
22D69
  8
0
 10
4738.1781955612832462
 20
488.3860407226721918
 30
0.0
 40
0.0417016460447943
 50
92.0303487148104864
 51
187.0078182383971921
  0
ARC
  5
22D6A
  8
0
 10
4738.1781955612832462
 20
488.3860407226721918
 30
0.0
 40
0.0417016460447943
 50
191.3692391421697891
 51
191.3723789890059948
  0
ARC
  5
22D6B
  8
0
 10
4739.3233706965183956
 20
413.9631865845357197
 30
0.0
 40
74.4733575264795462
 50
90.8517605644769759
 51
90.8822074288103607
  0
ARC
  5
22D6C
  8
0
 10
4738.2164363946612866
 20
488.4183135574588164
 30
0.0
 40
0.0100025382913223
 50
0.8637559691589856
 51
90.8467083288254571
  0
ARC
  5
22D6D
  8
0
 10
4777.9576185112009625
 20
488.9829576461889928
 30
0.0
 40
39.7351906209660726
 50
180.8139931204601965
 51
180.9047512803599886
  0
ARC
  5
22D6E
  8
0
 10
4738.2406263306884284
 20
488.3919707680781812
 30
0.0
 40
0.0387732534487256
 50
250.0262881183550974
 51
271.8310860772310775
  0
ARC
  5
22D6F
  8
0
 10
4904.2453998228756973
 20
-30691.3343825427982665
 30
0.0
 40
31180.1295057944516884
 50
90.3008010398885546
 51
90.3050451360892339
  0
ARC
  5
22D70
  8
0
 10
4740.5527570541380555
 20
488.3949430021100966
 30
0.0
 40
0.0295435758018632
 50
267.4697922244411075
 51
301.1385170687589721
  0
ARC
  5
22D71
  8
0
 10
4754.3033327743305563
 20
476.1031351623698242
 30
0.0
 40
18.4153729130409616
 50
137.8481941643264008
 51
138.2330590839268893
  0
ARC
  5
22D72
  8
0
 10
4740.6581819978346175
 20
488.4549040089646041
 30
0.0
 40
0.0100385408253706
 50
91.2829303431278731
 51
137.8481941643287882
  0
ARC
  5
22D73
  8
0
 10
4740.7244149058151379
 20
484.2733380263695722
 30
0.0
 40
4.1921288155803618
 50
90.3703663919315261
 51
90.9083459602039454
  0
ARC
  5
22D74
  8
0
 10
4740.6967097333617858
 20
488.4241424125041817
 30
0.0
 40
0.0412413129533384
 50
2.756451604724055
 51
89.1567218884812434
  0
ARC
  5
22D75
  8
0
 10
4713.83835302281841
 20
487.8352382402084118
 30
0.0
 40
26.9060393724805316
 50
0.4631497601458041
 51
1.258382214129089
  0
ARC
  5
22D76
  8
0
 10
4740.7025955336794141
 20
488.0526660593480983
 30
0.0
 40
0.040917859452329
 50
271.2175392291828757
 51
0.0902683241596229
  0
ARC
  5
22D77
  8
0
 10
4740.5653970622952329
 20
1184.327521872645093
 30
0.0
 40
696.3157781228454724
 50
269.9886391935752954
 51
270.0113608064247046
  0
ARC
  5
22D78
  8
0
 10
4740.1163508293539053
 20
486.9406426723596155
 30
0.0
 40
1.1153449496424781
 50
73.8103242495670742
 51
89.9293080744386941
  0
ARC
  5
22D79
  8
0
 10
4740.46135691409836
 20
-11823.7380249002999335
 30
0.0
 40
12311.7940164688297955
 50
90.0015991614995556
 51
90.0106292529324463
  0
ARC
  5
22D7A
  8
0
 10
4738.1778298810868364
 20
488.0962951919875081
 30
0.0
 40
0.04051858329595
 50
179.5776070520821861
 51
269.2914109456872893
  0
LINE
  5
22D7B
  8
0
 10
4738.137312398848735
 20
488.0965938982615171
 30
0.0
 11
4738.137312398848735
 21
488.377744244268797
 31
0.0
  0
LINE
  5
22D7C
  8
0
 10
4738.2308803585883652
 20
488.3544423626922253
 30
0.0
 11
4738.230684080550418
 21
488.3577094294689118
 31
0.0
  0
LINE
  5
22D7D
  8
0
 10
4738.230684080550418
 20
488.3577094294689118
 30
0.0
 11
4738.2302307295485662
 21
488.4386165511688205
 31
0.0
  0
ARC
  5
22D7E
  8
0
 10
4738.2402328373327691
 20
488.4386725964893117
 30
0.0
 40
0.0100022648035671
 50
90.8793289372400039
 51
180.3210450025412115
  0
ARC
  5
22D7F
  8
0
 10
4745.4480694381136345
 20
87.6956151210803085
 30
0.0
 40
400.8178751856389113
 50
90.6881982448042265
 51
91.0304173044855247
  0
ARC
  5
22D80
  8
0
 10
4740.6335130646066318
 20
488.4741160131737843
 30
0.0
 40
0.0104660959773994
 50
2.855182066793021
 51
88.2574479406890049
  0
LINE
  5
22D81
  8
0
 10
4740.6439661682488804
 20
488.4746373472689243
 30
0.0
 11
4740.6440807435947136
 21
488.4542805945621922
 31
0.0
  0
LINE
  5
22D82
  8
0
 10
4740.6973167002488481
 20
488.465379258713881
 30
0.0
 11
4740.5979173207997519
 21
488.3518334629994229
 31
0.0
  0
ARC
  5
22D83
  8
0
 10
4740.5631783388398617
 20
488.3923645387085912
 30
0.0
 40
0.0533813166365055
 50
267.266605910007911
 51
310.5997136136552967
  0
LINE
  5
22D84
  8
0
 10
4740.5606326568486111
 20
488.3390439566688883
 30
0.0
 11
4738.1767129114950876
 21
488.3302007572930847
 31
0.0
  0
ARC
  5
22D85
  8
0
 10
4738.1757975263199114
 20
488.2916639452520258
 30
0.0
 40
0.0385482260050754
 50
88.6101267130441954
 51
176.7192911531809045
  0
LINE
  5
22D86
  8
0
 10
4740.7034649755487408
 20
488.0117574380930137
 30
0.0
 11
4740.6011313451035676
 21
488.1276701253382839
 31
0.0
  0
ARC
  5
22D87
  8
0
 10
4740.5664306286571446
 20
488.0884988858306883
 30
0.0
 40
0.0523309251445469
 50
48.4631558526156923
 51
93.6417753607871077
  0
LINE
  5
22D88
  8
0
 10
4740.5631066634496165
 20
488.1407241381688777
 30
0.0
 11
4738.1772692378153806
 21
488.1089727105704128
 31
0.0
  0
ARC
  5
22D89
  8
0
 10
4738.1761020126023141
 20
488.1478165084993179
 30
0.0
 40
0.0388613310662316
 50
183.4814295724808062
 51
271.7211746519129747
  0
LINE
  5
22D8A
  8
0
 10
4740.6338313237092734
 20
488.4845772691268166
 30
0.0
 11
4740.5574082114499106
 21
488.4023122193688096
 31
0.0
  0
ARC
  5
22D8B
  8
0
 10
4740.5403398712369381
 20
488.4258582505913751
 30
0.0
 40
0.0290816750542513
 50
265.8321907825741732
 51
305.9380724827370841
  0
LINE
  5
22D8C
  8
0
 10
4740.538226277350077
 20
488.3968534829688792
 30
0.0
 11
4738.260481552649253
 21
488.3831440237688071
 31
0.0
  0
ARC
  5
22D8D
  8
0
 10
4738.2597950617600873
 20
488.4289905153851805
 30
0.0
 40
0.0458516309771813
 50
255.6480759150109918
 51
270.8578648014287751
  0
ARC
  5
22D8E
  8
0
 10
4738.2518453210450389
 20
488.3998159694103833
 30
0.0
 40
0.0156240895710582
 50
232.9094613957315971
 51
257.3716731494359919
  0
ARC
  5
22D8F
  8
0
 10
4738.2444511400717602
 20
488.3902105279843227
 30
0.0
 40
0.0035043175781256
 50
185.411622606930905
 51
234.6330586301467918
  0
LINE
  5
22D90
  8
0
 10
4738.2409624417487066
 20
488.3898800348687814
 30
0.0
 11
4738.2400766328473765
 21
488.4486715965687722
 31
0.0
  0
ARC
  5
22D91
  8
0
 10
4737.85537576630486
 20
487.8267152508922777
 30
0.0
 40
0.4944589980477421
 50
92.3446387513031794
 51
137.750488974385604
  0
ARC
  5
22D92
  8
0
 10
4737.9224849175079726
 20
487.7657586424900842
 30
0.0
 40
0.5851196084742553
 50
137.7504895126376994
 51
173.2335202855392993
  0
ARC
  5
22D93
  8
0
 10
4739.0816630556046221
 20
487.5603452448776238
 30
0.0
 40
1.761715998823995
 50
171.0408002555396934
 51
177.0051608576656861
  0
ARC
  5
22D94
  8
0
 10
5676.224802754679331
 20
424.1795904121890999
 30
0.0
 40
941.0454855792148692
 50
176.1325072922732886
 51
176.1538907551993987
  0
ARC
  5
22D95
  8
0
 10
4736.584085758709989
 20
486.2290620689612979
 30
0.0
 40
0.022640352972904
 50
131.0717240194167914
 51
178.015374582260705
  0
ARC
  5
22D96
  8
0
 10
4736.5813269770342231
 20
486.2299720907516871
 30
0.0
 40
0.0198683898715083
 50
180.363231284412791
 51
272.9684793559620175
  0
ARC
  5
22D97
  8
0
 10
4734.9589324526787095
 20
488.978886837842424
 30
0.0
 40
3.171900836557263
 50
300.5087459465129882
 51
309.1431881705383944
  0
ARC
  5
22D98
  8
0
 10
4736.4308323794211901
 20
487.1863404412678733
 30
0.0
 40
0.8525604091838102
 50
308.4712165062541089
 51
345.8454850802082206
  0
ARC
  5
22D99
  8
0
 10
4735.4556934800511954
 20
487.371689985504986
 30
0.0
 40
1.8443543328716301
 50
347.670454418545205
 51
357.8337208478886282
  0
LINE
  5
22D9A
  8
0
 10
4740.5631783388398617
 20
488.3389832220719882
 30
0.0
 11
4740.5631066634496165
 21
488.1407241381688777
 31
0.0
  0
LINE
  5
22D9C
  8
0
 10
4738.5614166751265657
 20
485.9652318795692167
 30
0.0
 11
4736.3588983652471143
 21
485.9652318795692167
 31
0.0
  0
LINE
  5
22D9D
  8
0
 10
4734.5614908686729905
 20
485.9652318795692167
 30
0.0
 11
4732.3588032204252158
 21
485.9652318795692167
 31
0.0
  0
LINE
  5
22D9E
  8
0
 10
4733.4601497021985779
 20
488.3564578416820154
 30
0.0
 11
4733.4601483733740679
 21
488.3564578416820154
 31
0.0
  0
LINE
  5
22D9F
  8
0
 10
4733.4874460416203874
 20
488.4911183073992902
 30
0.0
 11
4733.4328514775670556
 21
488.4911189932574871
 31
0.0
  0
LINE
  5
22DA0
  8
0
 10
4733.4300514581409516
 20
488.4911190284333884
 30
0.0
 11
4733.1156497021993346
 21
488.4911229781865813
 31
0.0
  0
ARC
  5
22DA1
  8
0
 10
4733.117282809605058
 20
487.9692417508687754
 30
0.0
 40
0.5218837825287524
 50
90.179293393915728
 51
102.9147876794209964
  0
ARC
  5
22DA2
  8
0
 10
4733.03443833745132
 20
488.3358334063141228
 30
0.0
 40
0.1460545257114814
 50
103.379677796312393
 51
118.9630376906209932
  0
ARC
  5
22DA3
  8
0
 10
4732.9797058183003173
 20
488.4281068514500816
 30
0.0
 40
0.0389495716915287
 50
114.2441493691798939
 51
160.4614451650967055
  0
ARC
  5
22DA4
  8
0
 10
4733.7093423304895623
 20
488.4171574786050769
 30
0.0
 40
0.7667181959732404
 50
178.2080365454553998
 51
180.856134167909687
  0
ARC
  5
22DA5
  8
0
 10
4732.9772872863713928
 20
488.4135448642327901
 30
0.0
 40
0.0354560108379827
 50
192.7806331909170012
 51
230.8578860267737127
  0
ARC
  5
22DA6
  8
0
 10
4733.0389423448323214
 20
488.5172832827672096
 30
0.0
 40
0.155837784266906
 50
237.3669656640346943
 51
261.4112534220869861
  0
ARC
  5
22DA7
  8
0
 10
4733.1254439204094524
 20
489.1218385753634266
 30
0.0
 40
0.7665464142571431
 50
261.7665541773895939
 51
267.7724596426206745
  0
LINE
  5
22DA8
  8
0
 10
4733.095649702198898
 20
488.3558714025865015
 30
0.0
 11
4733.4601497021985779
 21
488.3559192228497068
 31
0.0
  0
LINE
  5
22DA9
  8
0
 10
4733.4288742437965993
 20
488.4479182511864792
 30
0.0
 11
4733.3771562833571807
 21
488.4479182511864792
 31
0.0
  0
LINE
  5
22DAA
  8
0
 10
4733.3713312262816544
 20
488.4479182511864792
 30
0.0
 11
4733.3196052127586881
 21
488.4479182511864792
 31
0.0
  0
LINE
  5
22DAB
  8
0
 10
4733.3140953219963194
 20
488.4479182511864792
 30
0.0
 11
4733.262215751759868
 21
488.4479182511864792
 31
0.0
  0
LINE
  5
22DAC
  8
0
 10
4733.2567058609965898
 20
488.4479182511864792
 30
0.0
 11
4733.2048262908592733
 21
488.4479182511864792
 31
0.0
  0
LINE
  5
22DAD
  8
0
 10
4733.199316400095995
 20
488.4479182511864792
 30
0.0
 11
4733.1474368299586786
 21
488.4479182511864792
 31
0.0
  0
LINE
  5
22DAE
  8
0
 10
4733.1419269391963098
 20
488.4479182511864792
 30
0.0
 11
4733.0900618327177654
 21
488.4479182511864792
 31
0.0
  0
LINE
  5
22DAF
  8
0
 10
4733.0845420697223744
 20
488.4479182511864792
 30
0.0
 11
4733.0158597069994357
 21
488.4479182511864792
 31
0.0
  0
LINE
  5
22DB0
  8
0
 10
4733.4343841345598776
 20
488.4479182511864792
 30
0.0
 11
4733.4859126121891677
 21
488.4479182511864792
 31
0.0
  0
LINE
  5
22DB1
  8
0
 10
4733.0921223479990658
 20
488.4247963036866054
 30
0.0
 11
4733.1395129308994001
 21
488.4247963036866054
 31
0.0
  0
LINE
  5
22DB2
  8
0
 10
4733.149502403299266
 20
488.4247963036866054
 30
0.0
 11
4733.1969023917990853
 21
488.4247963036866054
 31
0.0
  0
LINE
  5
22DB3
  8
0
 10
4733.2068918641980417
 20
488.4247963036866054
 30
0.0
 11
4733.254291852697861
 21
488.4247963036866054
 31
0.0
  0
LINE
  5
22DB4
  8
0
 10
4733.2642813250995459
 20
488.4247963036866054
 30
0.0
 11
4733.3116813137003192
 21
488.4247963036866054
 31
0.0
  0
LINE
  5
22DB5
  8
0
 10
4733.3216707860992756
 20
488.4247963036866054
 30
0.0
 11
4733.3690708293252101
 21
488.4247963036866054
 31
0.0
  0
LINE
  5
22DB6
  8
0
 10
4733.3790603017241665
 20
488.4247963036866054
 30
0.0
 11
4733.4264602354987801
 21
488.4247963036866054
 31
0.0
  0
LINE
  5
22DB7
  8
0
 10
4733.436449707898646
 20
488.4247963036866054
 30
0.0
 11
4733.4838470388503993
 21
488.4247963036866054
 31
0.0
  0
LINE
  5
22DB8
  8
0
 10
4733.436449707898646
 20
488.4911189480538951
 30
0.0
 11
4733.436449707898646
 21
488.4561910890865875
 31
0.0
  0
LINE
  5
22DB9
  8
0
 10
4733.436449707898646
 20
488.4479182511864792
 30
0.0
 11
4733.436449707898646
 21
488.416600650755413
 31
0.0
  0
LINE
  5
22DBA
  8
0
 10
4733.4264602354987801
 20
488.4911190735492141
 30
0.0
 11
4733.4264602354987801
 21
488.4561910890865875
 31
0.0
  0
LINE
  5
22DBB
  8
0
 10
4733.4264602354987801
 20
488.4479182511864792
 30
0.0
 11
4733.4264602354987801
 21
488.4166195296253932
 31
0.0
  0
ARC
  5
22DBC
  8
0
 10
4733.4245772624990423
 20
488.4594578679864867
 30
0.0
 40
0.012313683614479
 50
290.4237086372853014
 51
344.6154200118747895
  0
ARC
  5
22DBD
  8
0
 10
4733.4386398881979403
 20
488.4599257599866178
 30
0.0
 40
0.0127393762258564
 50
197.0472138630256893
 51
250.4844333284943048
  0
ARC
  5
22DBE
  8
0
 10
4733.4388621521666209
 20
488.5010671050324049
 30
0.0
 40
0.0132888132361326
 50
228.4697124493380045
 51
236.1238405426938982
  0
ARC
  5
22DBF
  8
0
 10
4733.4239067574326327
 20
488.5011920866577952
 30
0.0
 40
0.0134712742132542
 50
304.0778789444008794
 51
311.6044823663439729
  0
ARC
  5
22DC0
  8
0
 10
4733.4314580040099827
 20
488.4182145924339125
 30
0.0
 40
0.0052461333813322
 50
197.7007430964551133
 51
342.0826932586065823
  0
LINE
  5
22DC1
  8
0
 10
4733.3790603017241665
 20
488.4911749894732793
 30
0.0
 11
4733.3790603017241665
 21
488.4562471305060853
 31
0.0
  0
LINE
  5
22DC2
  8
0
 10
4733.3790603017241665
 20
488.4479742926060908
 30
0.0
 11
4733.3790603017241665
 21
488.4166566921750245
 31
0.0
  0
LINE
  5
22DC3
  8
0
 10
4733.3690708293252101
 20
488.491175114968712
 30
0.0
 11
4733.3690708293252101
 21
488.4562471305060853
 31
0.0
  0
LINE
  5
22DC4
  8
0
 10
4733.3690708293252101
 20
488.4479742926060908
 30
0.0
 11
4733.3690708293252101
 21
488.4166755710448911
 31
0.0
  0
ARC
  5
22DC5
  8
0
 10
4733.3671878563236533
 20
488.4595139094060983
 30
0.0
 40
0.012313683614479
 50
289.6628659795388216
 51
344.6154200118747895
  0
ARC
  5
22DC6
  8
0
 10
4733.3812504820243703
 20
488.4599818014061157
 30
0.0
 40
0.0127393762258564
 50
197.0472138630256893
 51
251.253512837037789
  0
ARC
  5
22DC7
  8
0
 10
4733.3814727459921414
 20
488.5011231464519028
 30
0.0
 40
0.0132888132361326
 50
228.4697124493380045
 51
236.1238405426938982
  0
ARC
  5
22DC8
  8
0
 10
4733.3665173512581532
 20
488.5012481280774068
 30
0.0
 40
0.0134712742132542
 50
304.0778789444008794
 51
311.6044823663439729
  0
ARC
  5
22DC9
  8
0
 10
4733.3740685978345937
 20
488.4182706338534103
 30
0.0
 40
0.0052461333813322
 50
197.7007430964551133
 51
342.0826932586065823
  0
LINE
  5
22DCA
  8
0
 10
4733.3216707860992756
 20
488.4911189480538951
 30
0.0
 11
4733.3216707860992756
 21
488.4561910890865875
 31
0.0
  0
LINE
  5
22DCB
  8
0
 10
4733.3216707860992756
 20
488.4479182511864792
 30
0.0
 11
4733.3216707860992756
 21
488.416600650755413
 31
0.0
  0
LINE
  5
22DCC
  8
0
 10
4733.3116813137003192
 20
488.4911190735492141
 30
0.0
 11
4733.3116813137003192
 21
488.4561910890865875
 31
0.0
  0
LINE
  5
22DCD
  8
0
 10
4733.3116813137003192
 20
488.4479182511864792
 30
0.0
 11
4733.3116813137003192
 21
488.4166195296253932
 31
0.0
  0
ARC
  5
22DCE
  8
0
 10
4733.3097983406978528
 20
488.4594578679864867
 30
0.0
 40
0.012313683614479
 50
290.4237086372853014
 51
344.6154200118747895
  0
ARC
  5
22DCF
  8
0
 10
4733.3238609663985699
 20
488.4599257599866178
 30
0.0
 40
0.0127393762258564
 50
197.0472138630256893
 51
250.4844333284943048
  0
ARC
  5
22DD0
  8
0
 10
4733.3240832303672505
 20
488.5010671050324049
 30
0.0
 40
0.0132888132361326
 50
228.4603362748731001
 51
236.1238405426938982
  0
ARC
  5
22DD1
  8
0
 10
4733.3091278356332623
 20
488.5011920866577952
 30
0.0
 40
0.0134712742132542
 50
304.0778789444008794
 51
311.6137178032182078
  0
ARC
  5
22DD2
  8
0
 10
4733.3166790822097028
 20
488.4182145924339125
 30
0.0
 40
0.0052461333813322
 50
197.7007430964551133
 51
342.0826932586065823
  0
LINE
  5
22DD3
  8
0
 10
4733.2642813250995459
 20
488.4911189480538951
 30
0.0
 11
4733.2642813250995459
 21
488.4561910890865875
 31
0.0
  0
LINE
  5
22DD4
  8
0
 10
4733.2642813250995459
 20
488.4479182511864792
 30
0.0
 11
4733.2642813250995459
 21
488.416600650755413
 31
0.0
  0
LINE
  5
22DD5
  8
0
 10
4733.254291852697861
 20
488.4911190735492141
 30
0.0
 11
4733.254291852697861
 21
488.4561910890865875
 31
0.0
  0
LINE
  5
22DD6
  8
0
 10
4733.254291852697861
 20
488.4479182511864792
 30
0.0
 11
4733.254291852697861
 21
488.4166195296253932
 31
0.0
  0
ARC
  5
22DD7
  8
0
 10
4733.2524088796990327
 20
488.4594578679864867
 30
0.0
 40
0.012313683614479
 50
290.4237086372853014
 51
344.6154200118747895
  0
ARC
  5
22DD8
  8
0
 10
4733.2664715053979307
 20
488.4599257599866178
 30
0.0
 40
0.0127393762258564
 50
197.0472138630256893
 51
250.4844333284943048
  0
ARC
  5
22DD9
  8
0
 10
4733.2666937693657019
 20
488.5010671050324049
 30
0.0
 40
0.0132888132361326
 50
228.4556488370631087
 51
236.1238405426938982
  0
ARC
  5
22DDA
  8
0
 10
4733.2517383746326232
 20
488.5011920866577952
 30
0.0
 40
0.0134712742132542
 50
304.0778789444008794
 51
311.6183348932722765
  0
ARC
  5
22DDB
  8
0
 10
4733.2592896212099731
 20
488.4182145924339125
 30
0.0
 40
0.0052461333813322
 50
197.7007430964551133
 51
342.0826932586065823
  0
LINE
  5
22DDC
  8
0
 10
4733.2068918641980417
 20
488.4911189480538951
 30
0.0
 11
4733.2068918641980417
 21
488.4561910890865875
 31
0.0
  0
LINE
  5
22DDD
  8
0
 10
4733.2068918641980417
 20
488.4479182511864792
 30
0.0
 11
4733.2068918641980417
 21
488.416600650755413
 31
0.0
  0
LINE
  5
22DDE
  8
0
 10
4733.1969023917990853
 20
488.4911190735492141
 30
0.0
 11
4733.1969023917990853
 21
488.4561910890865875
 31
0.0
  0
LINE
  5
22DDF
  8
0
 10
4733.1969023917990853
 20
488.4479182511864792
 30
0.0
 11
4733.1969023917990853
 21
488.4166195296253932
 31
0.0
  0
ARC
  5
22DE0
  8
0
 10
4733.195019418800257
 20
488.4594578679864867
 30
0.0
 40
0.012313683614479
 50
290.4237086372853014
 51
344.6154200118747895
  0
ARC
  5
22DE1
  8
0
 10
4733.2090820444982455
 20
488.4599257599866178
 30
0.0
 40
0.0127393762258564
 50
197.0472138630256893
 51
250.4844333284943048
  0
ARC
  5
22DE2
  8
0
 10
4733.2093043084651072
 20
488.5010671050324049
 30
0.0
 40
0.0132888132361326
 50
228.4509618320225002
 51
236.1238405426938982
  0
ARC
  5
22DE3
  8
0
 10
4733.1943489137329379
 20
488.5011920866577952
 30
0.0
 40
0.0134712742132542
 50
304.0778789444008794
 51
311.6229515645404717
  0
ARC
  5
22DE4
  8
0
 10
4733.2019001603102879
 20
488.4182145924339125
 30
0.0
 40
0.0052461333813322
 50
197.7007430964551133
 51
342.0826932586065823
  0
LINE
  5
22DE5
  8
0
 10
4733.149502403299266
 20
488.4911189480538951
 30
0.0
 11
4733.149502403299266
 21
488.4561910890865875
 31
0.0
  0
LINE
  5
22DE6
  8
0
 10
4733.149502403299266
 20
488.4479182511864792
 30
0.0
 11
4733.149502403299266
 21
488.416600650755413
 31
0.0
  0
LINE
  5
22DE7
  8
0
 10
4733.1395129308994001
 20
488.4911190735492141
 30
0.0
 11
4733.1395129308994001
 21
488.4561910890865875
 31
0.0
  0
LINE
  5
22DE8
  8
0
 10
4733.1395129308994001
 20
488.4479182511864792
 30
0.0
 11
4733.1395129308994001
 21
488.4166195296253932
 31
0.0
  0
ARC
  5
22DE9
  8
0
 10
4733.1376299578996623
 20
488.4594578679864867
 30
0.0
 40
0.012313683614479
 50
290.4237086372853014
 51
344.6154200118747895
  0
ARC
  5
22DEA
  8
0
 10
4733.1516925835985603
 20
488.4599257599866178
 30
0.0
 40
0.0127393762258564
 50
197.0472138630256893
 51
250.4844333284943048
  0
ARC
  5
22DEB
  8
0
 10
4733.1519148475663314
 20
488.5010671050324049
 30
0.0
 40
0.0132888132361326
 50
228.4462752595593997
 51
236.1238405426938982
  0
ARC
  5
22DEC
  8
0
 10
4733.1369594528332527
 20
488.5011920866577952
 30
0.0
 40
0.0134712742132542
 50
304.0778789444008794
 51
311.6275678172515882
  0
ARC
  5
22DED
  8
0
 10
4733.1445106994106027
 20
488.4182145924339125
 30
0.0
 40
0.0052461333813322
 50
197.7007430964551133
 51
342.0826932586065823
  0
LINE
  5
22DEE
  8
0
 10
4733.0921223479990658
 20
488.4905186769246939
 30
0.0
 11
4733.0921223479990658
 21
488.4561928805866273
 31
0.0
  0
LINE
  5
22DEF
  8
0
 10
4733.0921223479990658
 20
488.4479200426865759
 30
0.0
 11
4733.0921223479990658
 21
488.4166024422555097
 31
0.0
  0
LINE
  5
22DF0
  8
0
 10
4733.0821328755991999
 20
488.4899404781630778
 30
0.0
 11
4733.0821328755991999
 21
488.4561928805866273
 31
0.0
  0
LINE
  5
22DF1
  8
0
 10
4733.0821328755991999
 20
488.4479200426865759
 30
0.0
 11
4733.0821328755991999
 21
488.4166213211253194
 31
0.0
  0
ARC
  5
22DF2
  8
0
 10
4733.0802499025985526
 20
488.4594596594865834
 30
0.0
 40
0.012313683614479
 50
290.3998074564539138
 51
344.6154200118747895
  0
ARC
  5
22DF3
  8
0
 10
4733.0943125282992696
 20
488.4599275514864871
 30
0.0
 40
0.0127393762258564
 50
197.0472138630256893
 51
250.5085668739949938
  0
ARC
  5
22DF4
  8
0
 10
4733.0871306441104025
 20
488.4182163839338955
 30
0.0
 40
0.0052461333813322
 50
197.7007430964551133
 51
342.0826932586065823
  0
LINE
  5
22DF5
  8
0
 10
4733.8368807402493985
 20
488.3891236995864915
 30
0.0
 11
4733.0834160064996468
 21
488.3891236995864915
 31
0.0
  0
ARC
  5
22DF6
  8
0
 10
4733.0896962401493511
 20
488.5334638772272911
 30
0.0
 40
0.1444767393598398
 50
233.095493139709788
 51
267.5086349567941966
  0
ARC
  5
22DF7
  8
0
 10
4733.0484667292257654
 20
488.4785603194155783
 30
0.0
 40
0.0758161740308634
 50
187.6356407806032109
 51
233.095493139709788
  0
LINE
  5
22DF8
  8
0
 10
4733.832736245549313
 20
488.4027385643867092
 30
0.0
 11
4733.0875605012033702
 21
488.4027385643864818
 31
0.0
  0
ARC
  5
22DF9
  8
0
 10
4733.0917684875012128
 20
488.5067509818816802
 30
0.0
 40
0.1040975030530552
 50
227.381466946277186
 51
267.683272332972706
  0
ARC
  5
22DFA
  8
0
 10
4733.0550940079219799
 20
488.4642421172328
 30
0.0
 40
0.0480169331975037
 50
173.4155658570929006
 51
225.2386195404135947
  0
ARC
  5
22DFB
  8
0
 10
4733.0652175648656339
 20
488.4720286898643735
 30
0.0
 40
0.0710620240382257
 50
193.0443775374843938
 51
255.3763229547278968
  0
ARC
  5
22DFC
  8
0
 10
4733.0649563413153373
 20
488.4855063767046772
 30
0.0
 40
0.0841013191595635
 50
189.1575815567279903
 51
257.7949202512530178
  0
LINE
  5
22DFD
  8
0
 10
4732.9959892579663574
 20
488.4559895881401985
 30
0.0
 11
4732.9959892579663574
 21
488.4767361840277999
 31
0.0
  0
LINE
  5
22DFE
  8
0
 10
4733.0073937965989899
 20
488.4697480879365799
 30
0.0
 11
4733.0073937965989899
 21
488.4794251368065829
 31
0.0
  0
LINE
  5
22DFF
  8
0
 10
4733.0072951971251314
 20
488.4794038893771244
 30
0.0
 11
4733.0096443587690374
 21
488.470793604002381
 31
0.0
  0
LINE
  5
22E00
  8
0
 10
4733.0096443587690374
 20
488.470793604002381
 30
0.0
 11
4733.0123665749988504
 21
488.4644894601865985
 31
0.0
  0
LINE
  5
22E01
  8
0
 10
4733.0123665749988504
 20
488.4644894601865985
 30
0.0
 11
4733.012434606331226
 21
488.4561362324233187
 31
0.0
  0
ARC
  5
22E02
  8
0
 10
4733.0246111150863726
 20
488.4563869333109096
 30
0.0
 40
0.0121780836114543
 50
180.9214529622339001
 51
224.0593807019255905
  0
LINE
  5
22E03
  8
0
 10
4733.4838804491982955
 20
488.4560720072088884
 30
0.0
 11
4733.4364162975507497
 21
488.4560720072088884
 31
0.0
  0
LINE
  5
22E04
  8
0
 10
4733.4264973886147345
 20
488.4560720072088884
 30
0.0
 11
4733.379010720334918
 21
488.4560720072088884
 31
0.0
  0
LINE
  5
22E05
  8
0
 10
4733.3691259112711123
 20
488.4560720072088884
 30
0.0
 11
4733.3216373757513793
 21
488.4560720072088884
 31
0.0
  0
LINE
  5
22E06
  8
0
 10
4733.3117184668153641
 20
488.4560720072088884
 30
0.0
 11
4733.2642479147507402
 21
488.4560720072088884
 31
0.0
  0
LINE
  5
22E07
  8
0
 10
4733.254329005814725
 20
488.4560720072088884
 30
0.0
 11
4733.2068584538510549
 21
488.4560720072088884
 31
0.0
  0
LINE
  5
22E08
  8
0
 10
4733.1969395449150397
 20
488.4560720072088884
 30
0.0
 11
4733.1494689929513697
 21
488.4560720072088884
 31
0.0
  0
LINE
  5
22E09
  8
0
 10
4733.1395500840153545
 20
488.4560720072088884
 30
0.0
 11
4733.0920884251509051
 21
488.4560720072088884
 31
0.0
  0
LINE
  5
22E0A
  8
0
 10
4733.0821705974422002
 20
488.4560720072088884
 30
0.0
 11
4733.0124371041629274
 21
488.4560720072088884
 31
0.0
  0
ARC
  5
22E0B
  8
0
 10
4733.0885456145097123
 20
488.5248403492504963
 30
0.0
 40
0.0993133585399038
 50
230.7632815373939934
 51
266.297792346490894
  0
LINE
  5
22E0C
  8
0
 10
4733.4601470445486484
 20
488.3564578416820154
 30
0.0
 11
4733.4601483733740679
 21
488.3564578416820154
 31
0.0
  0
LINE
  5
22E0D
  8
0
 10
4733.4902452886080937
 20
488.4911190284333884
 30
0.0
 11
4733.5448973643178761
 21
488.4911197150142925
 31
0.0
  0
LINE
  5
22E0E
  8
0
 10
4733.547571834140399
 20
488.4911197486130163
 30
0.0
 11
4733.6022225674269066
 21
488.4911204351769243
 31
0.0
  0
LINE
  5
22E0F
  8
0
 10
4733.6050258382429092
 20
488.4911204703938097
 30
0.0
 11
4733.6596112168490436
 21
488.4911211561366144
 31
0.0
  0
LINE
  5
22E10
  8
0
 10
4733.6624161129611821
 20
488.491121191373793
 30
0.0
 11
4733.7169998663021033
 21
488.4911218770963046
 31
0.0
  0
LINE
  5
22E11
  8
0
 10
4733.7198063874429863
 20
488.4911219123540036
 30
0.0
 11
4733.7743885158861303
 21
488.4911225980559948
 31
0.0
  0
LINE
  5
22E12
  8
0
 10
4733.7771966617920043
 20
488.4911226333341006
 30
0.0
 11
4733.8046470445488012
 21
488.4911229781865813
 31
0.0
  0
ARC
  5
22E13
  8
0
 10
4733.8030139371430778
 20
487.9692417508687754
 30
0.0
 40
0.5218837825287524
 50
77.0852123205789894
 51
89.8207066060842578
  0
ARC
  5
22E14
  8
0
 10
4733.8858584092968158
 20
488.3358334063141228
 30
0.0
 40
0.1460545257114814
 50
61.0369623093789428
 51
76.620322203687536
  0
ARC
  5
22E15
  8
0
 10
4733.9405909284469089
 20
488.4281068514500816
 30
0.0
 40
0.0389495716915287
 50
19.5385548349032589
 51
65.7558506308201061
  0
ARC
  5
22E16
  8
0
 10
4733.2109544162603925
 20
488.4171574786050769
 30
0.0
 40
0.7667181959732404
 50
359.1438658320902277
 51
1.791963454544532
  0
ARC
  5
22E17
  8
0
 10
4733.9430094603776524
 20
488.4135448642327901
 30
0.0
 40
0.0354560108379827
 50
309.1421139732262873
 51
347.2193668090829988
  0
ARC
  5
22E18
  8
0
 10
4733.8813544019158144
 20
488.5172832827672096
 30
0.0
 40
0.155837784266906
 50
278.5887465779130139
 51
302.633034335965192
  0
ARC
  5
22E19
  8
0
 10
4733.7948528263395929
 20
489.1218385753634266
 30
0.0
 40
0.7665464142571431
 50
272.2275403573793255
 51
278.2334458226102925
  0
LINE
  5
22E1A
  8
0
 10
4733.8246470445483283
 20
488.3558714025865015
 30
0.0
 11
4733.4601470445486484
 21
488.3559192228497068
 31
0.0
  0
LINE
  5
22E1B
  8
0
 10
4733.4914225029533554
 20
488.4479182511864792
 30
0.0
 11
4733.5431404633918646
 21
488.4479182511864792
 31
0.0
  0
LINE
  5
22E1C
  8
0
 10
4733.5489655204673909
 20
488.4479182511864792
 30
0.0
 11
4733.6006915339894476
 21
488.4479182511864792
 31
0.0
  0
LINE
  5
22E1D
  8
0
 10
4733.6062014247527259
 20
488.4479182511864792
 30
0.0
 11
4733.6580809949891773
 21
488.4479182511864792
 31
0.0
  0
LINE
  5
22E1E
  8
0
 10
4733.663590885751546
 20
488.4479182511864792
 30
0.0
 11
4733.715470455889772
 21
488.4479182511864792
 31
0.0
  0
LINE
  5
22E1F
  8
0
 10
4733.7209803466521407
 20
488.4479182511864792
 30
0.0
 11
4733.7728599167885477
 21
488.4479182511864792
 31
0.0
  0
LINE
  5
22E20
  8
0
 10
4733.7783698075518259
 20
488.4479182511864792
 30
0.0
 11
4733.9044370397496095
 21
488.4479182511864792
 31
0.0
  0
LINE
  5
22E21
  8
0
 10
4733.8281743987499794
 20
488.4247963036866054
 30
0.0
 11
4733.7807838158487357
 21
488.4247963036866054
 31
0.0
  0
LINE
  5
22E22
  8
0
 10
4733.7707943434497793
 20
488.4247963036866054
 30
0.0
 11
4733.7233943549490505
 21
488.4247963036866054
 31
0.0
  0
LINE
  5
22E23
  8
0
 10
4733.713404882550094
 20
488.4247963036866054
 30
0.0
 11
4733.6660048940493652
 21
488.4247963036866054
 31
0.0
  0
LINE
  5
22E24
  8
0
 10
4733.6560154216485898
 20
488.4247963036866054
 30
0.0
 11
4733.6086154330487261
 21
488.4247963036866054
 31
0.0
  0
LINE
  5
22E25
  8
0
 10
4733.5986259606497697
 20
488.4247963036866054
 30
0.0
 11
4733.5512259174247447
 21
488.4247963036866054
 31
0.0
  0
LINE
  5
22E26
  8
0
 10
4733.5412364450248788
 20
488.4247963036866054
 30
0.0
 11
4733.4938365112493557
 21
488.4247963036866054
 31
0.0
  0
LINE
  5
22E27
  8
0
 10
4733.4838470388503993
 20
488.4911189480538951
 30
0.0
 11
4733.4838470388503993
 21
488.4561910890865875
 31
0.0
  0
LINE
  5
22E28
  8
0
 10
4733.4838470388503993
 20
488.4479182511864792
 30
0.0
 11
4733.4838470388503993
 21
488.416600650755413
 31
0.0
  0
LINE
  5
22E29
  8
0
 10
4733.4938365112493557
 20
488.4911190735492141
 30
0.0
 11
4733.4938365112493557
 21
488.4561910890865875
 31
0.0
  0
LINE
  5
22E2A
  8
0
 10
4733.4938365112493557
 20
488.4479182511864792
 30
0.0
 11
4733.4938365112493557
 21
488.4166195296253932
 31
0.0
  0
ARC
  5
22E2B
  8
0
 10
4733.495719484250003
 20
488.4594578679864867
 30
0.0
 40
0.012313683614479
 50
195.3845799881252105
 51
249.5762913627148123
  0
ARC
  5
22E2C
  8
0
 10
4733.4816568585501955
 20
488.4599257599866178
 30
0.0
 40
0.0127393762258564
 50
289.5155666715057237
 51
342.9527861369742254
  0
ARC
  5
22E2D
  8
0
 10
4733.4814345945824243
 20
488.5010671050324049
 30
0.0
 40
0.0132888132361326
 50
303.8761594573060734
 51
311.5302875506620239
  0
ARC
  5
22E2E
  8
0
 10
4733.4963899893145935
 20
488.5011920866577952
 30
0.0
 40
0.0134712742132542
 50
228.3955176336559134
 51
235.9221210555990069
  0
ARC
  5
22E2F
  8
0
 10
4733.4888387427381531
 20
488.4182145924339125
 30
0.0
 40
0.0052461333813322
 50
197.917306741393304
 51
342.2992569035449151
  0
LINE
  5
22E30
  8
0
 10
4733.5412364450248788
 20
488.4911749894732793
 30
0.0
 11
4733.5412364450248788
 21
488.4562471305060853
 31
0.0
  0
LINE
  5
22E31
  8
0
 10
4733.5412364450248788
 20
488.4479742926060908
 30
0.0
 11
4733.5412364450248788
 21
488.4166566921750245
 31
0.0
  0
LINE
  5
22E32
  8
0
 10
4733.5512259174247447
 20
488.4911197945183972
 30
0.0
 11
4733.5512259174247447
 21
488.4562471305060853
 31
0.0
  0
LINE
  5
22E33
  8
0
 10
4733.5512259174247447
 20
488.4479742926060908
 30
0.0
 11
4733.5512259174247447
 21
488.4166755710448911
 31
0.0
  0
ARC
  5
22E34
  8
0
 10
4733.553108890425392
 20
488.4595139094060983
 30
0.0
 40
0.012313683614479
 50
195.3845799881252105
 51
250.3371340204612068
  0
ARC
  5
22E35
  8
0
 10
4733.5390462647237655
 20
488.4599818014061157
 30
0.0
 40
0.0127393762258564
 50
288.7464871629612162
 51
342.9527861369742254
  0
ARC
  5
22E36
  8
0
 10
4733.5388240007578133
 20
488.5011231464519028
 30
0.0
 40
0.0132888132361326
 50
303.8761594573060734
 51
311.1692478109746958
  0
ARC
  5
22E37
  8
0
 10
4733.5537793954908921
 20
488.5012481280774068
 30
0.0
 40
0.0134712742132542
 50
228.7511150132945943
 51
235.9221210555990069
  0
ARC
  5
22E38
  8
0
 10
4733.5462281489126326
 20
488.4182706338534103
 30
0.0
 40
0.0052461333813322
 50
197.917306741393304
 51
342.2992569035449151
  0
LINE
  5
22E39
  8
0
 10
4733.5986259606497697
 20
488.4911189480538951
 30
0.0
 11
4733.5986259606497697
 21
488.4561910890865875
 31
0.0
  0
LINE
  5
22E3A
  8
0
 10
4733.5986259606497697
 20
488.4479182511864792
 30
0.0
 11
4733.5986259606497697
 21
488.416600650755413
 31
0.0
  0
LINE
  5
22E3B
  8
0
 10
4733.6086154330487261
 20
488.4911190735492141
 30
0.0
 11
4733.6086154330487261
 21
488.4561910890865875
 31
0.0
  0
LINE
  5
22E3C
  8
0
 10
4733.6086154330487261
 20
488.4479182511864792
 30
0.0
 11
4733.6086154330487261
 21
488.4166195296253932
 31
0.0
  0
ARC
  5
22E3D
  8
0
 10
4733.6104984060502829
 20
488.4594578679864867
 30
0.0
 40
0.012313683614479
 50
195.3845799881252105
 51
249.5762913627148123
  0
ARC
  5
22E3E
  8
0
 10
4733.5964357803486564
 20
488.4599257599866178
 30
0.0
 40
0.0127393762258564
 50
289.5155666715057237
 51
342.9527861369742254
  0
ARC
  5
22E3F
  8
0
 10
4733.5962135163817948
 20
488.5010671050324049
 30
0.0
 40
0.0132888132361326
 50
303.8761594573060734
 51
311.5396637251268999
  0
ARC
  5
22E40
  8
0
 10
4733.6111689111148735
 20
488.5011920866577952
 30
0.0
 40
0.0134712742132542
 50
228.3862821967817922
 51
235.9221210555990069
  0
ARC
  5
22E41
  8
0
 10
4733.603617664538433
 20
488.4182145924339125
 30
0.0
 40
0.0052461333813322
 50
197.917306741393304
 51
342.2992569035449151
  0
LINE
  5
22E42
  8
0
 10
4733.6560154216485898
 20
488.4911189480538951
 30
0.0
 11
4733.6560154216485898
 21
488.4561910890865875
 31
0.0
  0
LINE
  5
22E43
  8
0
 10
4733.6560154216485898
 20
488.4479182511864792
 30
0.0
 11
4733.6560154216485898
 21
488.416600650755413
 31
0.0
  0
LINE
  5
22E44
  8
0
 10
4733.6660048940493652
 20
488.4911190735492141
 30
0.0
 11
4733.6660048940493652
 21
488.4561910890865875
 31
0.0
  0
LINE
  5
22E45
  8
0
 10
4733.6660048940493652
 20
488.4479182511864792
 30
0.0
 11
4733.6660048940493652
 21
488.4166195296253932
 31
0.0
  0
ARC
  5
22E46
  8
0
 10
4733.6678878670500126
 20
488.4594578679864867
 30
0.0
 40
0.012313683614479
 50
195.3845799881252105
 51
249.5762913627148123
  0
ARC
  5
22E47
  8
0
 10
4733.653825241350205
 20
488.4599257599866178
 30
0.0
 40
0.0127393762258564
 50
289.5155666715057237
 51
342.9527861369742254
  0
ARC
  5
22E48
  8
0
 10
4733.6536029773833434
 20
488.5010671050324049
 30
0.0
 40
0.0132888132361326
 50
303.8761594573060734
 51
311.5443511629368913
  0
ARC
  5
22E49
  8
0
 10
4733.6685583721146031
 20
488.5011920866577952
 30
0.0
 40
0.0134712742132542
 50
228.3816651067276098
 51
235.9221210555990069
  0
ARC
  5
22E4A
  8
0
 10
4733.6610071255381627
 20
488.4182145924339125
 30
0.0
 40
0.0052461333813322
 50
197.917306741393304
 51
342.2992569035449151
  0
LINE
  5
22E4B
  8
0
 10
4733.713404882550094
 20
488.4911189480538951
 30
0.0
 11
4733.713404882550094
 21
488.4561910890865875
 31
0.0
  0
LINE
  5
22E4C
  8
0
 10
4733.713404882550094
 20
488.4479182511864792
 30
0.0
 11
4733.713404882550094
 21
488.416600650755413
 31
0.0
  0
LINE
  5
22E4D
  8
0
 10
4733.7233943549490505
 20
488.4911190735492141
 30
0.0
 11
4733.7233943549490505
 21
488.4561910890865875
 31
0.0
  0
LINE
  5
22E4E
  8
0
 10
4733.7233943549490505
 20
488.4479182511864792
 30
0.0
 11
4733.7233943549490505
 21
488.4166195296253932
 31
0.0
  0
ARC
  5
22E4F
  8
0
 10
4733.7252773279487883
 20
488.4594578679864867
 30
0.0
 40
0.012313683614479
 50
195.3845799881252105
 51
249.5762913627148123
  0
ARC
  5
22E50
  8
0
 10
4733.7112147022498903
 20
488.4599257599866178
 30
0.0
 40
0.0127393762258564
 50
289.5155666715057237
 51
342.9527861369742254
  0
ARC
  5
22E51
  8
0
 10
4733.7109924382821191
 20
488.5010671050324049
 30
0.0
 40
0.0132888132361326
 50
303.8761594573060734
 51
311.549038167975425
  0
ARC
  5
22E52
  8
0
 10
4733.7259478330161073
 20
488.5011920866577952
 30
0.0
 40
0.0134712742132542
 50
228.3770484354594998
 51
235.9221210555990069
  0
ARC
  5
22E53
  8
0
 10
4733.7183965864378479
 20
488.4182145924339125
 30
0.0
 40
0.0052461333813322
 50
197.917306741393304
 51
342.2992569035449151
  0
LINE
  5
22E54
  8
0
 10
4733.7707943434497793
 20
488.4911189480538951
 30
0.0
 11
4733.7707943434497793
 21
488.4561910890865875
 31
0.0
  0
LINE
  5
22E55
  8
0
 10
4733.7707943434497793
 20
488.4479182511864792
 30
0.0
 11
4733.7707943434497793
 21
488.416600650755413
 31
0.0
  0
LINE
  5
22E56
  8
0
 10
4733.7807838158487357
 20
488.4911190735492141
 30
0.0
 11
4733.7807838158487357
 21
488.4561910890865875
 31
0.0
  0
LINE
  5
22E57
  8
0
 10
4733.7807838158487357
 20
488.4479182511864792
 30
0.0
 11
4733.7807838158487357
 21
488.4166195296253932
 31
0.0
  0
ARC
  5
22E58
  8
0
 10
4733.782666788849383
 20
488.4594578679864867
 30
0.0
 40
0.012313683614479
 50
195.3845799881252105
 51
249.5762913627158923
  0
ARC
  5
22E59
  8
0
 10
4733.7686041631495755
 20
488.4599257599866178
 30
0.0
 40
0.0127393762258564
 50
289.5155666715057237
 51
342.9527861369742254
  0
ARC
  5
22E5A
  8
0
 10
4733.7683818991818043
 20
488.5010671050324049
 30
0.0
 40
0.0132888132361326
 50
303.8761594573060734
 51
311.5537247404406003
  0
ARC
  5
22E5B
  8
0
 10
4733.7833372939157925
 20
488.5011920866577952
 30
0.0
 40
0.0134712742132542
 50
228.3724321827484118
 51
235.9221210555990069
  0
ARC
  5
22E5C
  8
0
 10
4733.7757860473384426
 20
488.4182145924339125
 30
0.0
 40
0.0052461333813322
 50
197.917306741393304
 51
342.2992569035449151
  0
LINE
  5
22E5D
  8
0
 10
4733.8281743987499794
 20
488.4905186769246939
 30
0.0
 11
4733.8281743987499794
 21
488.4561928805866273
 31
0.0
  0
LINE
  5
22E5E
  8
0
 10
4733.8281743987499794
 20
488.4479200426865759
 30
0.0
 11
4733.8281743987499794
 21
488.4166024422555097
 31
0.0
  0
LINE
  5
22E5F
  8
0
 10
4733.8381638711489359
 20
488.4899404781630778
 30
0.0
 11
4733.8381638711489359
 21
488.4561928805866273
 31
0.0
  0
LINE
  5
22E60
  8
0
 10
4733.8381638711489359
 20
488.4479200426865759
 30
0.0
 11
4733.8381638711489359
 21
488.4166213211253194
 31
0.0
  0
ARC
  5
22E61
  8
0
 10
4733.8400468441486737
 20
488.4594596594865834
 30
0.0
 40
0.012313683614479
 50
195.3845799881252105
 51
249.6001925435450062
  0
ARC
  5
22E62
  8
0
 10
4733.8259842184497757
 20
488.4599275514864871
 30
0.0
 40
0.0127393762258564
 50
289.4914331260059726
 51
342.9527861369742254
  0
ARC
  5
22E63
  8
0
 10
4733.8331661026377333
 20
488.4182163839338955
 30
0.0
 40
0.0052461333813322
 50
197.917306741393304
 51
342.2992569035449151
  0
ARC
  5
22E64
  8
0
 10
4733.8306005065987847
 20
488.5334638772272911
 30
0.0
 40
0.1444767393598398
 50
272.4913650432059171
 51
306.904506860290212
  0
ARC
  5
22E65
  8
0
 10
4733.8718300175205513
 20
488.4785603194155783
 30
0.0
 40
0.0758161740308634
 50
306.904506860290212
 51
352.3643592193967038
  0
ARC
  5
22E66
  8
0
 10
4733.828528259246923
 20
488.5067509818816802
 30
0.0
 40
0.1040975030530552
 50
272.316727667027294
 51
312.6185330537227856
  0
ARC
  5
22E67
  8
0
 10
4733.8652027388261558
 20
488.4642421172328
 30
0.0
 40
0.0480169331975037
 50
314.7613804595862916
 51
6.584434142907079
  0
ARC
  5
22E68
  8
0
 10
4733.8550791818834114
 20
488.4720286898643735
 30
0.0
 40
0.0710620240382257
 50
284.6236770452720748
 51
346.9556224625155778
  0
ARC
  5
22E69
  8
0
 10
4733.8553404054337079
 20
488.4855063767046772
 30
0.0
 40
0.0841013191595635
 50
282.2050797487469822
 51
350.8424184432719812
  0
LINE
  5
22E6A
  8
0
 10
4733.9243074887826879
 20
488.4559895881401985
 30
0.0
 11
4733.9243074887826879
 21
488.4767361840277999
 31
0.0
  0
LINE
  5
22E6B
  8
0
 10
4733.9129029501500554
 20
488.4697480879365799
 30
0.0
 11
4733.9129029501500554
 21
488.4794251368065829
 31
0.0
  0
LINE
  5
22E6C
  8
0
 10
4733.9130015496230044
 20
488.4794038893771244
 30
0.0
 11
4733.9106523879790984
 21
488.470793604002381
 31
0.0
  0
LINE
  5
22E6D
  8
0
 10
4733.9106523879790984
 20
488.470793604002381
 30
0.0
 11
4733.9079301717492854
 21
488.4644894601865985
 31
0.0
  0
LINE
  5
22E6E
  8
0
 10
4733.9079301717492854
 20
488.4644894601865985
 30
0.0
 11
4733.9078621404178193
 21
488.4561362324233187
 31
0.0
  0
ARC
  5
22E6F
  8
0
 10
4733.8956856316617632
 20
488.4563869333109096
 30
0.0
 40
0.0121780836114543
 50
315.9406192980742958
 51
359.0785470377660999
  0
LINE
  5
22E70
  8
0
 10
4733.4937993581334013
 20
488.4560720072088884
 30
0.0
 11
4733.5412860264132178
 21
488.4560720072088884
 31
0.0
  0
LINE
  5
22E71
  8
0
 10
4733.551170835477933
 20
488.4560720072088884
 30
0.0
 11
4733.5986593709967565
 21
488.4560720072088884
 31
0.0
  0
LINE
  5
22E72
  8
0
 10
4733.6085782799327717
 20
488.4560720072088884
 30
0.0
 11
4733.6560488319983051
 21
488.4560720072088884
 31
0.0
  0
LINE
  5
22E73
  8
0
 10
4733.6659677409334108
 20
488.4560720072088884
 30
0.0
 11
4733.7134382928970808
 21
488.4560720072088884
 31
0.0
  0
LINE
  5
22E74
  8
0
 10
4733.7233572018340055
 20
488.4560720072088884
 30
0.0
 11
4733.770827753796766
 21
488.4560720072088884
 31
0.0
  0
LINE
  5
22E75
  8
0
 10
4733.7807466627327813
 20
488.4560720072088884
 30
0.0
 11
4733.8282083215981402
 21
488.4560720072088884
 31
0.0
  0
LINE
  5
22E76
  8
0
 10
4733.838126149306845
 20
488.4560720072088884
 30
0.0
 11
4733.9078596425861178
 21
488.4560720072088884
 31
0.0
  0
ARC
  5
22E77
  8
0
 10
4733.8317511322384235
 20
488.5248403492504963
 30
0.0
 40
0.0993133585399038
 50
273.702207653509106
 51
309.2367184626060066
  0
ARC
  5
22E78
  8
0
 10
4728.581101129043418
 20
486.2300910196655082
 30
0.0
 40
0.0199658717586187
 50
126.5499979629547056
 51
271.3093056871680915
  0
LINE
  5
22E79
  8
0
 10
4728.5815573433492318
 20
486.210130360768801
 30
0.0
 11
4730.3379381964350614
 21
486.210130360768801
 31
0.0
  0
LINE
  5
22E7A
  8
0
 10
4728.4016378528503992
 20
485.9077619088687925
 30
0.0
 11
4728.4016378528503992
 21
485.9057873607688975
 31
0.0
  0
LINE
  5
22E7B
  8
0
 10
4728.4016378528503992
 20
485.9057873607688975
 30
0.0
 11
4729.4593560262092069
 21
485.9057873607688975
 31
0.0
  0
ARC
  5
22E7C
  8
0
 10
4730.55000496122193
 20
486.0147849894316892
 30
0.0
 40
0.0545021363380162
 50
0.685693025646755
 51
66.260400245393825
  0
ARC
  5
22E7D
  8
0
 10
4730.5525051190097656
 20
486.0164747667528786
 30
0.0
 40
0.0520084256766512
 50
279.8427952949775204
 51
358.8569119504310834
  0
ARC
  5
22E7E
  8
0
 10
4730.5786394520973772
 20
485.9077614893798227
 30
0.0
 40
0.0600015992480936
 50
106.7016325127608951
 51
179.9995994281121057
  0
LINE
  5
22E7F
  8
0
 10
4730.5186378528487694
 20
485.9077619088687925
 30
0.0
 11
4730.5186378528487694
 21
485.9057873607688975
 31
0.0
  0
LINE
  5
22E80
  8
0
 10
4730.5186378528487694
 20
485.9057873607688975
 30
0.0
 11
4729.4593560262092069
 21
485.9057873607688975
 31
0.0
  0
ARC
  5
22E81
  8
0
 10
4726.9589324526787095
 20
488.978886837842424
 30
0.0
 40
3.171900836557263
 50
300.5087459465129882
 51
309.1431881705383944
  0
LINE
  5
22E82
  8
0
 10
4728.6151378528493296
 20
486.1971303607689947
 30
0.0
 11
4728.6151378528493296
 21
486.209168123299321
 31
0.0
  0
LINE
  5
22E83
  8
0
 10
4730.5719464605499525
 20
486.0646754040689075
 30
0.0
 11
4730.3993416647890626
 21
486.1900801287292211
 31
0.0
  0
ARC
  5
22E84
  8
0
 10
4730.3757632550014023
 20
486.1580366974582148
 30
0.0
 40
0.0397834500230911
 50
53.6533756845731702
 51
79.3150294912131102
  0
LINE
  5
22E85
  8
0
 10
4730.38313945894879
 20
486.1971303607688242
 30
0.0
 11
4728.5371370297489193
 21
486.1971303607689947
 31
0.0
  0
ARC
  5
22E86
  8
0
 10
4728.5371370297489193
 20
486.1771279509513874
 30
0.0
 40
0.0200024098176068
 50
90.0
 51
125.9977570279196044
  0
LINE
  5
22E87
  8
0
 10
4728.5253805417487456
 20
486.1933107006688033
 30
0.0
 11
4728.3483242095762762
 21
486.06468233522628
 31
0.0
  0
ARC
  5
22E88
  8
0
 10
4728.3681652238856259
 20
486.0165026128145769
 30
0.0
 40
0.0521051964829001
 50
112.3824788405595001
 51
259.7320906488694163
  0
ARC
  5
22E89
  8
0
 10
4728.3416378528490895
 20
485.9077619088687925
 30
0.0
 40
0.0600000000000018
 50
0.0000000000162844
 51
73.3020638039809427
  0
LINE
  5
22E8A
  8
0
 10
4730.305137852849839
 20
486.210130360768801
 30
0.0
 11
4730.305137852849839
 21
486.1971303607688242
 31
0.0
  0
ARC
  5
22E8B
  8
0
 10
4728.4308323794220996
 20
487.1863404412678733
 30
0.0
 40
0.8525604091838102
 50
308.4712165062541089
 51
345.8454850802082206
  0
ARC
  5
22E8C
  8
0
 10
4727.4557002927722351
 20
487.3716888101220093
 30
0.0
 40
1.8443474262969759
 50
347.6704448976969957
 51
357.8336921667698221
  0
ARC
  5
22E8D
  8
0
 10
4782.7536460233841353
 20
483.8742636894526186
 30
0.0
 40
53.5647017665961229
 50
175.9553722614151923
 51
176.3310257582618874
  0
ARC
  5
22E8E
  8
0
 10
4728.9068347867278135
 20
487.7061288611827763
 30
0.0
 40
0.4189804887684609
 50
352.6277460354161803
 51
12.9041815087092004
  0
ARC
  5
22E8F
  8
0
 10
4729.0484424864498578
 20
487.7505906071020831
 30
0.0
 40
0.2712729224315058
 50
10.4291084079034597
 51
55.5029919085678003
  0
ARC
  5
22E90
  8
0
 10
4729.0577043639232215
 20
487.6710414830009199
 30
0.0
 40
0.335747896383715
 50
64.5313949821858586
 51
85.311634840099515
  0
ARC
  5
22E91
  8
0
 10
4728.5248158430404146
 20
470.4064367029678806
 30
0.0
 40
17.6081470308303096
 50
88.1764102264146743
 51
88.9788551023981853
  0
ARC
  5
22E92
  8
0
 10
4727.1206488052166605
 20
49005.2398156524577644
 30
0.0
 40
48517.2280587499699323
 50
269.9993237292507047
 51
270.0020288125609795
  0
ARC
  5
22E93
  8
0
 10
4726.5479029763646395
 20
488.0313181476240061
 30
0.0
 40
0.0195580710777082
 50
207.7366689186841029
 51
270.2626665265623842
  0
ARC
  5
22E94
  8
0
 10
4729.1188934677511497
 20
488.9339002702959078
 30
0.0
 40
0.6140679626605289
 50
243.2256578595732037
 51
266.8496672580556037
  0
ARC
  5
22E95
  8
0
 10
4728.8334768379172601
 20
488.3682420990870128
 30
0.0
 40
0.0195185107126546
 50
63.2256578595732606
 51
90.3320270787452557
  0
ARC
  5
22E96
  8
0
 10
4728.8131727098498231
 20
491.871955793463485
 30
0.0
 40
3.484254014691766
 50
269.6679729212547159
 51
270.3320270787452841
  0
ARC
  5
22E97
  8
0
 10
4728.7929240732282778
 20
488.3778177939943816
 30
0.0
 40
0.0099426550192128
 50
89.6679729212547443
 51
180.4238432578569018
  0
ARC
  5
22E98
  8
0
 10
4728.7420985278158696
 20
488.3860407226721918
 30
0.0
 40
0.0417016460447943
 50
352.9921817616028079
 51
87.9696512851895136
  0
ARC
  5
22E99
  8
0
 10
4728.7420985278158696
 20
488.3860407226721918
 30
0.0
 40
0.0417016460447943
 50
348.6276210109940052
 51
348.6307608578301256
  0
ARC
  5
22E9A
  8
0
 10
4727.5969233925807202
 20
413.9631865845357197
 30
0.0
 40
74.4733575264795462
 50
89.1177925711896535
 51
89.1482394355230383
  0
ARC
  5
22E9B
  8
0
 10
4728.7038576944369197
 20
488.4183135574588164
 30
0.0
 40
0.0100025382913223
 50
89.1532916711745429
 51
179.1362440308409987
  0
ARC
  5
22E9C
  8
0
 10
4688.9626755778990628
 20
488.9829576461889928
 30
0.0
 40
39.7351906209660726
 50
359.0952487196399261
 51
359.1860068795397183
  0
ARC
  5
22E9D
  8
0
 10
4728.6796677584097779
 20
488.3919707680781812
 30
0.0
 40
0.0387732534487256
 50
268.1689139227689225
 51
289.9737118816448742
  0
ARC
  5
22E9E
  8
0
 10
4562.6748942662215995
 20
-30691.3343825427982665
 30
0.0
 40
31180.1295057944516884
 50
89.6949548639107661
 51
89.699198960111417
  0
ARC
  5
22E9F
  8
0
 10
4726.3675370349610603
 20
488.3949430021100966
 30
0.0
 40
0.0295435758018632
 50
238.8614829312409995
 51
272.5302077755590062
  0
ARC
  5
22EA0
  8
0
 10
4712.6169613147667405
 20
476.1031351623698242
 30
0.0
 40
18.4153729130409616
 50
41.7669409160731178
 51
42.1518058356735494
  0
ARC
  5
22EA1
  8
0
 10
4726.2621120912654078
 20
488.4549040089646041
 30
0.0
 40
0.0100385408253706
 50
42.1518058356711407
 51
88.7170696568721269
  0
ARC
  5
22EA2
  8
0
 10
4726.1958791832830684
 20
484.2733380263695722
 30
0.0
 40
4.1921288155803618
 50
89.0916540397960546
 51
89.6296336080684739
  0
ARC
  5
22EA3
  8
0
 10
4726.2235843557364205
 20
488.4241424125041817
 30
0.0
 40
0.0412413129533384
 50
90.8432781115187851
 51
177.2435483952758943
  0
ARC
  5
22EA4
  8
0
 10
4753.0819410662807059
 20
487.8352382402084118
 30
0.0
 40
26.9060393724805316
 50
178.7416177858708863
 51
179.5368502398542034
  0
ARC
  5
22EA5
  8
0
 10
4726.2176985554187922
 20
488.0526660593480983
 30
0.0
 40
0.040917859452329
 50
179.9097316758403053
 51
268.7824607708171243
  0
ARC
  5
22EA6
  8
0
 10
4726.3548970268038829
 20
1184.327521872645093
 30
0.0
 40
696.3157781228454724
 50
269.9886391935752954
 51
270.0113608064247046
  0
ARC
  5
22EA7
  8
0
 10
4726.8039432597452105
 20
486.9406426723596155
 30
0.0
 40
1.1153449496424781
 50
90.0706919255613059
 51
106.1896757504328974
  0
ARC
  5
22EA8
  8
0
 10
4726.4589371750016653
 20
-11823.7380249002999335
 30
0.0
 40
12311.7940164688297955
 50
89.9893707470675679
 51
89.9984008385004444
  0
ARC
  5
22EA9
  8
0
 10
4728.7424642080122794
 20
488.0962951919875081
 30
0.0
 40
0.04051858329595
 50
270.708589054312597
 51
0.4223929479177806
  0
LINE
  5
22EAA
  8
0
 10
4728.7829816902485618
 20
488.0965938982615171
 30
0.0
 11
4728.7829816902485618
 21
488.377744244268797
 31
0.0
  0
LINE
  5
22EAB
  8
0
 10
4728.6894137305116601
 20
488.3544423626922253
 30
0.0
 11
4728.6896100085496073
 21
488.3577094294689118
 31
0.0
  0
LINE
  5
22EAC
  8
0
 10
4728.6896100085496073
 20
488.3577094294689118
 30
0.0
 11
4728.6900633595487307
 21
488.4386165511688205
 31
0.0
  0
ARC
  5
22EAD
  8
0
 10
4728.6800612517654372
 20
488.4386725964893117
 30
0.0
 40
0.0100022648035671
 50
359.6789549974587885
 51
89.1206710627600103
  0
ARC
  5
22EAE
  8
0
 10
4721.4722246509863908
 20
87.6956151210803085
 30
0.0
 40
400.8178751856389113
 50
88.9695826955144895
 51
89.3118017551957735
  0
ARC
  5
22EAF
  8
0
 10
4726.2867810244933935
 20
488.4741160131737843
 30
0.0
 40
0.0104660959773994
 50
91.7425520593110093
 51
177.1448179332070083
  0
LINE
  5
22EB0
  8
0
 10
4726.2763279208493259
 20
488.4746373472689243
 30
0.0
 11
4726.2762133455053117
 21
488.4542805945621922
 31
0.0
  0
LINE
  5
22EB1
  8
0
 10
4726.2229773888493582
 20
488.465379258713881
 30
0.0
 11
4726.3223767682984544
 21
488.3518334629994229
 31
0.0
  0
ARC
  5
22EB2
  8
0
 10
4726.3571157502601636
 20
488.3923645387085912
 30
0.0
 40
0.0533813166365055
 50
229.4002863863447033
 51
272.733394089992089
  0
LINE
  5
22EB3
  8
0
 10
4726.3596614322486857
 20
488.3390439566688883
 30
0.0
 11
4728.7435811776049377
 21
488.3302007572930847
 31
0.0
  0
ARC
  5
22EB4
  8
0
 10
4728.7444965627792044
 20
488.2916639452520258
 30
0.0
 40
0.0385482260050754
 50
3.2807088468190742
 51
91.3898732869557762
  0
LINE
  5
22EB5
  8
0
 10
4726.2168291135485561
 20
488.0117574380930137
 30
0.0
 11
4726.3191627439955482
 21
488.1276701253382839
 31
0.0
  0
ARC
  5
22EB6
  8
0
 10
4726.3538634604419713
 20
488.0884988858306883
 30
0.0
 40
0.0523309251445469
 50
86.3582246392128781
 51
131.5368441473843006
  0
LINE
  5
22EB7
  8
0
 10
4726.3571874256504088
 20
488.1407241381688777
 30
0.0
 11
4728.7430248512837352
 21
488.1089727105704128
 31
0.0
  0
ARC
  5
22EB8
  8
0
 10
4728.7441920764968017
 20
488.1478165084993179
 30
0.0
 40
0.0388613310662316
 50
268.2788253480870253
 51
356.5185704275190801
  0
LINE
  5
22EB9
  8
0
 10
4726.2864627653889329
 20
488.4845772691268166
 30
0.0
 11
4726.3628858776492052
 21
488.4023122193688096
 31
0.0
  0
ARC
  5
22EBA
  8
0
 10
4726.3799542178621778
 20
488.4258582505913751
 30
0.0
 40
0.0290816750542513
 50
234.0619275172630012
 51
274.1678092174258268
  0
LINE
  5
22EBB
  8
0
 10
4726.3820678117499483
 20
488.3968534829688792
 30
0.0
 11
4728.6598125364498628
 21
488.3831440237688071
 31
0.0
  0
ARC
  5
22EBC
  8
0
 10
4728.660499027339938
 20
488.4289905153851805
 30
0.0
 40
0.0458516309771813
 50
269.1421351985712249
 51
284.3519240849889229
  0
ARC
  5
22EBD
  8
0
 10
4728.6684487680549864
 20
488.3998159694103833
 30
0.0
 40
0.0156240895710582
 50
282.6283268505640081
 51
307.0905386042683745
  0
ARC
  5
22EBE
  8
0
 10
4728.6758429490264461
 20
488.3902105279843227
 30
0.0
 40
0.0035043175781256
 50
305.3669413698531798
 51
354.5883773930689813
  0
LINE
  5
22EBF
  8
0
 10
4728.6793316473504092
 20
488.3898800348687814
 30
0.0
 11
4728.6802174562508299
 21
488.4486715965687722
 31
0.0
  0
ARC
  5
22EC0
  8
0
 10
4729.0649183227933463
 20
487.8267152508922777
 30
0.0
 40
0.4944589980477421
 50
42.2495110256143676
 51
87.6553612486968063
  0
ARC
  5
22EC1
  8
0
 10
4728.9978091715902337
 20
487.7657586424900842
 30
0.0
 40
0.5851196084742553
 50
6.7664797144605968
 51
42.2495104873622935
  0
ARC
  5
22EC2
  8
0
 10
4727.8386310334935843
 20
487.5603452448776238
 30
0.0
 40
1.761715998823995
 50
2.9948391423342491
 51
8.9591997444602498
  0
ARC
  5
22EC3
  8
0
 10
3790.6954913344197848
 20
424.1795904121890999
 30
0.0
 40
941.0454855792148692
 50
3.8461092448005689
 51
3.867492707726663
  0
ARC
  5
22EC4
  8
0
 10
4730.3362083303873078
 20
486.2290620689612979
 30
0.0
 40
0.022640352972904
 50
1.984625417739261
 51
48.9282759805832015
  0
ARC
  5
22EC5
  8
0
 10
4730.3389671120630737
 20
486.2299720907516871
 30
0.0
 40
0.0198683898715083
 50
267.0315206440379825
 51
359.636768715587209
  0
ARC
  5
22EC6
  8
0
 10
4731.9613616364213158
 20
488.978886837842424
 30
0.0
 40
3.171900836557263
 50
230.8568118294616056
 51
239.4912540534868981
  0
ARC
  5
22EC7
  8
0
 10
4730.4894617096770162
 20
487.1863404412678733
 30
0.0
 40
0.8525604091838102
 50
194.1545149197918079
 51
231.5287834937458058
  0
ARC
  5
22EC8
  8
0
 10
4731.4646006090470109
 20
487.371689985504986
 30
0.0
 40
1.8443543328716301
 50
182.1662791521114002
 51
192.329545581454795
  0
LINE
  5
22EC9
  8
0
 10
4726.3571157502601636
 20
488.3389832220719882
 30
0.0
 11
4726.3571874256504088
 21
488.1407241381688777
 31
0.0
  0
LINE
  5
22ECA
  8
0
 10
4728.3588774139707311
 20
485.9652318795692167
 30
0.0
 11
4730.5613957238520015
 21
485.9652318795692167
 31
0.0
  0
ENDSEC
  0
EOF
