  0
SECTION
  2
HEADER
  9
$ACADVER
  1
AC1009
  9
$INSBASE
 10
4525.0060279919453023
 20
459.1397230756654153
 30
0.0
  9
$EXTMIN
 10
4517.7226563854837877
 20
459.1397230756654153
 30
0.0
  9
$EXTMAX
 10
4532.289399598403179
 20
468.3343538659192973
 30
0.0
  9
$LIMMIN
 10
0.0
 20
0.0
  9
$LIMMAX
 10
11.6929133858000007
 20
8.2677165353999982
  9
$ORTHOMODE
 70
     0
  9
$REGENMODE
 70
     1
  9
$FILLMODE
 70
     1
  9
$QTEXTMODE
 70
     0
  9
$MIRRTEXT
 70
     0
  9
$DRAGMODE
 70
     2
  9
$LTSCALE
 40
0.6431102362
  9
$OSMODE
 70
  2039
  9
$ATTMODE
 70
     1
  9
$TEXTSIZE
 40
0.2
  9
$TRACEWID
 40
0.05
  9
$TEXTSTYLE
  7
STANDARD
  9
$CLAYER
  8
0
  9
$CELTYPE
  6
BYLAYER
  9
$CECOLOR
 62
   256
  9
$DIMSCALE
 40
1.0
  9
$DIMASZ
 40
0.1875
  9
$DIMEXO
 40
0.0625
  9
$DIMDLI
 40
0.4443307087
  9
$DIMRND
 40
0.0
  9
$DIMDLE
 40
0.0
  9
$DIMEXE
 40
0.125
  9
$DIMTP
 40
0.01
  9
$DIMTM
 40
0.01
  9
$DIMTXT
 40
2.0
  9
$DIMCEN
 40
0.1052362205
  9
$DIMTSZ
 40
0.0
  9
$DIMTOL
 70
     1
  9
$DIMLIM
 70
     0
  9
$DIMTIH
 70
     1
  9
$DIMTOH
 70
     1
  9
$DIMSE1
 70
     0
  9
$DIMSE2
 70
     0
  9
$DIMTAD
 70
     0
  9
$DIMZIN
 70
     0
  9
$DIMBLK
  1

  9
$DIMASO
 70
     1
  9
$DIMSHO
 70
     1
  9
$DIMPOST
  1
\X
  9
$DIMAPOST
  1

  9
$DIMALT
 70
     1
  9
$DIMALTD
 70
     2
  9
$DIMALTF
 40
25.3999999999999986
  9
$DIMLFAC
 40
1.0
  9
$DIMTOFL
 70
     0
  9
$DIMTVP
 40
0.0
  9
$DIMTIX
 70
     0
  9
$DIMSOXD
 70
     0
  9
$DIMSAH
 70
     0
  9
$DIMBLK1
  1

  9
$DIMBLK2
  1

  9
$DIMSTYLE
  2
STANDARD
  9
$DIMCLRD
 70
     0
  9
$DIMCLRE
 70
     0
  9
$DIMCLRT
 70
     0
  9
$DIMTFAC
 40
1.0
  9
$DIMGAP
 40
0.09
  9
$LUNITS
 70
     2
  9
$LUPREC
 70
     4
  9
$SKETCHINC
 40
0.1
  9
$FILLETRAD
 40
0.0
  9
$AUNITS
 70
     0
  9
$AUPREC
 70
     0
  9
$MENU
  1
.
  9
$ELEVATION
 40
0.0
  9
$PELEVATION
 40
0.0
  9
$THICKNESS
 40
0.0
  9
$LIMCHECK
 70
     0
  9
$BLIPMODE
 70
     0
  9
$CHAMFERA
 40
0.0
  9
$CHAMFERB
 40
0.0
  9
$SKPOLY
 70
     0
  9
$TDCREATE
 40
2458060.468368056230247
  9
$TDUPDATE
 40
2459667.6973263891413808
  9
$TDINDWG
 40
1.5171555556
  9
$TDUSRTIMER
 40
1.5171555556
  9
$USRTIMER
 70
     1
  9
$ANGBASE
 50
0.0
  9
$ANGDIR
 70
     0
  9
$PDMODE
 70
     0
  9
$PDSIZE
 40
0.3125
  9
$PLINEWID
 40
0.0
  9
$COORDS
 70
     1
  9
$SPLFRAME
 70
     0
  9
$SPLINETYPE
 70
     6
  9
$SPLINESEGS
 70
     8
  9
$ATTDIA
 70
     1
  9
$ATTREQ
 70
     1
  9
$HANDLING
 70
     1
  9
$HANDSEED
  5
1C1F9
  9
$SURFTAB1
 70
     6
  9
$SURFTAB2
 70
     6
  9
$SURFTYPE
 70
     6
  9
$SURFU
 70
     6
  9
$SURFV
 70
     6
  9
$UCSNAME
  2

  9
$UCSORG
 10
0.0
 20
0.0
 30
0.0
  9
$UCSXDIR
 10
1.0
 20
0.0
 30
0.0
  9
$UCSYDIR
 10
0.0
 20
1.0
 30
0.0
  9
$PUCSNAME
  2

  9
$PUCSORG
 10
0.0
 20
0.0
 30
0.0
  9
$PUCSXDIR
 10
1.0
 20
0.0
 30
0.0
  9
$PUCSYDIR
 10
0.0
 20
1.0
 30
0.0
  9
$USERI1
 70
     0
  9
$USERI2
 70
     0
  9
$USERI3
 70
     0
  9
$USERI4
 70
     0
  9
$USERI5
 70
     0
  9
$USERR1
 40
0.0
  9
$USERR2
 40
0.0
  9
$USERR3
 40
0.0
  9
$USERR4
 40
0.0
  9
$USERR5
 40
0.0
  9
$WORLDVIEW
 70
     1
  9
$SHADEDGE
 70
     3
  9
$SHADEDIF
 70
    70
  9
$TILEMODE
 70
     1
  9
$MAXACTVP
 70
    64
  9
$PLIMCHECK
 70
     0
  9
$PEXTMIN
 10
1.0000000000000000E+20
 20
1.0000000000000000E+20
 30
1.0000000000000000E+20
  9
$PEXTMAX
 10
-1.0000000000000000E+20
 20
-1.0000000000000000E+20
 30
-1.0000000000000000E+20
  9
$PLIMMIN
 10
0.0
 20
0.0
  9
$PLIMMAX
 10
12.0
 20
9.0
  9
$UNITMODE
 70
     0
  9
$VISRETAIN
 70
     1
  9
$PLINEGEN
 70
     0
  9
$PSLTSCALE
 70
     1
  0
ENDSEC
  0
SECTION
  2
TABLES
  0
TABLE
  2
VPORT
 70
     1
  0
VPORT
  2
*ACTIVE
 70
     0
 10
0.0
 20
0.0
 11
1.0
 21
1.0
 12
626.9404448185897536
 22
332.1782244618809727
 13
0.0
 23
0.0
 14
1.0
 24
1.0
 15
0.0
 25
0.0
 16
0.0
 26
0.0
 36
60.4960186965801583
 17
3911.3653564453120453
 27
132.5796051025390057
 37
0.0
 40
32.5453128938794691
 41
2.000833333333333
 42
50.0
 43
0.0
 44
0.0
 50
0.0
 51
0.0
 71
     0
 72
   100
 73
     1
 74
     1
 75
     0
 76
     0
 77
     0
 78
     0
  0
ENDTAB
  0
TABLE
  2
LTYPE
 70
     2
  0
LTYPE
  2
CONTINUOUS
 70
     0
  3
Solid line
 72
    65
 73
     0
 40
0.0
  0
LTYPE
  2
PHANTOM2
 70
     0
  3
___ _ _ ___ _ _ ___ _ _ ___ _ _
 72
    65
 73
     6
 40
1.25
 49
0.625
 49
-0.125
 49
0.125
 49
-0.125
 49
0.125
 49
-0.125
  0
ENDTAB
  0
TABLE
  2
LAYER
 70
     2
  0
LAYER
  2
0
 70
     0
 62
   255
  6
CONTINUOUS
  0
LAYER
  2
DEFPOINTS
 70
     0
 62
     7
  6
CONTINUOUS
  0
ENDTAB
  0
TABLE
  2
STYLE
 70
     1
  0
STYLE
  2
STANDARD
 70
     0
 40
0.0
 41
0.8
 50
0.0
 71
     0
 42
0.2
  3
txt
  4

  0
ENDTAB
  0
TABLE
  2
VIEW
 70
     0
  0
ENDTAB
  0
TABLE
  2
UCS
 70
     0
  0
ENDTAB
  0
TABLE
  2
APPID
 70
    11
  0
APPID
  2
ACAD
 70
     0
  0
APPID
  2
ACAD_MLEADERVER
 70
     0
  0
APPID
  2
ACAD_EXEMPT_FROM_CAD_STANDARDS
 70
     0
  0
APPID
  2
ACAD_NAV_VCDISPLAY
 70
     0
  0
APPID
  2
ACAECLAYERSTANDARD
 70
     0
  0
APPID
  2
ACCMTRANSPARENCY
 70
     0
  0
APPID
  2
ACAD_DSTYLE_DIMJAG
 70
     0
  0
APPID
  2
ACAD_DSTYLE_DIMTALN
 70
     0
  0
APPID
  2
ACDBATTR
 70
     0
  0
APPID
  2
ACADANNOTATIVE
 70
     0
  0
APPID
  2
DCO15
 70
     0
  0
ENDTAB
  0
TABLE
  2
DIMSTYLE
 70
     1
  0
DIMSTYLE
  2
STANDARD
 70
     0
  3

  4

  5

  6

  7

 40
1.0
 41
0.1875
 42
0.0625
 43
0.38
 44
0.125
 45
0.0
 46
0.0
 47
0.01
 48
0.01
140
0.15625
141
0.09
142
0.0
143
25.3999999999999986
144
1.0
145
0.0
146
1.0
147
0.09
 71
     1
 72
     0
 73
     1
 74
     1
 75
     0
 76
     0
 77
     0
 78
     4
170
     0
171
     2
172
     0
173
     0
174
     0
175
     0
176
     0
177
     0
178
     0
  0
ENDTAB
  0
ENDSEC
  0
SECTION
  2
BLOCKS
  0
BLOCK
  8
0
  2
$MODEL_SPACE
 70
     0
 10
0.0
 20
0.0
 30
0.0
  3
$MODEL_SPACE
  1

  0
ENDBLK
  5
21
  8
0
  0
BLOCK
 67
     1
  8
0
  2
$PAPER_SPACE
 70
     0
 10
0.0
 20
0.0
 30
0.0
  3
$PAPER_SPACE
  1

  0
ENDBLK
  5
1D
 67
     1
  8
0
  0
BLOCK
  8
0
  2
_FILLED
 70
     0
 10
0.0
 20
0.0
 30
0.0
  3
_FILLED
  1

  0
SOLID
  5
1B77F
  8
0
  6
BYBLOCK
 62
     0
 10
0.0
 20
0.0
 30
0.0
 11
-1.0
 21
0.1666666667
 31
0.0
 12
-1.0
 22
-0.1666666667
 32
0.0
 13
-1.0
 23
-0.1666666667
 33
0.0
  0
ENDBLK
  5
1B780
  8
0
  6
BYBLOCK
 62
     0
  0
ENDSEC
  0
SECTION
  2
ENTITIES
  0
ATTDEF
  5
159BF
  8
DEFPOINTS
 10
4525.0082125974968221
 20
459.1433855945181222
 30
0.0
 40
0.001
  1
P25055-CBW
  3

  2
MODELNUMBER
 70
     0
1001
ACDBATTR
1070
     0
1070
     1
  0
ATTDEF
  5
159C0
  8
DEFPOINTS
 10
4525.0082125974968221
 20
459.1417187541388216
 30
0.0
 40
0.001
  1
SCRIPT
  3

  2
TRADENAME
 70
     0
1001
ACDBATTR
1070
     0
1070
     1
  0
ATTDEF
  5
159C1
  8
DEFPOINTS
 10
4525.0082125974968221
 20
459.1400522611846782
 30
0.0
 40
0.001
  1
BATHROOM SINK FAUCET
  3

  2
PRODUCT
 70
     0
1001
ACDBATTR
1070
     0
1070
     1
  0
ARC
  5
1BED2
  8
0
 10
4519.8875279919438981
 20
459.1416976238654115
 30
0.0
 40
0.06
 50
0.0
 51
73.3020637100820665
  0
ARC
  5
1BED3
  8
0
 10
4519.935980098121945
 20
459.2354713589571134
 30
0.0
 40
0.0757006374970263
 50
123.4806985458398003
 51
160.1681698938546106
  0
ARC
  5
1BED4
  8
0
 10
4519.9203205241456089
 20
459.2605488077174982
 30
0.0
 40
0.0633209937328344
 50
218.9967676919432904
 51
255.7814592870325896
  0
ARC
  5
1BED5
  8
0
 10
4519.9075567080526525
 20
459.2471369332180871
 30
0.0
 40
0.0450249709424342
 50
161.8618813047214076
 51
215.9520838902529931
  0
LINE
  5
1BED6
  8
0
 10
4519.9475279919442983
 20
459.1416976238654115
 30
0.0
 11
4519.9475279919442983
 21
459.1397230756654153
 31
0.0
  0
LINE
  5
1BED7
  8
0
 10
4519.9475279919442983
 20
459.1397230756654153
 30
0.0
 11
4522.0645279919435779
 21
459.1397230756654153
 31
0.0
  0
LINE
  5
1BED8
  8
0
 10
4520.0830263858442777
 20
459.4310660756652851
 30
0.0
 11
4521.9290295980435985
 21
459.4310660756652851
 31
0.0
  0
LINE
  5
1BED9
  8
0
 10
4520.1256276930444074
 20
459.4430660756652856
 30
0.0
 11
4521.8869268401440422
 21
459.4430660756652856
 31
0.0
  0
ARC
  5
1BEDA
  8
0
 10
4518.5302513764709147
 20
460.6530307145022789
 30
0.0
 40
2.3173209232974861
 50
350.1597464268058957
 51
357.1029456804459983
  0
ARC
  5
1BEDB
  8
0
 10
4520.0216171428746748
 20
460.4027284273739724
 30
0.0
 40
0.8051612596572438
 50
324.0953011040351726
 51
349.5721500215615265
  0
ARC
  5
1BEDC
  8
0
 10
4517.7918932590073382
 20
463.3025531462130857
 30
0.0
 40
4.4731124599718113
 50
301.2845060610397923
 51
306.0419490725906257
  0
ARC
  5
1BEDD
  8
0
 10
4519.7124438518412717
 20
460.66194487486041
 30
0.0
 40
1.2079440757354929
 50
306.0771971997560854
 51
322.7361174144505185
  0
ARC
  5
1BEDE
  8
0
 10
4520.125873980689903
 20
459.4629657193041226
 30
0.0
 40
0.020219002793629
 50
123.4570203189317965
 51
192.2175774562757056
  0
ARC
  5
1BEDF
  8
0
 10
4520.1256275795803958
 20
459.4630660558419208
 30
0.0
 40
0.019999980176865
 50
192.6478977663855972
 51
270.0003250493028872
  0
ARC
  5
1BEE0
  8
0
 10
4520.0829833664556645
 20
459.4111984758134781
 30
0.0
 40
0.0198676464269329
 50
89.8759374306547159
 51
126.1240627138920019
  0
LINE
  5
1BEE1
  8
0
 10
4519.8942193842431152
 20
459.2986111189654252
 30
0.0
 11
4520.0712706807980794
 21
459.4272464155528155
 31
0.0
  0
LINE
  5
1BEE2
  8
0
 10
4520.8682327112046551
 20
460.8863033237643094
 30
0.0
 11
4520.8446106639439677
 21
460.5359096211653878
 31
0.0
  0
ARC
  5
1BEE3
  8
0
 10
4520.3817255318654134
 20
461.3423449792358042
 30
0.0
 40
0.096661730402356
 50
270.9305471752219887
 51
271.643931526950098
  0
ARC
  5
1BEE4
  8
0
 10
4520.5066999645259784
 20
458.8240493484731815
 30
0.0
 40
2.4248360661676331
 50
87.0609944573098176
 51
90.0518421600654477
  0
ARC
  5
1BEE5
  8
0
 10
4520.5087145951310958
 20
458.809781726089227
 30
0.0
 40
2.4391063269656139
 50
90.0988635347065525
 51
92.919156833119871
  0
ARC
  5
1BEE6
  8
0
 10
4520.6194426744814336
 20
461.0102166697556072
 30
0.0
 40
0.2357641466886959
 50
62.8825929373495569
 51
87.1833385825006957
  0
ARC
  5
1BEE7
  8
0
 10
4520.621991207107385
 20
461.0119952785516944
 30
0.0
 40
0.2330239515375137
 50
34.5932568233889768
 51
63.2410053480584793
  0
ARC
  5
1BEE8
  8
0
 10
4520.3939357736826423
 20
460.9350825899090864
 30
0.0
 40
0.4767987014969237
 50
354.1280365495521778
 51
15.4545080650647009
  0
ARC
  5
1BEE9
  8
0
 10
4520.5862616762924517
 20
460.9837379199864813
 30
0.0
 40
0.2784955456770118
 50
16.3502305601474092
 51
35.205575463995963
  0
ARC
  5
1BEEA
  8
0
 10
4520.6090304047311292
 20
461.0532296215167776
 30
0.0
 40
0.5019486173542173
 50
55.2984985206485504
 51
87.4882390700862373
  0
ARC
  5
1BEEB
  8
0
 10
4520.5900722264195792
 20
461.039560388462121
 30
0.0
 40
0.5240375175506597
 50
37.4624738389735228
 51
54.4451969297269329
  0
ARC
  5
1BEEC
  8
0
 10
4520.0962850217756568
 20
460.8688201939198166
 30
0.0
 40
1.0476841359625371
 50
0.9561612984900701
 51
19.4703819117268395
  0
ARC
  5
1BEED
  8
0
 10
4520.5608473644297192
 20
461.0188203323327798
 30
0.0
 40
0.559851313905396
 50
20.8444919589591287
 51
37.328067066324607
  0
ARC
  5
1BEEE
  8
0
 10
4520.3788243594708547
 20
461.5999075542140986
 30
0.0
 40
0.0217925039891065
 50
64.4943640321553175
 51
88.8938347288021475
  0
ARC
  5
1BEEF
  8
0
 10
4520.338862637643615
 20
461.6116959969652953
 30
0.0
 40
0.0099999999999998
 50
90.0
 51
180.0
  0
LINE
  5
1BEF0
  8
0
 10
4520.338862637643615
 20
461.6216959969653999
 30
0.0
 11
4520.3792450643441043
 21
461.6216959969653999
 31
0.0
  0
LINE
  5
1BEF1
  8
0
 10
4520.249886047506152
 20
461.6622477178896133
 30
0.0
 11
4520.289456952306864
 21
461.6616522934505724
 31
0.0
  0
LINE
  5
1BEF2
  8
0
 10
4520.3288626376443062
 20
461.6216514652654155
 30
0.0
 11
4520.3288626376443062
 21
461.3317775930186144
 31
0.0
  0
ARC
  5
1BEF3
  8
0
 10
4520.6652619350979876
 20
462.1676530076045992
 30
0.0
 40
0.6139122579842035
 50
257.5939798459926919
 51
266.8033088228955876
  0
ARC
  5
1BEF4
  8
0
 10
4520.6668817344407216
 20
462.1705906497610954
 30
0.0
 40
0.6171300322413215
 50
246.7916198079375079
 51
257.5056998112136171
  0
ARC
  5
1BEF5
  8
0
 10
4520.6508865871646776
 20
462.1486887476542051
 30
0.0
 40
0.5907283574671999
 50
243.5978592973596051
 51
247.3803470225286958
  0
ARC
  5
1BEF6
  8
0
 10
4520.2888626398826091
 20
461.6216567106802131
 30
0.0
 40
0.0399999981050447
 50
359.9924864963484197
 51
89.1486787421914642
  0
ARC
  5
1BEF7
  8
0
 10
4520.2497360924762688
 20
461.6522488444534815
 30
0.0
 40
0.0099999978251893
 50
89.1407889373794688
 51
179.1789248488780117
  0
LINE
  5
1BEF8
  8
0
 10
4520.2369426557452243
 20
461.6725324189653747
 30
0.0
 11
4520.2366112895442711
 21
461.6118880430735771
 31
0.0
  0
LINE
  5
1BEF9
  8
0
 10
4520.2397371214437953
 20
461.6523921441652192
 30
0.0
 11
4520.2394565049480661
 21
461.6336843741879079
 31
0.0
  0
LINE
  5
1BEFA
  8
0
 10
4520.2366116455441443
 20
461.6118840609653944
 30
0.0
 11
4520.2305538732443893
 21
461.5870915798653868
 31
0.0
  0
ARC
  5
1BEFB
  8
0
 10
4520.1109069883477787
 20
461.6393964454053958
 30
0.0
 40
0.1286801932642392
 50
347.6546096860703869
 51
357.396555207561903
  0
ARC
  5
1BEFC
  8
0
 10
4520.2268931284497739
 20
461.6725473192282152
 30
0.0
 40
0.0100495383406106
 50
359.9150485867911016
 51
88.8608143102899533
  0
ARC
  5
1BEFD
  8
0
 10
4520.211947288625197
 20
461.6740298912201865
 30
0.0
 40
0.0049896327717339
 50
269.104060458044728
 51
350.3149841262052746
  0
ARC
  5
1BEFE
  8
0
 10
4520.1209949256926848
 20
461.6672065486206975
 30
0.0
 40
0.0957714628166648
 50
351.2874954024704834
 51
357.9633836229302233
  0
ARC
  5
1BEFF
  8
0
 10
4520.2054749393009843
 20
461.6240975729406841
 30
0.0
 40
0.0039724890655892
 50
289.8309563953425254
 51
318.8671657199371907
  0
ARC
  5
1BF00
  8
0
 10
4520.2072025646066322
 20
461.6225332075288748
 30
0.0
 40
0.0016427467089959
 50
320.3257483969716759
 51
343.620105820935521
  0
ARC
  5
1BF01
  8
0
 10
4519.8478265246130832
 20
461.7226755988393734
 30
0.0
 40
0.3747104550346058
 50
344.4256237612211748
 51
346.7307225036403224
  0
ARC
  5
1BF02
  8
0
 10
4520.0182217282181227
 20
461.6829088421314964
 30
0.0
 40
0.1997372797870454
 50
346.6144362764155176
 51
351.3008706726487844
  0
ARC
  5
1BF03
  8
0
 10
4520.2005668945703292
 20
461.7107866561048013
 30
0.0
 40
0.1060154528144368
 50
269.4267209104341987
 51
277.6691215244014757
  0
ARC
  5
1BF04
  8
0
 10
4520.2249592967036733
 20
461.6128168671828007
 30
0.0
 40
0.0041213500788668
 50
297.7468041126455205
 51
332.9893984113891179
  0
ARC
  5
1BF05
  8
0
 10
4520.2076310979591653
 20
461.6592211806270143
 30
0.0
 40
0.0539686163977746
 50
277.5422592776395163
 51
286.1426400120515723
  0
ARC
  5
1BF06
  8
0
 10
4520.2178260454766132
 20
461.6247096016924161
 30
0.0
 40
0.0179843325013251
 50
285.5126340892451822
 51
300.2203873192095216
  0
ARC
  5
1BF07
  8
0
 10
4519.9769230691481425
 20
461.6831690713735838
 30
0.0
 40
0.261864908021528
 50
343.9899421532971928
 51
352.9818405715457175
  0
ARC
  5
1BF08
  8
0
 10
4520.28912893798406
 20
461.3298273679790213
 30
0.0
 40
0.0388501770070901
 50
269.5823599601137062
 51
308.9058375084342174
  0
ARC
  5
1BF09
  8
0
 10
4520.2876085305488232
 20
461.331689588824986
 30
0.0
 40
0.0412542009615478
 50
308.9247200556258122
 51
0.1222244661719131
  0
LINE
  5
1BF0A
  8
0
 10
4520.2888457540229865
 20
461.2909782230678957
 30
0.0
 11
4518.3484480972856545
 21
461.2911178178633804
 31
0.0
  0
ARC
  5
1BF0B
  8
0
 10
4518.0386744524566893
 20
461.2671374184155866
 30
0.0
 40
0.0210721318952581
 50
270.5114847653046013
 51
283.7521894860723819
  0
ARC
  5
1BF0C
  8
0
 10
4518.4774057231497864
 20
459.7178747391203046
 30
0.0
 40
1.589127974411128
 50
104.6078776529752048
 51
105.8387401311951947
  0
ARC
  5
1BF0D
  8
0
 10
4518.3621232061823321
 20
460.1564542588125732
 30
0.0
 40
1.135651620137937
 50
99.4820711634720851
 51
104.5601978954540954
  0
ARC
  5
1BF0E
  8
0
 10
4518.3624029212332971
 20
459.4039785831840277
 30
0.0
 40
1.887190829900528
 50
90.4236775450750372
 51
91.3967782072855925
  0
ARC
  5
1BF0F
  8
0
 10
4518.3477997102199879
 20
460.2593787459829855
 30
0.0
 40
1.031707816903342
 50
91.7440028842548116
 51
95.8267042509081648
  0
ARC
  5
1BF10
  8
0
 10
4518.3500425859147072
 20
460.234879448844481
 30
0.0
 40
1.056308266123295
 50
95.8128249158995686
 51
99.53653618089443
  0
ARC
  5
1BF11
  8
0
 10
4517.8013160140144464
 20
461.6886219119272141
 30
0.0
 40
0.0103563567864484
 50
61.1936271241072802
 51
88.6273100932211264
  0
ARC
  5
1BF12
  8
0
 10
4517.800667199048803
 20
461.6880473139258925
 30
0.0
 40
0.0111762884465228
 50
42.9001697536480933
 51
59.6982718720217207
  0
ARC
  5
1BF13
  8
0
 10
4517.7683681898770374
 20
461.6593541904824178
 30
0.0
 40
0.0401118817077164
 50
89.3014324000868385
 51
178.9770407323698009
  0
LINE
  5
1BF14
  8
0
 10
4517.768857234043935
 20
461.6994630908653789
 30
0.0
 11
4517.801564107444392
 21
461.6989752966654237
 31
0.0
  0
LINE
  5
1BF15
  8
0
 10
4517.7282627011436489
 20
461.6600703102653824
 30
0.0
 11
4517.72266168794431
 21
461.2866658073654094
 31
0.0
  0
LINE
  5
1BF16
  8
0
 10
4517.7626555901442771
 20
461.246066304465387
 30
0.0
 11
4518.0388625628438604
 21
461.246066126165374
 31
0.0
  0
ARC
  5
1BF17
  8
0
 10
4517.7623943596199751
 20
461.2860166618648918
 30
0.0
 40
0.0397379741351859
 50
179.0639947639600962
 51
227.8509636348132972
  0
ARC
  5
1BF18
  8
0
 10
4517.7628568650516172
 20
461.2863940182832039
 30
0.0
 40
0.0403282160944952
 50
227.723561756759409
 51
269.7140401498443794
  0
ARC
  5
1BF19
  8
0
 10
4517.8253707921858222
 20
461.7078324684084123
 30
0.0
 40
0.0107983043380757
 50
93.2730583336597903
 51
175.334258969007692
  0
ARC
  5
1BF1A
  8
0
 10
4517.9099651974638618
 20
461.6343480411043174
 30
0.0
 40
0.0381134802946557
 50
253.6248009772226055
 51
270.6827366535629835
  0
ARC
  5
1BF1B
  8
0
 10
4517.902778938632764
 20
461.6116470939962824
 30
0.0
 40
0.0143159298413531
 50
232.8980000358577058
 51
255.6053624685384875
  0
LINE
  5
1BF1C
  8
0
 10
4517.8088542872437756
 20
461.6956552709654034
 30
0.0
 11
4517.8941430568429496
 21
461.6002292398654276
 31
0.0
  0
LINE
  5
1BF1D
  8
0
 10
4517.8146082712437419
 20
461.7087108302653746
 30
0.0
 11
4517.8145029597963003
 21
461.6893352079003989
 31
0.0
  0
ARC
  5
1BF1E
  8
0
 10
4517.8678172595609794
 20
461.6224891996694737
 30
0.0
 40
0.0809167885386751
 50
242.9958173768548022
 51
258.9993394787155125
  0
ARC
  5
1BF1F
  8
0
 10
4517.9082005860891513
 20
461.8138875722834769
 30
0.0
 40
0.2765217580007604
 50
258.353149632680072
 51
269.5364279680550226
  0
ARC
  5
1BF20
  8
0
 10
4517.8948242197839136
 20
461.2215336709929829
 30
0.0
 40
0.1886472752706342
 50
87.1896741190892044
 51
110.4795165290685048
  0
LINE
  5
1BF21
  8
0
 10
4517.8310756262435461
 20
461.5503953592653943
 30
0.0
 11
4517.7282627011436489
 21
461.6600703102653824
 31
0.0
  0
LINE
  5
1BF22
  8
0
 10
4517.8288217269437155
 20
461.3982579347654109
 30
0.0
 11
4517.72266168794431
 21
461.2866658073654094
 31
0.0
  0
LINE
  5
1BF23
  8
0
 10
4518.0938732479444297
 20
461.2456959969654235
 30
0.0
 11
4520.3832953568444282
 21
461.2456959969654235
 31
0.0
  0
LINE
  5
1BF24
  8
0
 10
4517.9059628602553857
 20
461.5373748687219972
 30
0.0
 11
4520.3288624486367553
 21
461.5277274400654051
 31
0.0
  0
LINE
  5
1BF25
  8
0
 10
4517.9040735531443715
 20
461.4099540634653067
 30
0.0
 11
4520.3288621501369562
 21
461.3793923680652824
 31
0.0
  0
LINE
  5
1BF26
  8
0
 10
4517.922896673942887
 20
461.5961731527652887
 30
0.0
 11
4520.215436032443904
 21
461.5843931024654125
 31
0.0
  0
ARC
  5
1BF27
  8
0
 10
4520.2236682382717845
 20
461.6003147659400838
 30
0.0
 40
0.0149085418526087
 50
288.8941834347286886
 51
297.5070903910859101
  0
ARC
  5
1BF28
  8
0
 10
4520.2158082474261391
 20
461.6285173403471163
 30
0.0
 40
0.0441693225885666
 50
269.5173522986626153
 51
286.693466691638605
  0
LINE
  5
1BF29
  8
0
 10
4520.199506163244223
 20
461.6047765099652906
 30
0.0
 11
4517.9230164375439927
 21
461.6180914822654131
 31
0.0
  0
LINE
  5
1BF2A
  8
0
 10
4517.8146082712437419
 20
461.7087108302653746
 30
0.0
 11
4517.8942755567441054
 21
461.6237662583653787
 31
0.0
  0
LINE
  5
1BF2B
  8
0
 10
4517.9104193470429891
 20
461.5962372666654119
 30
0.0
 11
4517.922896673942887
 21
461.5961731527652887
 31
0.0
  0
ARC
  5
1BF2C
  8
0
 10
4517.9233145637508642
 20
461.7162560939440255
 30
0.0
 40
0.0981650650825728
 50
260.7664363877401001
 51
269.8259930892922966
  0
ARC
  5
1BF2D
  8
0
 10
4517.9116362630529693
 20
461.6539047369910804
 30
0.0
 40
0.0347810583141148
 50
240.0567119143615002
 51
263.2746600349331061
  0
LINE
  5
1BF2E
  8
0
 10
4517.8247542675399018
 20
461.7186131582720918
 30
0.0
 11
4517.8346686944887551
 21
461.7184812331126977
 31
0.0
  0
LINE
  5
1BF2F
  8
0
 10
4517.8346686944887551
 20
461.7184812331126977
 30
0.0
 11
4517.913003467044291
 21
461.6357941815654158
 31
0.0
  0
LINE
  5
1BF30
  8
0
 10
4517.9225791501439744
 20
461.6330586555653781
 30
0.0
 11
4520.1922325954928965
 21
461.6190847621473949
 31
0.0
  0
ARC
  5
1BF31
  8
0
 10
4520.200320363604078
 20
461.6360773971766776
 30
0.0
 40
0.0170086663154445
 50
270.5080256407110255
 51
292.4755465342435059
  0
ARC
  5
1BF32
  8
0
 10
4520.1972769953754323
 20
462.1151881350274948
 30
0.0
 40
0.4961290180519687
 50
269.4174341895835028
 51
270.3688841774176126
  0
ARC
  5
1BF33
  8
0
 10
4517.9192112103428371
 20
461.6429891609809033
 30
0.0
 40
0.0095028314550891
 50
229.2127629668578948
 51
259.8573459912137764
  0
ARC
  5
1BF34
  8
0
 10
4517.9226405526460439
 20
461.6559391890310735
 30
0.0
 40
0.0228806158559093
 50
257.1136487057689806
 51
269.8462406562962883
  0
ARC
  5
1BF35
  8
0
 10
4518.0938552309826264
 20
461.2656044776317117
 30
0.0
 40
0.0199084888188381
 50
210.0561503346195877
 51
270.0518520482419831
  0
LINE
  5
1BF36
  8
0
 10
4520.2167058915438247
 20
461.6638030054652972
 30
0.0
 11
4520.2168658066511853
 21
461.6731904773637893
 31
0.0
  0
LINE
  5
1BF37
  8
0
 10
4520.2168658066511853
 20
461.6731904773637893
 30
0.0
 11
4520.2169919347443283
 21
461.6827463860653893
 31
0.0
  0
LINE
  5
1BF38
  8
0
 10
4520.2169919347443283
 20
461.6827463860653893
 30
0.0
 11
4520.2270929256428644
 21
461.682594871265394
 31
0.0
  0
LINE
  5
1BF39
  8
0
 10
4520.2118692684443886
 20
461.6690408684654017
 30
0.0
 11
4517.8479388799205481
 21
461.7045006301732997
 31
0.0
  0
LINE
  5
1BF3A
  8
0
 10
4520.3881484985722636
 20
461.619604601204685
 30
0.0
 11
4520.3882592497802761
 21
461.5388540175973162
 31
0.0
  0
LINE
  5
1BF3B
  8
0
 10
4520.3882592497802761
 20
461.5388540175973162
 30
0.0
 11
4520.3871178491381215
 21
461.4956450886886046
 31
0.0
  0
LINE
  5
1BF3C
  8
0
 10
4520.3871178491381215
 20
461.4956450886886046
 30
0.0
 11
4520.3872001826339329
 21
461.3668370790118729
 31
0.0
  0
LINE
  5
1BF3D
  8
0
 10
4520.3872001826339329
 20
461.3668370790118729
 30
0.0
 11
4520.3858090445692142
 21
461.322837894825625
 31
0.0
  0
LINE
  5
1BF3E
  8
0
 10
4520.3858090445692142
 20
461.322837894825625
 30
0.0
 11
4520.3844985714786162
 21
461.2457230395942247
 31
0.0
  0
LINE
  5
1BF3F
  8
0
 10
4520.338862637643615
 20
461.5405868373654243
 30
0.0
 11
4520.3790606478441987
 21
461.5405868373654243
 31
0.0
  0
LINE
  5
1BF40
  8
0
 10
4520.338862637643615
 20
461.3227235235654007
 30
0.0
 11
4520.3820702590437577
 21
461.3227235235654007
 31
0.0
  0
ARC
  5
1BF41
  8
0
 10
4520.3385317913125618
 20
461.3323942828948248
 30
0.0
 40
0.0096764169660657
 50
182.2201095545904082
 51
271.9593816369148271
  0
ARC
  5
1BF42
  8
0
 10
4520.5067551128786363
 20
459.3209244397287989
 30
0.0
 40
2.005643988097074
 50
86.4475873053591641
 51
90.7500987467485345
  0
ARC
  5
1BF43
  8
0
 10
4520.5061579491011798
 20
459.382107909709589
 30
0.0
 40
1.9444579542579981
 50
90.7561057170277081
 51
93.5484924745886701
  0
LINE
  5
1BF44
  8
0
 10
4520.3858090444246045
 20
461.3228378948002728
 30
0.0
 11
4520.3820702590437577
 21
461.3227235235654007
 31
0.0
  0
LINE
  5
1BF45
  8
0
 10
4520.3790606479069538
 20
461.5405868373260887
 30
0.0
 11
4520.3882571554377137
 21
461.5388488451977764
 31
0.0
  0
ARC
  5
1BF46
  8
0
 10
4520.3385994470081641
 20
461.5308396026865125
 30
0.0
 40
0.0097507873116392
 50
88.453299839114166
 51
176.9317454649390982
  0
ARC
  5
1BF47
  8
0
 10
4520.6640100224003618
 20
462.2216272924291047
 30
0.0
 40
0.73638169516427
 50
257.4261648508373241
 51
267.4329056358159278
  0
ARC
  5
1BF48
  8
0
 10
4520.6638223183435912
 20
462.2204657915654025
 30
0.0
 40
0.7352071919999598
 50
247.9874247116783863
 51
257.420736636583797
  0
ARC
  5
1BF49
  8
0
 10
4520.6131333255752907
 20
460.9916115118351172
 30
0.0
 40
0.3315863526983028
 50
57.019055012770373
 51
86.9064260820117056
  0
ARC
  5
1BF4A
  8
0
 10
4520.3696774151494537
 20
460.9453980144227216
 30
0.0
 40
0.5592228171184127
 50
353.9603438174780194
 51
22.1321775739062403
  0
ARC
  5
1BF4B
  8
0
 10
4520.6330526889632893
 20
461.0411445425539227
 30
0.0
 40
0.2793804346664479
 50
24.2929252313959907
 51
54.9155911677168334
  0
ARC
  5
1BF4C
  8
0
 10
4520.6089562112410931
 20
461.0007182896384279
 30
0.0
 40
0.4857679951717416
 50
56.8830053564642171
 51
87.3957574866984856
  0
ARC
  5
1BF4D
  8
0
 10
4520.6437770559432465
 20
461.0536621297774786
 30
0.0
 40
0.422400211595783
 50
30.9516946502962718
 51
56.9153620926159576
  0
ARC
  5
1BF4E
  8
0
 10
4519.8320537867912208
 20
460.8829276599047944
 30
0.0
 40
1.254224534817451
 50
0.1539985507272666
 51
10.8282359903245293
  0
ARC
  5
1BF4F
  8
0
 10
4520.5842002409635825
 20
461.0233629054102948
 30
0.0
 40
0.4890988809196203
 50
11.2227279037734498
 51
30.406184909339359
  0
ARC
  5
1BF50
  8
0
 10
4518.6763366560899158
 20
460.5449334966745027
 30
0.0
 40
2.2374746221644721
 50
343.2240183905287267
 51
359.7689301052492965
  0
ARC
  5
1BF51
  8
0
 10
4509.1844418462396789
 20
464.0286735442427926
 30
0.0
 40
12.3452999363308997
 50
338.3819746866482774
 51
340.4576641937832733
  0
ARC
  5
1BF52
  8
0
 10
4520.6894284522213638
 20
459.4644253259240259
 30
0.0
 40
0.0323046631015448
 50
150.2516094229719954
 51
221.3900540584878911
  0
LINE
  5
1BF53
  8
0
 10
4520.9257961596440509
 20
460.8865583916654032
 30
0.0
 11
4520.9137930825436342
 21
460.5359099415654214
 31
0.0
  0
ARC
  5
1BF54
  8
0
 10
4522.1245279919439781
 20
459.1416976238654115
 30
0.0
 40
0.06
 50
106.6979362899179051
 51
180.0
  0
ARC
  5
1BF55
  8
0
 10
4522.0803805084597116
 20
459.2401259593938221
 30
0.0
 40
0.069451225021098
 50
5.7937727208600709
 51
57.3629762189859917
  0
ARC
  5
1BF56
  8
0
 10
4522.0917354597413578
 20
459.2605488077174982
 30
0.0
 40
0.0633209937328344
 50
284.2185407129674104
 51
321.0032323080567949
  0
ARC
  5
1BF57
  8
0
 10
4522.1049319597541398
 20
459.2469168114849936
 30
0.0
 40
0.0445455389597507
 50
323.9503658177479792
 51
0.283128184071138
  0
LINE
  5
1BF58
  8
0
 10
4522.0645279919435779
 20
459.1416976238654115
 30
0.0
 11
4522.0645279919435779
 21
459.1397230756654153
 31
0.0
  0
ARC
  5
1BF59
  8
0
 10
4523.481804607416052
 20
460.6530307145022789
 30
0.0
 40
2.3173209232974861
 50
182.8970543195540017
 51
189.8402535731941043
  0
ARC
  5
1BF5A
  8
0
 10
4521.9904388410132015
 20
460.4027284273739724
 30
0.0
 40
0.8051612596572438
 50
190.4278499784385019
 51
215.904698895964799
  0
ARC
  5
1BF5B
  8
0
 10
4524.2201627248796285
 20
463.3025531462130857
 30
0.0
 40
4.4731124599718113
 50
233.9580509274094027
 51
238.7154939389602077
  0
ARC
  5
1BF5C
  8
0
 10
4522.2996121320466045
 20
460.66194487486041
 30
0.0
 40
1.2079440757354929
 50
217.2638825855495099
 51
233.9228028002438862
  0
ARC
  5
1BF5D
  8
0
 10
4521.8861820031988827
 20
459.4629657193041226
 30
0.0
 40
0.020219002793629
 50
347.7824225437242944
 51
56.5429796810681466
  0
ARC
  5
1BF5E
  8
0
 10
4521.886414990583944
 20
459.4630744330839889
 30
0.0
 40
0.0200149033612499
 50
271.4654088784283772
 51
347.3371107773933204
  0
ARC
  5
1BF5F
  8
0
 10
4521.9290726174313022
 20
459.4111984758134781
 30
0.0
 40
0.0198676464269329
 50
53.8759372861080124
 51
90.1240625693452984
  0
LINE
  5
1BF60
  8
0
 10
4522.117836599642942
 20
459.2986111189654252
 30
0.0
 11
4521.9407853030888873
 21
459.4272464155528155
 31
0.0
  0
LINE
  5
1BF61
  8
0
 10
4521.1438232738446459
 20
460.8863033058652832
 30
0.0
 11
4521.1674453199439085
 21
460.5359096211653878
 31
0.0
  0
ARC
  5
1BF62
  8
0
 10
4523.3357193277988699
 20
460.5449334966745027
 30
0.0
 40
2.2374746221644721
 50
180.2310698947505898
 51
196.775981609471188
  0
ARC
  5
1BF63
  8
0
 10
4532.8276141376481974
 20
464.0286735442427926
 30
0.0
 40
12.3452999363308997
 50
199.5423358062166983
 51
201.6180253133518079
  0
ARC
  5
1BF64
  8
0
 10
4521.3226275316656029
 20
459.4644253259240259
 30
0.0
 40
0.0323046631015448
 50
318.6099459415120805
 51
29.7483905770279513
  0
LINE
  5
1BF65
  8
0
 10
4521.0862737912439115
 20
460.8862987376654132
 30
0.0
 11
4521.098262901344242
 21
460.5359099415654214
 31
0.0
  0
LINE
  5
1BF66
  8
0
 10
4520.1610279919441382
 20
459.4430660756652856
 30
0.0
 11
4520.1610279919441382
 21
459.4310660756652851
 31
0.0
  0
LINE
  5
1BF67
  8
0
 10
4521.8510279919446475
 20
459.4430660756652856
 30
0.0
 11
4521.8510279919446475
 21
459.4310660756652851
 31
0.0
  0
LINE
  5
1BF68
  8
0
 10
4519.9047675547999461
 20
459.199167594045889
 30
0.0
 11
4522.1072884290888396
 21
459.199167594045889
 31
0.0
  0
ARC
  5
1BF69
  8
0
 10
4523.8875279919438981
 20
459.1416976238654115
 30
0.0
 40
0.06
 50
0.0
 51
73.3020637100820665
  0
ARC
  5
1BF6A
  8
0
 10
4523.9316754754281646
 20
459.2401259593946179
 30
0.0
 40
0.0694512250201619
 50
122.6370237808876027
 51
174.2062272787231052
  0
ARC
  5
1BF6B
  8
0
 10
4523.9203205241474279
 20
459.2605488077174982
 30
0.0
 40
0.0633209937328344
 50
218.9967676919432904
 51
255.7814592870325896
  0
ARC
  5
1BF6C
  8
0
 10
4523.9165430247849145
 20
459.2499560257945745
 30
0.0
 40
0.0540375806204603
 50
182.9904274317217983
 51
212.7760785637179879
  0
LINE
  5
1BF6D
  8
0
 10
4523.9475279919442983
 20
459.1416976238654115
 30
0.0
 11
4523.9475279919442983
 21
459.1397230756654153
 31
0.0
  0
LINE
  5
1BF6E
  8
0
 10
4523.9475279919442983
 20
459.1397230756654153
 30
0.0
 11
4526.0645279919435779
 21
459.1397230756654153
 31
0.0
  0
LINE
  5
1BF6F
  8
0
 10
4524.0830263858442777
 20
459.4310660756652851
 30
0.0
 11
4525.9290295980454175
 21
459.4310660756652851
 31
0.0
  0
ARC
  5
1BF70
  8
0
 10
4524.082983366456574
 20
459.4111984758134781
 30
0.0
 40
0.0198676464269329
 50
89.8759374306547159
 51
126.1240627138920019
  0
LINE
  5
1BF71
  8
0
 10
4523.8942193842440247
 20
459.2986111189654252
 30
0.0
 11
4524.0712706807980794
 21
459.4272464155528155
 31
0.0
  0
ARC
  5
1BF72
  8
0
 10
4526.1245279919439781
 20
459.1416976238654115
 30
0.0
 40
0.06
 50
106.6979362899179051
 51
180.0
  0
ARC
  5
1BF73
  8
0
 10
4526.0803805084597116
 20
459.2401259593946179
 30
0.0
 40
0.0694512250201852
 50
5.7937727212865644
 51
57.3629762191123973
  0
ARC
  5
1BF74
  8
0
 10
4526.0917354597422673
 20
459.2605488077174982
 30
0.0
 40
0.0633209937328344
 50
284.2185407129674104
 51
321.0032323080567949
  0
ARC
  5
1BF75
  8
0
 10
4526.1005025274398577
 20
459.2483460495291752
 30
0.0
 40
0.0489893509022548
 50
325.6477666113652845
 51
358.5857273931819122
  0
LINE
  5
1BF76
  8
0
 10
4526.0645279919435779
 20
459.1416976238654115
 30
0.0
 11
4526.0645279919435779
 21
459.1397230756654153
 31
0.0
  0
ARC
  5
1BF77
  8
0
 10
4525.9290726174313022
 20
459.4111984758134781
 30
0.0
 40
0.0198676464269329
 50
53.8759372861080124
 51
90.1240625693452984
  0
LINE
  5
1BF78
  8
0
 10
4526.117836599642942
 20
459.2986111189654252
 30
0.0
 11
4525.9407853030897968
 21
459.4272464155528155
 31
0.0
  0
LINE
  5
1BF79
  8
0
 10
4523.9047675547999461
 20
459.199167594045889
 30
0.0
 11
4526.1072884290888396
 21
459.199167594045889
 31
0.0
  0
ARC
  5
1BF7A
  8
0
 10
4525.0072397457397528
 20
467.3222841924978184
 30
0.0
 40
1.0120703988392661
 50
90.0686003611246946
 51
119.7628791237380028
  0
ARC
  5
1BF7B
  8
0
 10
4535.1600316835319973
 20
466.2283211300393191
 30
0.0
 40
10.8238279019202803
 50
175.132741149387698
 51
179.6860781615677922
  0
ARC
  5
1BF7C
  8
0
 10
4524.3723140798838358
 20
466.2883230239257841
 30
0.0
 40
0.0359546286223929
 50
181.113593740522191
 51
274.6599640085219107
  0
LINE
  5
1BF7D
  8
0
 10
4524.3752351086441195
 20
466.2524872469654156
 30
0.0
 11
4525.6407793331436551
 21
466.2524872469654156
 31
0.0
  0
LINE
  5
1BF7E
  8
0
 10
4524.5139944718439438
 20
466.2524872469654156
 30
0.0
 11
4524.5211315764436222
 21
464.6291399100654189
 31
0.0
  0
LINE
  5
1BF7F
  8
0
 10
4524.5211315764436222
 20
464.6291399100654189
 30
0.0
 11
4524.5215279931571786
 21
463.9074665422548946
 31
0.0
  0
LINE
  5
1BF80
  8
0
 10
4524.5215279931571786
 20
463.9074665422548946
 30
0.0
 11
4524.4953002718184507
 21
461.5222677828654128
 31
0.0
  0
ARC
  5
1BF81
  8
0
 10
4524.5483184892127611
 20
468.1286019622318122
 30
0.0
 40
0.0843233663287233
 50
121.0416523140170995
 51
148.5291845179480958
  0
ARC
  5
1BF82
  8
0
 10
4524.5847925423122433
 20
468.1103140494133186
 30
0.0
 40
0.1250272177401132
 50
150.1076184775461968
 51
174.130424769514093
  0
ARC
  5
1BF83
  8
0
 10
4526.3007013628366622
 20
467.8665784727518258
 30
0.0
 40
1.8580731264748149
 50
172.0645276765986011
 51
176.9031156670307041
  0
ARC
  5
1BF84
  8
0
 10
4589.4402724015417334
 20
461.9988170012842943
 30
0.0
 40
65.2683670784181942
 50
174.7535422817954043
 51
175.4762398733647899
  0
ARC
  5
1BF85
  8
0
 10
4523.7464392350138951
 20
459.9907630504504255
 30
0.0
 40
0.6464826403061412
 50
305.8829971425203098
 51
336.9724442464399203
  0
ARC
  5
1BF86
  8
0
 10
4523.0479521830484373
 20
460.25502592803781
 30
0.0
 40
1.3930083425486259
 50
338.2074664480663841
 51
355.2146314763855912
  0
ARC
  5
1BF87
  8
0
 10
4503.9562983905789224
 20
461.6958656972694257
 30
0.0
 40
20.5397285451648806
 50
357.1523115846425753
 51
359.5079006418279164
  0
ARC
  5
1BF88
  8
0
 10
4516.1709110136816889
 20
460.9405210082077247
 30
0.0
 40
8.3039844648027721
 50
354.4597747179892053
 51
358.1706146942245823
  0
ARC
  5
1BF89
  8
0
 10
4524.1375761062081438
 20
459.4510962105857743
 30
0.0
 40
0.0200303437945891
 50
127.5686888089742013
 51
269.7382154655045952
  0
ARC
  5
1BF8A
  8
0
 10
4525.0048162381490329
 20
467.3222841924978184
 30
0.0
 40
1.0120703988392661
 50
60.2371208762619688
 51
89.9313996388752912
  0
ARC
  5
1BF8B
  8
0
 10
4514.8520243003549695
 20
466.2283211300393191
 30
0.0
 40
10.8238279019209394
 50
0.3139218384322018
 51
4.8672588506122523
  0
ARC
  5
1BF8C
  8
0
 10
4525.6403728214181683
 20
466.2876250976090091
 30
0.0
 40
0.0353169204415463
 50
264.227804098336378
 51
359.9986381526244941
  0
LINE
  5
1BF8D
  8
0
 10
4525.4980615120439325
 20
466.2524872469654156
 30
0.0
 11
4525.490924407444254
 21
464.6291399100654189
 31
0.0
  0
LINE
  5
1BF8E
  8
0
 10
4525.490924407444254
 20
464.6291399100654189
 30
0.0
 11
4525.4905279907316071
 21
463.9074665422548946
 31
0.0
  0
LINE
  5
1BF8F
  8
0
 10
4525.4905279907316071
 20
463.9074665422548946
 30
0.0
 11
4525.5167557120694255
 21
461.5222677828654128
 31
0.0
  0
ARC
  5
1BF90
  8
0
 10
4525.4637374946760247
 20
468.1286019622318122
 30
0.0
 40
0.0843233663287233
 50
31.4708154820519113
 51
58.9583476859828579
  0
ARC
  5
1BF91
  8
0
 10
4525.4272634415756329
 20
468.1103140494133186
 30
0.0
 40
0.1250272177401132
 50
5.8695752304859061
 51
29.8923815224537606
  0
ARC
  5
1BF92
  8
0
 10
4523.7113546210521235
 20
467.8665784727518258
 30
0.0
 40
1.8580731264748149
 50
3.096884332969287
 51
7.9354723234013722
  0
ARC
  5
1BF93
  8
0
 10
4460.5717835823461428
 20
461.9988170012842943
 30
0.0
 40
65.2683670784181942
 50
4.523760126635171
 51
5.24645771820453
  0
ARC
  5
1BF94
  8
0
 10
4526.2656167488748906
 20
459.9907630504504255
 30
0.0
 40
0.6464826403061412
 50
203.0275557535601081
 51
234.1170028574796902
  0
ARC
  5
1BF95
  8
0
 10
4526.9641038008403484
 20
460.25502592803781
 30
0.0
 40
1.3930083425486259
 50
184.7853685236144088
 51
201.7925335519335022
  0
ARC
  5
1BF96
  8
0
 10
4546.0557575933098633
 20
461.6958656972694257
 30
0.0
 40
20.5397285451648806
 50
180.492099358172112
 51
182.8476884153573963
  0
ARC
  5
1BF97
  8
0
 10
4533.8411449702061873
 20
460.9405210082077247
 30
0.0
 40
8.3039844648027721
 50
181.829385305775304
 51
185.5402252820107947
  0
ARC
  5
1BF98
  8
0
 10
4525.8744798776806419
 20
459.4510962105857743
 30
0.0
 40
0.0200303437945891
 50
270.2617845344954048
 51
52.4313111910257987
  0
ARC
  5
1BF99
  8
0
 10
4530.1245279919439781
 20
459.1416976238654115
 30
0.0
 40
0.06
 50
106.6979362899179051
 51
180.0
  0
ARC
  5
1BF9A
  8
0
 10
4530.0760758857668407
 20
459.2354713589571134
 30
0.0
 40
0.0757006374970263
 50
19.8318301061454108
 51
56.5193014541601286
  0
ARC
  5
1BF9B
  8
0
 10
4530.0917354597413578
 20
459.2605488077174982
 30
0.0
 40
0.0633209937328344
 50
284.2185407129674104
 51
321.0032323080567949
  0
ARC
  5
1BF9C
  8
0
 10
4530.1044992758343142
 20
459.2471369332180871
 30
0.0
 40
0.0450249709424342
 50
324.0479161097470069
 51
18.1381186952786315
  0
LINE
  5
1BF9D
  8
0
 10
4530.0645279919435779
 20
459.1416976238654115
 30
0.0
 11
4530.0645279919435779
 21
459.1397230756654153
 31
0.0
  0
LINE
  5
1BF9E
  8
0
 10
4530.0645279919435779
 20
459.1397230756654153
 30
0.0
 11
4527.9475279919442983
 21
459.1397230756654153
 31
0.0
  0
LINE
  5
1BF9F
  8
0
 10
4529.9290295980435985
 20
459.4310660756652851
 30
0.0
 11
4528.0830263858442777
 21
459.4310660756652851
 31
0.0
  0
LINE
  5
1BFA0
  8
0
 10
4529.8864284084438623
 20
459.4430660756652856
 30
0.0
 11
4528.1256275754440139
 21
459.4430660756652856
 31
0.0
  0
ARC
  5
1BFA1
  8
0
 10
4531.4818046074169615
 20
460.6530307145022789
 30
0.0
 40
2.3173209232974861
 50
182.8970543195540017
 51
189.8402535731941043
  0
ARC
  5
1BFA2
  8
0
 10
4529.9904388410132015
 20
460.4027284273739724
 30
0.0
 40
0.8051612596572438
 50
190.4278499784385019
 51
215.904698895964799
  0
ARC
  5
1BFA3
  8
0
 10
4532.2201627248814475
 20
463.3025531462130857
 30
0.0
 40
4.4731124599718113
 50
233.9580509274094027
 51
238.7154939389602077
  0
ARC
  5
1BFA4
  8
0
 10
4530.2996121320466045
 20
460.66194487486041
 30
0.0
 40
1.2079440757354929
 50
217.2638825855495099
 51
233.9228028002438862
  0
ARC
  5
1BFA5
  8
0
 10
4529.8861820031979732
 20
459.4629657193041226
 30
0.0
 40
0.020219002793629
 50
347.7824225437242944
 51
56.5429796810681466
  0
ARC
  5
1BFA6
  8
0
 10
4529.8864284043083899
 20
459.4630660558415229
 30
0.0
 40
0.0199999801761316
 50
270.0000118483500842
 51
347.352102234350923
  0
ARC
  5
1BFA7
  8
0
 10
4529.9290726174313022
 20
459.4111984758134781
 30
0.0
 40
0.0198676464269329
 50
53.8759372861080124
 51
90.1240625693452984
  0
LINE
  5
1BFA8
  8
0
 10
4530.1178365996438515
 20
459.2986111189654252
 30
0.0
 11
4529.9407853030888873
 21
459.4272464155528155
 31
0.0
  0
LINE
  5
1BFA9
  8
0
 10
4529.1438232726823117
 20
460.8863033237643094
 30
0.0
 11
4529.1674453199439085
 21
460.5359096211653878
 31
0.0
  0
ARC
  5
1BFAA
  8
0
 10
4529.6303304520242818
 20
461.3423449792358042
 30
0.0
 40
0.096661730402356
 50
268.356068473049902
 51
269.069452824778125
  0
ARC
  5
1BFAB
  8
0
 10
4529.5053560193618978
 20
458.8240493484731815
 30
0.0
 40
2.4248360661676331
 50
89.9481578399345523
 51
92.9390055426901682
  0
ARC
  5
1BFAC
  8
0
 10
4529.5033413887558709
 20
458.809781726089227
 30
0.0
 40
2.4391063269656139
 50
87.080843166880129
 51
89.9011364652934617
  0
ARC
  5
1BFAD
  8
0
 10
4529.3926133094082616
 20
461.0102166697556072
 30
0.0
 40
0.2357641466886959
 50
92.8166614174993043
 51
117.1174070626504005
  0
ARC
  5
1BFAE
  8
0
 10
4529.3900647767814007
 20
461.0119952785516944
 30
0.0
 40
0.2330239515375137
 50
116.7589946519415065
 51
145.4067431766110019
  0
ARC
  5
1BFAF
  8
0
 10
4529.6181202102052339
 20
460.9350825899090864
 30
0.0
 40
0.4767987014969237
 50
164.5454919349353133
 51
185.8719634504477938
  0
ARC
  5
1BFB0
  8
0
 10
4529.4257943075954245
 20
460.9837379199864813
 30
0.0
 40
0.2784955456770118
 50
144.7944245360039872
 51
163.649769439852605
  0
ARC
  5
1BFB1
  8
0
 10
4529.4030255791558375
 20
461.0532296215167776
 30
0.0
 40
0.5019486173542173
 50
92.5117609299137769
 51
124.7015014793514069
  0
ARC
  5
1BFB2
  8
0
 10
4529.421983757468297
 20
461.039560388462121
 30
0.0
 40
0.5240375175506597
 50
125.5548030702730955
 51
142.5375261610265056
  0
ARC
  5
1BFB3
  8
0
 10
4529.9157709621113099
 20
460.8688201939198166
 30
0.0
 40
1.0476841359625371
 50
160.5296180882731107
 51
179.0438387015099124
  0
ARC
  5
1BFB4
  8
0
 10
4529.451208619458157
 20
461.0188203323327798
 30
0.0
 40
0.559851313905396
 50
142.6719329336754072
 51
159.1555080410408891
  0
ARC
  5
1BFB5
  8
0
 10
4529.633231624416112
 20
461.5999075542140986
 30
0.0
 40
0.0217925039891065
 50
91.1061652711978667
 51
115.5056359678446967
  0
ARC
  5
1BFB6
  8
0
 10
4529.6731933462442612
 20
461.6116959969652953
 30
0.0
 40
0.0099999999999998
 50
0.0
 51
90.0
  0
LINE
  5
1BFB7
  8
0
 10
4529.6731933462442612
 20
461.6216959969653999
 30
0.0
 11
4529.6328109195428624
 21
461.6216959969653999
 31
0.0
  0
LINE
  5
1BFB8
  8
0
 10
4529.7621699363826338
 20
461.6622477178896133
 30
0.0
 11
4529.7225990315810122
 21
461.6616522934505724
 31
0.0
  0
LINE
  5
1BFB9
  8
0
 10
4529.68319334624357
 20
461.6216514652654155
 30
0.0
 11
4529.6831939295670963
 21
461.3317775930186144
 31
0.0
  0
ARC
  5
1BFBA
  8
0
 10
4529.3467940487898886
 20
462.1676530076045992
 30
0.0
 40
0.6139122579842035
 50
273.1966911771045261
 51
282.4060201540071944
  0
ARC
  5
1BFBB
  8
0
 10
4529.3451742494471546
 20
462.1705906497610954
 30
0.0
 40
0.6171300322413215
 50
282.4943001887863829
 51
293.2083801920624069
  0
ARC
  5
1BFBC
  8
0
 10
4529.3611693967231986
 20
462.1486887476542051
 30
0.0
 40
0.5907283574671999
 50
292.6196529774712758
 51
296.4021407026403949
  0
ARC
  5
1BFBD
  8
0
 10
4529.7231933440052671
 20
461.6216567106802131
 30
0.0
 40
0.0399999981050447
 50
90.8513212578085216
 51
180.0075135036516087
  0
ARC
  5
1BFBE
  8
0
 10
4529.7623198914116074
 20
461.6522488444534815
 30
0.0
 40
0.0099999978251893
 50
0.8210751511219898
 51
90.8592110626205454
  0
LINE
  5
1BFBF
  8
0
 10
4529.7751133281435614
 20
461.6725324189653747
 30
0.0
 11
4529.7754446943436051
 21
461.6118880430735771
 31
0.0
  0
LINE
  5
1BFC0
  8
0
 10
4529.7723188624440809
 20
461.6523921441652192
 30
0.0
 11
4529.7725994789379911
 21
461.6336843741879079
 31
0.0
  0
LINE
  5
1BFC1
  8
0
 10
4529.7754443383437319
 20
461.6118840609653944
 30
0.0
 11
4529.7815021106443965
 21
461.5870915798653868
 31
0.0
  0
ARC
  5
1BFC2
  8
0
 10
4529.9011489955400975
 20
461.6393964454053958
 30
0.0
 40
0.1286801932642392
 50
182.603444792438097
 51
192.3453903139294994
  0
ARC
  5
1BFC3
  8
0
 10
4529.7851628554381023
 20
461.6725473192282152
 30
0.0
 40
0.0100495383406106
 50
91.1391856897100467
 51
180.0849514132088984
  0
ARC
  5
1BFC4
  8
0
 10
4529.8001086952626792
 20
461.6740298912201865
 30
0.0
 40
0.0049896327717339
 50
189.6850158737946117
 51
270.895939541955272
  0
ARC
  5
1BFC5
  8
0
 10
4529.8910610581942819
 20
461.6672065486206975
 30
0.0
 40
0.0957714628166648
 50
182.0366163770696915
 51
188.7125045975294881
  0
ARC
  5
1BFC6
  8
0
 10
4529.8065810445868919
 20
461.6240975729406841
 30
0.0
 40
0.0039724890655892
 50
221.1328342800628093
 51
250.1690436046573893
  0
ARC
  5
1BFC7
  8
0
 10
4529.8048534192803345
 20
461.6225332075288748
 30
0.0
 40
0.0016427467089959
 50
196.3798941790645074
 51
219.6742516030282957
  0
ARC
  5
1BFC8
  8
0
 10
4530.1642294592757025
 20
461.7226755988393734
 30
0.0
 40
0.3747104550346058
 50
193.269277496359706
 51
195.5743762387787115
  0
ARC
  5
1BFC9
  8
0
 10
4529.9938342556697535
 20
461.6829088421314964
 30
0.0
 40
0.1997372797870454
 50
188.6991293273511019
 51
193.3855637235843972
  0
ARC
  5
1BFCA
  8
0
 10
4529.8114890893166375
 20
461.7107866561048013
 30
0.0
 40
0.1060154528144368
 50
262.3308784755985243
 51
270.5732790895658013
  0
ARC
  5
1BFCB
  8
0
 10
4529.7870966871842029
 20
461.6128168671828007
 30
0.0
 40
0.0041213500788668
 50
207.0106015886109958
 51
242.2531958873545079
  0
ARC
  5
1BFCC
  8
0
 10
4529.8044248859268919
 20
461.6592211806270143
 30
0.0
 40
0.0539686163977746
 50
253.8573599879483993
 51
262.4577407223604837
  0
ARC
  5
1BFCD
  8
0
 10
4529.794229938413082
 20
461.6247096016924161
 30
0.0
 40
0.0179843325013251
 50
239.7796126807905068
 51
254.4873659107547894
  0
ARC
  5
1BFCE
  8
0
 10
4530.0351329147406432
 20
461.6831690713735838
 30
0.0
 40
0.261864908021528
 50
187.018159428454311
 51
196.0100578467026935
  0
ARC
  5
1BFCF
  8
0
 10
4529.7229270459047257
 20
461.3298273679790213
 30
0.0
 40
0.0388501770070901
 50
231.094162491565811
 51
270.4176400398862938
  0
ARC
  5
1BFD0
  8
0
 10
4529.7244450614525704
 20
461.3316877014565875
 30
0.0
 40
0.0412512298275052
 50
179.8751452692559951
 51
231.0762174696153863
  0
LINE
  5
1BFD1
  8
0
 10
4529.7232102298657992
 20
461.2909782230678957
 30
0.0
 11
4531.6636078866013122
 21
461.2911178178633804
 31
0.0
  0
ARC
  5
1BFD2
  8
0
 10
4531.9733815314320964
 20
461.2671374184155866
 30
0.0
 40
0.0210721318952581
 50
256.2478105139275044
 51
269.4885152346953987
  0
ARC
  5
1BFD3
  8
0
 10
4531.5346502607380899
 20
459.7178747391203046
 30
0.0
 40
1.589127974411128
 50
74.1612598688047626
 51
75.3921223470248094
  0
ARC
  5
1BFD4
  8
0
 10
4531.6499327777064536
 20
460.1564542588125732
 30
0.0
 40
1.135651620137937
 50
75.4398021045458762
 51
80.5179288365279007
  0
ARC
  5
1BFD5
  8
0
 10
4531.6496530626573076
 20
459.4039785831840277
 30
0.0
 40
1.887190829900528
 50
88.6032217927143932
 51
89.5763224549249486
  0
ARC
  5
1BFD6
  8
0
 10
4531.6642562736687978
 20
460.2593787459829855
 30
0.0
 40
1.031707816903342
 50
84.1732957490918068
 51
88.2559971157452026
  0
ARC
  5
1BFD7
  8
0
 10
4531.6620133979740785
 20
460.234879448844481
 30
0.0
 40
1.056308266123295
 50
80.4634638191055842
 51
84.187175084100403
  0
ARC
  5
1BFD8
  8
0
 10
4532.2107399698752488
 20
461.6886219119272141
 30
0.0
 40
0.0103563567864484
 50
91.3726899067788736
 51
118.8063728758927056
  0
ARC
  5
1BFD9
  8
0
 10
4532.2113887848399827
 20
461.6880473139258925
 30
0.0
 40
0.0111762884465228
 50
120.3017281279782935
 51
137.0998302463518996
  0
ARC
  5
1BFDA
  8
0
 10
4532.2436877940099293
 20
461.6593541904824178
 30
0.0
 40
0.0401118817077164
 50
1.022959267630223
 51
90.6985675999131473
  0
LINE
  5
1BFDB
  8
0
 10
4532.2431987498439412
 20
461.6994630908653789
 30
0.0
 11
4532.2104918764443937
 21
461.6989752966654237
 31
0.0
  0
LINE
  5
1BFDC
  8
0
 10
4532.2837932827433178
 20
461.6600703102653824
 30
0.0
 11
4532.2893942959435662
 21
461.2866658073654094
 31
0.0
  0
LINE
  5
1BFDD
  8
0
 10
4532.2494003937435991
 20
461.246066304465387
 30
0.0
 11
4531.9731934210440158
 21
461.246066126165374
 31
0.0
  0
ARC
  5
1BFDE
  8
0
 10
4532.2496616242688106
 20
461.2860166618648918
 30
0.0
 40
0.0397379741351859
 50
312.1490363651865891
 51
0.9360052360398468
  0
ARC
  5
1BFDF
  8
0
 10
4532.249199118836259
 20
461.2863940182832039
 30
0.0
 40
0.0403282160944952
 50
270.285959850155507
 51
312.2764382432404773
  0
ARC
  5
1BFE0
  8
0
 10
4532.187414410915153
 20
461.7085796316451933
 30
0.0
 40
0.0100341594884882
 50
0.7491749988062448
 51
90.6435076985245161
  0
ARC
  5
1BFE1
  8
0
 10
4532.1020907864231049
 20
461.6343480411043174
 30
0.0
 40
0.0381134802946557
 50
269.3172633464369028
 51
286.3751990227775082
  0
ARC
  5
1BFE2
  8
0
 10
4532.1092770452551122
 20
461.6116470939962824
 30
0.0
 40
0.0143159298413531
 50
284.3946375314615125
 51
307.1019999641421805
  0
LINE
  5
1BFE3
  8
0
 10
4532.2032016966441006
 20
461.6956552709654034
 30
0.0
 11
4532.1179129270440171
 21
461.6002292398654276
 31
0.0
  0
LINE
  5
1BFE4
  8
0
 10
4532.1974477126432248
 20
461.7087108302653746
 30
0.0
 11
4532.1975530240933949
 21
461.6893352079003989
 31
0.0
  0
ARC
  5
1BFE5
  8
0
 10
4532.1442387243278063
 20
461.6224891996694737
 30
0.0
 40
0.0809167885386751
 50
281.0006605212846011
 51
297.0041826231450841
  0
ARC
  5
1BFE6
  8
0
 10
4532.1038553977987249
 20
461.8138875722834769
 30
0.0
 40
0.2765217580007604
 50
270.4635720319449774
 51
281.646850367319928
  0
ARC
  5
1BFE7
  8
0
 10
4532.1172317641039626
 20
461.2215336709929829
 30
0.0
 40
0.1886472752706342
 50
69.520483470931481
 51
92.8103258809108098
  0
LINE
  5
1BFE8
  8
0
 10
4532.1809803576443301
 20
461.5503953592653943
 30
0.0
 11
4532.2837932827433178
 21
461.6600703102653824
 31
0.0
  0
LINE
  5
1BFE9
  8
0
 10
4532.1832342569441607
 20
461.3982579347654109
 30
0.0
 11
4532.2893942959435662
 21
461.2866658073654094
 31
0.0
  0
LINE
  5
1BFEA
  8
0
 10
4531.918182735944356
 20
461.2456959969654235
 30
0.0
 11
4529.6287606270443575
 21
461.2456959969654235
 31
0.0
  0
LINE
  5
1BFEB
  8
0
 10
4532.106093123631581
 20
461.5373748687219972
 30
0.0
 11
4529.6831935352511209
 21
461.5277274400654051
 31
0.0
  0
LINE
  5
1BFEC
  8
0
 10
4532.1079824307444142
 20
461.4099540634653067
 30
0.0
 11
4529.68319383375092
 21
461.3793923680652824
 31
0.0
  0
LINE
  5
1BFED
  8
0
 10
4532.0891593099431702
 20
461.5961731527652887
 30
0.0
 11
4529.7966199514439722
 21
461.5843931024654125
 31
0.0
  0
ARC
  5
1BFEE
  8
0
 10
4529.7883877456160917
 20
461.6003147659400838
 30
0.0
 40
0.0149085418526087
 50
242.4929096089140046
 51
251.1058165652713967
  0
ARC
  5
1BFEF
  8
0
 10
4529.7962477364617371
 20
461.6285173403471163
 30
0.0
 40
0.0441693225885666
 50
253.306533308361395
 51
270.4826477013373847
  0
LINE
  5
1BFF0
  8
0
 10
4529.8125498206436532
 20
461.6047765099652906
 30
0.0
 11
4532.0890395463438836
 21
461.6180914822654131
 31
0.0
  0
LINE
  5
1BFF1
  8
0
 10
4532.1974477126432248
 20
461.7087108302653746
 30
0.0
 11
4532.1177804271428613
 21
461.6237662583653787
 31
0.0
  0
LINE
  5
1BFF2
  8
0
 10
4532.1016366368439776
 20
461.5962372666654119
 30
0.0
 11
4532.0891593099431702
 21
461.5961731527652887
 31
0.0
  0
ARC
  5
1BFF3
  8
0
 10
4532.088741420137012
 20
461.7162560939440255
 30
0.0
 40
0.0981650650825728
 50
270.1740069107075897
 51
279.2335636122598999
  0
ARC
  5
1BFF4
  8
0
 10
4532.1004197208330879
 20
461.6539047369910804
 30
0.0
 40
0.0347810583141148
 50
276.7253399650670076
 51
299.9432880856385282
  0
LINE
  5
1BFF5
  8
0
 10
4532.1873017163479744
 20
461.7186131582720918
 30
0.0
 11
4532.1773872893991211
 21
461.7184812331126977
 31
0.0
  0
LINE
  5
1BFF6
  8
0
 10
4532.1773872893991211
 20
461.7184812331126977
 30
0.0
 11
4532.0990525168435852
 21
461.6357941815654158
 31
0.0
  0
LINE
  5
1BFF7
  8
0
 10
4532.0894768337439018
 20
461.6330586555653781
 30
0.0
 11
4529.8198233883949797
 21
461.6190847621473949
 31
0.0
  0
ARC
  5
1BFF8
  8
0
 10
4529.8117356202837982
 20
461.6360773971766776
 30
0.0
 40
0.0170086663154445
 50
247.5244534657564088
 51
269.4919743592889745
  0
ARC
  5
1BFF9
  8
0
 10
4529.8147789885124439
 20
462.1151881350274948
 30
0.0
 40
0.4961290180519687
 50
269.6311158225825011
 51
270.5825658104166109
  0
ARC
  5
1BFFA
  8
0
 10
4532.0928447735441296
 20
461.6429891609809033
 30
0.0
 40
0.0095028314550891
 50
280.1426540087862236
 51
310.7872370331421052
  0
ARC
  5
1BFFB
  8
0
 10
4532.0894154312418323
 20
461.6559391890310735
 30
0.0
 40
0.0228806158559093
 50
270.153759343703598
 51
282.8863512942310194
  0
ARC
  5
1BFFC
  8
0
 10
4531.9182007529043403
 20
461.2656044776317117
 30
0.0
 40
0.0199084888188381
 50
269.9481479517579032
 51
329.9438496653805259
  0
LINE
  5
1BFFD
  8
0
 10
4529.7953500923440515
 20
461.6638030054652972
 30
0.0
 11
4529.7951901772357814
 21
461.6731904773637893
 31
0.0
  0
LINE
  5
1BFFE
  8
0
 10
4529.7951901772357814
 20
461.6731904773637893
 30
0.0
 11
4529.7950640491435479
 21
461.6827463860653893
 31
0.0
  0
LINE
  5
1BFFF
  8
0
 10
4529.7950640491435479
 20
461.6827463860653893
 30
0.0
 11
4529.7849630582441023
 21
461.682594871265394
 31
0.0
  0
LINE
  5
1C000
  8
0
 10
4529.8001867154443971
 20
461.6690408684654017
 30
0.0
 11
4532.1641171039673281
 21
461.7045006301732997
 31
0.0
  0
LINE
  5
1C001
  8
0
 10
4529.6239074853147031
 20
461.619604601204685
 30
0.0
 11
4529.6237967341076001
 21
461.5388540175973162
 31
0.0
  0
LINE
  5
1C002
  8
0
 10
4529.6237967341076001
 20
461.5388540175973162
 30
0.0
 11
4529.6249381347506642
 21
461.4956450886886046
 31
0.0
  0
LINE
  5
1C003
  8
0
 10
4529.6249381347506642
 20
461.4956450886886046
 30
0.0
 11
4529.6248558012539434
 21
461.3668370790118729
 31
0.0
  0
LINE
  5
1C004
  8
0
 10
4529.6248558012539434
 20
461.3668370790118729
 30
0.0
 11
4529.6262469393177525
 21
461.322837894825625
 31
0.0
  0
LINE
  5
1C005
  8
0
 10
4529.6262469393177525
 20
461.322837894825625
 30
0.0
 11
4529.6275574124101695
 21
461.2457230395942247
 31
0.0
  0
LINE
  5
1C006
  8
0
 10
4529.6731933462442612
 20
461.5405868373654243
 30
0.0
 11
4529.632995336044587
 21
461.5405868373654243
 31
0.0
  0
LINE
  5
1C007
  8
0
 10
4529.6731933462442612
 20
461.3227235235654007
 30
0.0
 11
4529.6299857248441185
 21
461.3227235235654007
 31
0.0
  0
ARC
  5
1C008
  8
0
 10
4529.6735241925744049
 20
461.3323942828948248
 30
0.0
 40
0.0096764169660657
 50
268.0406183630851729
 51
357.7798904454064086
  0
ARC
  5
1C009
  8
0
 10
4529.5053008710092399
 20
459.3209244397287989
 30
0.0
 40
2.005643988097074
 50
89.2499012532514655
 51
93.5524126946407932
  0
ARC
  5
1C00A
  8
0
 10
4529.5058980347866964
 20
459.382107909709589
 30
0.0
 40
1.9444579542579981
 50
86.4515075254113441
 51
89.2438942829723061
  0
LINE
  5
1C00B
  8
0
 10
4529.6262469394632717
 20
461.3228378948002728
 30
0.0
 11
4529.6299857248441185
 21
461.3227235235654007
 31
0.0
  0
LINE
  5
1C00C
  8
0
 10
4529.6329953359809224
 20
461.5405868373260887
 30
0.0
 11
4529.6237988284501625
 21
461.5388488451977764
 31
0.0
  0
ARC
  5
1C00D
  8
0
 10
4529.6734565368797121
 20
461.5308396026865125
 30
0.0
 40
0.0097507873116392
 50
3.068254535060924
 51
91.5467001608858482
  0
ARC
  5
1C00E
  8
0
 10
4529.3480459614884239
 20
462.2216272924291047
 30
0.0
 40
0.73638169516427
 50
272.5670943641840722
 51
282.573835149162619
  0
ARC
  5
1C00F
  8
0
 10
4529.348233665544285
 20
462.2204657915654025
 30
0.0
 40
0.7352071919999598
 50
282.5792633634163167
 51
292.0125752883216137
  0
ARC
  5
1C010
  8
0
 10
4529.3989226583125856
 20
460.9916115118351172
 30
0.0
 40
0.3315863526983028
 50
93.0935739179882802
 51
122.9809449872296057
  0
ARC
  5
1C011
  8
0
 10
4529.6423785687402415
 20
460.9453980144227216
 30
0.0
 40
0.5592228171184127
 50
157.86782242609371
 51
186.039656182522009
  0
ARC
  5
1C012
  8
0
 10
4529.379003294924587
 20
461.0411445425539227
 30
0.0
 40
0.2793804346664479
 50
125.0844088322832022
 51
155.7070747686040022
  0
ARC
  5
1C013
  8
0
 10
4529.4030997726458736
 20
461.0007182896384279
 30
0.0
 40
0.4857679951717416
 50
92.6042425133015144
 51
123.1169946435358042
  0
ARC
  5
1C014
  8
0
 10
4529.3682789279464487
 20
461.0536621297774786
 30
0.0
 40
0.422400211595783
 50
123.0846379073840069
 51
149.0483053497036963
  0
ARC
  5
1C015
  8
0
 10
4530.1800021970975649
 20
460.8829276599047944
 30
0.0
 40
1.254224534817451
 50
169.1717640096753996
 51
179.8460014492727055
  0
ARC
  5
1C016
  8
0
 10
4529.4278557429242937
 20
461.0233629054102948
 30
0.0
 40
0.4890988809196203
 50
149.5938150906605983
 51
168.7772720962265112
  0
ARC
  5
1C017
  8
0
 10
4531.3357193277979604
 20
460.5449334966745027
 30
0.0
 40
2.2374746221644721
 50
180.2310698947505898
 51
196.775981609471188
  0
ARC
  5
1C018
  8
0
 10
4540.8276141376481974
 20
464.0286735442427926
 30
0.0
 40
12.3452999363308997
 50
199.5423358062166983
 51
201.6180253133518079
  0
ARC
  5
1C019
  8
0
 10
4529.3226275316656029
 20
459.4644253259240259
 30
0.0
 40
0.0323046631015448
 50
318.6099459415120805
 51
29.7483905770279513
  0
LINE
  5
1C01A
  8
0
 10
4529.0862598242438253
 20
460.8865583916654032
 30
0.0
 11
4529.098262901344242
 21
460.5359099415654214
 31
0.0
  0
ARC
  5
1C01B
  8
0
 10
4527.8875279919438981
 20
459.1416976238654115
 30
0.0
 40
0.06
 50
0.0
 51
73.3020637100820665
  0
ARC
  5
1C01C
  8
0
 10
4527.9316754754281646
 20
459.2401259593946179
 30
0.0
 40
0.0694512250201659
 50
122.6370237808876027
 51
174.2062272787231052
  0
ARC
  5
1C01D
  8
0
 10
4527.9203205241456089
 20
459.2605488077174982
 30
0.0
 40
0.0633209937328344
 50
218.9967676919432904
 51
255.7814592870325896
  0
ARC
  5
1C01E
  8
0
 10
4527.9071240241282794
 20
459.2469168114823219
 30
0.0
 40
0.0445455389530776
 50
179.7168718111086889
 51
216.0496341843266066
  0
LINE
  5
1C01F
  8
0
 10
4527.9475279919442983
 20
459.1416976238654115
 30
0.0
 11
4527.9475279919442983
 21
459.1397230756654153
 31
0.0
  0
ARC
  5
1C020
  8
0
 10
4526.5302513764709147
 20
460.6530307145022789
 30
0.0
 40
2.3173209232974861
 50
350.1597464268058957
 51
357.1029456804459983
  0
ARC
  5
1C021
  8
0
 10
4528.0216171428746748
 20
460.4027284273739724
 30
0.0
 40
0.8051612596572438
 50
324.0953011040351726
 51
349.5721500215615265
  0
ARC
  5
1C022
  8
0
 10
4525.7918932590073382
 20
463.3025531462130857
 30
0.0
 40
4.4731124599718113
 50
301.2845060610397923
 51
306.0419490725906257
  0
ARC
  5
1C023
  8
0
 10
4527.7124438518412717
 20
460.66194487486041
 30
0.0
 40
1.2079440757354929
 50
306.0771971997560854
 51
322.7361174144505185
  0
ARC
  5
1C024
  8
0
 10
4528.125873980689903
 20
459.4629657193041226
 30
0.0
 40
0.020219002793629
 50
123.4570203189752959
 51
192.2175774562757056
  0
ARC
  5
1C025
  8
0
 10
4528.1256275795803958
 20
459.4630660558415229
 30
0.0
 40
0.0199999801761316
 50
192.6478977656491054
 51
269.9999881516499158
  0
ARC
  5
1C026
  8
0
 10
4528.082983366456574
 20
459.4111984758134781
 30
0.0
 40
0.0198676464269329
 50
89.8759374306547159
 51
126.1240627138920019
  0
LINE
  5
1C027
  8
0
 10
4527.8942193842431152
 20
459.2986111189654252
 30
0.0
 11
4528.0712706807980794
 21
459.4272464155528155
 31
0.0
  0
LINE
  5
1C028
  8
0
 10
4528.8682327100441398
 20
460.8863033058652832
 30
0.0
 11
4528.8446106639439677
 21
460.5359096211653878
 31
0.0
  0
ARC
  5
1C029
  8
0
 10
4526.6763366560899158
 20
460.5449334966745027
 30
0.0
 40
2.2374746221644721
 50
343.2240183905287267
 51
359.7689301052492965
  0
ARC
  5
1C02A
  8
0
 10
4517.1844418462396789
 20
464.0286735442427926
 30
0.0
 40
12.3452999363308997
 50
338.3819746866482774
 51
340.4576641937832733
  0
ARC
  5
1C02B
  8
0
 10
4528.6894284522213638
 20
459.4644253259240259
 30
0.0
 40
0.0323046631015448
 50
150.2516094229719954
 51
221.3900540584878911
  0
LINE
  5
1C02C
  8
0
 10
4528.9257821926439647
 20
460.8862987376654132
 30
0.0
 11
4528.9137930825436342
 21
460.5359099415654214
 31
0.0
  0
LINE
  5
1C02D
  8
0
 10
4529.851027991943738
 20
459.4430660756652856
 30
0.0
 11
4529.851027991943738
 21
459.4310660756652851
 31
0.0
  0
LINE
  5
1C02E
  8
0
 10
4528.1610279919441382
 20
459.4430660756652856
 30
0.0
 11
4528.1610279919441382
 21
459.4310660756652851
 31
0.0
  0
LINE
  5
1C02F
  8
0
 10
4530.1072884290879301
 20
459.199167594045889
 30
0.0
 11
4527.9047675547999461
 21
459.199167594045889
 31
0.0
  0
ENDSEC
  0
EOF
