  0
SECTION
  2
HEADER
  9
$ACADVER
  1
AC1009
  9
$INSBASE
 10
4708.1908757886740204
 20
485.4358767908216237
 30
0.0
  9
$EXTMIN
 10
4703.0790576874269391
 20
479.9006056407367282
 30
-0.0000000000112498
  9
$EXTMAX
 10
4713.5074843226484518
 20
486.583113143769026
 30
0.0000000000002956
  9
$LIMMIN
 10
0.0
 20
0.0
  9
$LIMMAX
 10
11.6929133858000007
 20
8.2677165353999982
  9
$ORTHOMODE
 70
     0
  9
$REGENMODE
 70
     1
  9
$FILLMODE
 70
     1
  9
$QTEXTMODE
 70
     0
  9
$MIRRTEXT
 70
     0
  9
$DRAGMODE
 70
     2
  9
$LTSCALE
 40
0.6431102362
  9
$OSMODE
 70
  4095
  9
$ATTMODE
 70
     1
  9
$TEXTSIZE
 40
0.2
  9
$TRACEWID
 40
0.05
  9
$TEXTSTYLE
  7
STANDARD
  9
$CLAYER
  8
0
  9
$CELTYPE
  6
BYLAYER
  9
$CECOLOR
 62
   256
  9
$DIMSCALE
 40
1.0
  9
$DIMASZ
 40
0.1875
  9
$DIMEXO
 40
0.0625
  9
$DIMDLI
 40
0.4443307087
  9
$DIMRND
 40
0.0
  9
$DIMDLE
 40
0.0
  9
$DIMEXE
 40
0.125
  9
$DIMTP
 40
0.01
  9
$DIMTM
 40
0.01
  9
$DIMTXT
 40
2.0
  9
$DIMCEN
 40
0.1052362205
  9
$DIMTSZ
 40
0.0
  9
$DIMTOL
 70
     1
  9
$DIMLIM
 70
     0
  9
$DIMTIH
 70
     1
  9
$DIMTOH
 70
     1
  9
$DIMSE1
 70
     0
  9
$DIMSE2
 70
     0
  9
$DIMTAD
 70
     0
  9
$DIMZIN
 70
     0
  9
$DIMBLK
  1

  9
$DIMASO
 70
     1
  9
$DIMSHO
 70
     1
  9
$DIMPOST
  1
\X
  9
$DIMAPOST
  1

  9
$DIMALT
 70
     1
  9
$DIMALTD
 70
     2
  9
$DIMALTF
 40
25.3999999999999986
  9
$DIMLFAC
 40
1.0
  9
$DIMTOFL
 70
     0
  9
$DIMTVP
 40
0.0
  9
$DIMTIX
 70
     0
  9
$DIMSOXD
 70
     0
  9
$DIMSAH
 70
     0
  9
$DIMBLK1
  1

  9
$DIMBLK2
  1

  9
$DIMSTYLE
  2
STANDARD
  9
$DIMCLRD
 70
     0
  9
$DIMCLRE
 70
     0
  9
$DIMCLRT
 70
     0
  9
$DIMTFAC
 40
1.0
  9
$DIMGAP
 40
0.09
  9
$LUNITS
 70
     2
  9
$LUPREC
 70
     4
  9
$SKETCHINC
 40
0.1
  9
$FILLETRAD
 40
0.0
  9
$AUNITS
 70
     0
  9
$AUPREC
 70
     0
  9
$MENU
  1
.
  9
$ELEVATION
 40
0.0
  9
$PELEVATION
 40
0.0
  9
$THICKNESS
 40
0.0
  9
$LIMCHECK
 70
     0
  9
$BLIPMODE
 70
     0
  9
$CHAMFERA
 40
0.0
  9
$CHAMFERB
 40
0.0
  9
$SKPOLY
 70
     0
  9
$TDCREATE
 40
2458060.468368056230247
  9
$TDUPDATE
 40
2459691.0042708339169621
  9
$TDINDWG
 40
1.5267131944000001
  9
$TDUSRTIMER
 40
1.5267131944000001
  9
$USRTIMER
 70
     1
  9
$ANGBASE
 50
0.0
  9
$ANGDIR
 70
     0
  9
$PDMODE
 70
     0
  9
$PDSIZE
 40
0.3125
  9
$PLINEWID
 40
0.0
  9
$COORDS
 70
     1
  9
$SPLFRAME
 70
     0
  9
$SPLINETYPE
 70
     6
  9
$SPLINESEGS
 70
     8
  9
$ATTDIA
 70
     1
  9
$ATTREQ
 70
     1
  9
$HANDLING
 70
     1
  9
$HANDSEED
  5
204D8
  9
$SURFTAB1
 70
     6
  9
$SURFTAB2
 70
     6
  9
$SURFTYPE
 70
     6
  9
$SURFU
 70
     6
  9
$SURFV
 70
     6
  9
$UCSNAME
  2

  9
$UCSORG
 10
0.0
 20
0.0
 30
0.0
  9
$UCSXDIR
 10
1.0
 20
0.0
 30
0.0
  9
$UCSYDIR
 10
0.0
 20
1.0
 30
0.0
  9
$PUCSNAME
  2

  9
$PUCSORG
 10
0.0
 20
0.0
 30
0.0
  9
$PUCSXDIR
 10
1.0
 20
0.0
 30
0.0
  9
$PUCSYDIR
 10
0.0
 20
1.0
 30
0.0
  9
$USERI1
 70
     0
  9
$USERI2
 70
     0
  9
$USERI3
 70
     0
  9
$USERI4
 70
     0
  9
$USERI5
 70
     0
  9
$USERR1
 40
0.0
  9
$USERR2
 40
0.0
  9
$USERR3
 40
0.0
  9
$USERR4
 40
0.0
  9
$USERR5
 40
0.0
  9
$WORLDVIEW
 70
     1
  9
$SHADEDGE
 70
     3
  9
$SHADEDIF
 70
    70
  9
$TILEMODE
 70
     1
  9
$MAXACTVP
 70
    64
  9
$PLIMCHECK
 70
     0
  9
$PEXTMIN
 10
1.0000000000000000E+20
 20
1.0000000000000000E+20
 30
1.0000000000000000E+20
  9
$PEXTMAX
 10
-1.0000000000000000E+20
 20
-1.0000000000000000E+20
 30
-1.0000000000000000E+20
  9
$PLIMMIN
 10
0.0
 20
0.0
  9
$PLIMMAX
 10
12.0
 20
9.0
  9
$UNITMODE
 70
     0
  9
$VISRETAIN
 70
     1
  9
$PLINEGEN
 70
     0
  9
$PSLTSCALE
 70
     1
  0
ENDSEC
  0
SECTION
  2
TABLES
  0
TABLE
  2
VPORT
 70
     1
  0
VPORT
  2
*ACTIVE
 70
     0
 10
0.0
 20
0.0
 11
1.0
 21
1.0
 12
796.9279145597256502
 22
350.6622542897138146
 13
0.0
 23
0.0
 14
1.0
 24
1.0
 15
0.0
 25
0.0
 16
0.0
 26
0.0
 36
60.4960186965801583
 17
3911.3653564453120453
 27
132.5796051025390057
 37
0.0
 40
6.7354732163983044
 41
1.67063492063492
 42
50.0
 43
0.0
 44
0.0
 50
0.0
 51
0.0
 71
     0
 72
   100
 73
     1
 74
     1
 75
     0
 76
     0
 77
     0
 78
     0
  0
ENDTAB
  0
TABLE
  2
LTYPE
 70
     2
  0
LTYPE
  2
CONTINUOUS
 70
     0
  3
Solid line
 72
    65
 73
     0
 40
0.0
  0
LTYPE
  2
PHANTOM2
 70
     0
  3
___ _ _ ___ _ _ ___ _ _ ___ _ _
 72
    65
 73
     6
 40
1.25
 49
0.625
 49
-0.125
 49
0.125
 49
-0.125
 49
0.125
 49
-0.125
  0
ENDTAB
  0
TABLE
  2
LAYER
 70
     2
  0
LAYER
  2
0
 70
     0
 62
   255
  6
CONTINUOUS
  0
LAYER
  2
DEFPOINTS
 70
     0
 62
     7
  6
CONTINUOUS
  0
ENDTAB
  0
TABLE
  2
STYLE
 70
     1
  0
STYLE
  2
STANDARD
 70
     0
 40
0.0
 41
0.8
 50
0.0
 71
     0
 42
0.2
  3
txt
  4

  0
ENDTAB
  0
TABLE
  2
VIEW
 70
     0
  0
ENDTAB
  0
TABLE
  2
UCS
 70
     0
  0
ENDTAB
  0
TABLE
  2
APPID
 70
    11
  0
APPID
  2
ACAD
 70
     0
  0
APPID
  2
ACAD_MLEADERVER
 70
     0
  0
APPID
  2
ACAD_EXEMPT_FROM_CAD_STANDARDS
 70
     0
  0
APPID
  2
ACAD_NAV_VCDISPLAY
 70
     0
  0
APPID
  2
ACAECLAYERSTANDARD
 70
     0
  0
APPID
  2
ACCMTRANSPARENCY
 70
     0
  0
APPID
  2
ACAD_DSTYLE_DIMJAG
 70
     0
  0
APPID
  2
ACAD_DSTYLE_DIMTALN
 70
     0
  0
APPID
  2
ACDBATTR
 70
     0
  0
APPID
  2
ACADANNOTATIVE
 70
     0
  0
APPID
  2
DCO15
 70
     0
  0
ENDTAB
  0
TABLE
  2
DIMSTYLE
 70
     1
  0
DIMSTYLE
  2
STANDARD
 70
     0
  3

  4

  5

  6

  7

 40
1.0
 41
0.1875
 42
0.0625
 43
0.38
 44
0.125
 45
0.0
 46
0.0
 47
0.01
 48
0.01
140
0.15625
141
0.09
142
0.0
143
25.3999999999999986
144
1.0
145
0.0
146
1.0
147
0.09
 71
     1
 72
     0
 73
     1
 74
     1
 75
     0
 76
     0
 77
     0
 78
     4
170
     0
171
     2
172
     0
173
     0
174
     0
175
     0
176
     0
177
     0
178
     0
  0
ENDTAB
  0
ENDSEC
  0
SECTION
  2
BLOCKS
  0
BLOCK
  8
0
  2
$MODEL_SPACE
 70
     0
 10
0.0
 20
0.0
 30
0.0
  3
$MODEL_SPACE
  1

  0
ENDBLK
  5
21
  8
0
  0
BLOCK
 67
     1
  8
0
  2
$PAPER_SPACE
 70
     0
 10
0.0
 20
0.0
 30
0.0
  3
$PAPER_SPACE
  1

  0
ENDBLK
  5
1D
 67
     1
  8
0
  0
BLOCK
  8
0
  2
_FILLED
 70
     0
 10
0.0
 20
0.0
 30
0.0
  3
_FILLED
  1

  0
SOLID
  5
2039B
  8
0
  6
BYBLOCK
 62
     0
 10
0.0
 20
0.0
 30
0.0
 11
-1.0
 21
0.1666666667
 31
0.0
 12
-1.0
 22
-0.1666666667
 32
0.0
 13
-1.0
 23
-0.1666666667
 33
0.0
  0
ENDBLK
  5
2039C
  8
0
  6
BYBLOCK
 62
     0
  0
ENDSEC
  0
SECTION
  2
ENTITIES
  0
ATTDEF
  5
159BF
  8
DEFPOINTS
 10
4708.1872096830893497
 20
485.4346887029009281
 30
0.0
 40
0.001
  1
P25056-CMC
  3

  2
MODELNUMBER
 70
     0
1001
ACDBATTR
1070
     0
1070
     1
  0
ATTDEF
  5
159C0
  8
DEFPOINTS
 10
4708.1872096830893497
 20
485.4330218625217981
 30
0.0
 40
0.001
  1
SCRIPT
  3

  2
TRADENAME
 70
     0
1001
ACDBATTR
1070
     0
1070
     1
  0
ATTDEF
  5
159C1
  8
DEFPOINTS
 10
4708.1872096830893497
 20
485.4313553695675978
 30
0.0
 40
0.001
  1
BATHROOM SINK FAUCET
  3

  2
PRODUCT
 70
     0
1001
ACDBATTR
1070
     0
1070
     1
  0
LINE
  5
203DB
  8
0
 10
4707.5997845467736624
 20
485.299627297821587
 30
0.0
 11
4707.5997845467736624
 21
485.5612351235214987
 31
0.0
  0
LINE
  5
203DC
  8
0
 10
4708.7810345467742081
 20
485.5612351235214987
 30
0.0
 11
4708.7810345467742081
 21
485.299627297821587
 31
0.0
  0
ARC
  5
203DD
  8
0
 10
4707.7247845467736624
 20
485.5612351235214987
 30
0.0
 40
0.125
 50
123.2423159765158971
 51
180.0
  0
ARC
  5
203DE
  8
0
 10
4707.7247845467736624
 20
485.299627297821587
 30
0.0
 40
0.125
 50
180.0
 51
236.7576840234839892
  0
ARC
  5
203DF
  8
0
 10
4708.190409546772571
 20
484.8508312106216067
 30
0.0
 40
0.9743999999999999
 50
56.7576840234840603
 51
123.2423159765158971
  0
ARC
  5
203E0
  8
0
 10
4708.6560345467742081
 20
485.299627297821587
 30
0.0
 40
0.125
 50
303.2423159765140781
 51
0.0
  0
ARC
  5
203E1
  8
0
 10
4708.6560345467742081
 20
485.5612351235214987
 30
0.0
 40
0.125
 50
0.0
 51
56.7576840234840603
  0
ARC
  5
203E2
  8
0
 10
4708.190409546772571
 20
486.0100312106216052
 30
0.0
 40
0.9743999999999999
 50
236.7576840234839892
 51
303.2423159765140781
  0
ARC
  5
203E3
  8
0
 10
4662.2362102367051193
 20
484.2897313337219884
 30
0.0
 40
46.5295078625090923
 50
359.4465041206512979
 51
1.1517613803551749
  0
ARC
  5
203E4
  8
0
 10
4796.0123519447406579
 20
484.6584752534209883
 30
0.0
 40
87.2526415587259407
 50
180.5373092085175131
 51
181.8714360528454961
  0
ARC
  5
203E5
  8
0
 10
4870.2716464543009351
 20
486.1783418741817968
 30
0.0
 40
161.5245029082022938
 50
181.550050825566899
 51
182.1364757218655086
  0
ARC
  5
203E6
  8
0
 10
4707.1443912070753868
 20
480.1350441634759818
 30
0.0
 40
1.715171020428417
 50
359.4632001193414794
 51
0.7242854067244114
  0
ARC
  5
203E7
  8
0
 10
4708.7807185932333596
 20
480.1185069491478998
 30
0.0
 40
0.07876974986588
 50
295.8584818758847064
 51
0.3405192236717762
  0
ARC
  5
203E8
  8
0
 10
4708.1898367046069325
 20
481.3881567126172172
 30
0.0
 40
1.4791718574067541
 50
245.0641740550030079
 51
295.004798118489191
  0
ARC
  5
203E9
  8
0
 10
4754.1446088568427513
 20
484.2897313337219884
 30
0.0
 40
46.5295078625090923
 50
178.8482386196448033
 51
180.5534958793487021
  0
ARC
  5
203EA
  8
0
 10
4620.3684671488063032
 20
484.6584752534209883
 30
0.0
 40
87.2526415587259407
 50
358.1285639471544187
 51
359.4626907914824869
  0
ARC
  5
203EB
  8
0
 10
4546.1091726392469354
 20
486.1783418741817968
 30
0.0
 40
161.5245029082022938
 50
357.8635242781344914
 51
358.4499491744330157
  0
ARC
  5
203EC
  8
0
 10
4709.2364278864733933
 20
480.1350441634759818
 30
0.0
 40
1.715171020428417
 50
179.2757145932756089
 51
180.5367998806551952
  0
ARC
  5
203ED
  8
0
 10
4707.6016339677844371
 20
480.1189402983320065
 30
0.0
 40
0.0803018337476458
 50
179.9751764456786134
 51
243.8265085780112997
  0
ARC
  5
203EE
  8
0
 10
4708.190409546772571
 20
485.4302996450215915
 30
0.0
 40
0.8897540825398795
 50
310.0935945368867124
 51
229.9064054631132876
  0
ARC
  5
203EF
  8
0
 10
4708.9656772435218954
 20
484.8489792268366045
 30
0.0
 40
0.2451082087582933
 50
79.0226335464656984
 51
114.3449791771770947
  0
ARC
  5
203F0
  8
0
 10
4708.9322140104513892
 20
484.9229372152208839
 30
0.0
 40
0.1639320299040186
 50
114.3449791771770947
 51
141.9835312652072048
  0
ARC
  5
203F1
  8
0
 10
4709.271215275405666
 20
484.8220679239756237
 30
0.0
 40
0.5098071203769933
 50
156.6778327192623124
 51
176.5818571035997877
  0
ARC
  5
203F2
  8
0
 10
4707.4151418500250657
 20
484.8489792268366045
 30
0.0
 40
0.2451082087582933
 50
65.6550208228228627
 51
100.9773664535343016
  0
ARC
  5
203F3
  8
0
 10
4707.4486050830946624
 20
484.9229372152208839
 30
0.0
 40
0.1639320299040186
 50
38.0164687347927313
 51
65.6550208228228627
  0
ARC
  5
203F4
  8
0
 10
4707.1096038181422045
 20
484.8220679239756237
 30
0.0
 40
0.5098071203769933
 50
3.404471422504181
 51
23.3221672807376983
  0
ARC
  5
203F5
  8
0
 10
4708.7825770905874379
 20
485.4524576515538001
 30
0.0
 40
0.2210718660813736
 50
101.5408140177209049
 51
105.2153785551484049
  0
ARC
  5
203F6
  8
0
 10
4708.7217416740768385
 20
485.8038996314817837
 30
0.0
 40
0.1358584023287195
 50
277.0210310184796754
 51
298.4715512272701972
  0
ARC
  5
203F7
  8
0
 10
4709.2376104038503399
 20
484.8143464063630859
 30
0.0
 40
0.9801086146048639
 50
103.2243528831660058
 51
117.4037018831252936
  0
ARC
  5
203F8
  8
0
 10
4707.5991469527616573
 20
485.4524576524071904
 30
0.0
 40
0.2210718660813736
 50
74.7846213622258773
 51
78.4591858996295173
  0
ARC
  5
203F9
  8
0
 10
4707.6599823697779357
 20
485.8038996322475214
 30
0.0
 40
0.1358584023287195
 50
241.5284486900931995
 51
262.978968898878918
  0
ARC
  5
203FA
  8
0
 10
4707.1441136385774371
 20
484.8143464078727902
 30
0.0
 40
0.9801086146048639
 50
62.5962980342776376
 51
76.775647034184388
  0
ARC
  5
203FB
  8
0
 10
4712.1908757886740204
 20
485.4348767908215905
 30
0.0
 40
0.9213100578999998
 50
21.3939349532411995
 51
158.6060556702408917
  0
ARC
  5
203FC
  8
0
 10
4712.1908757886740204
 20
485.4348767908215905
 30
0.0
 40
0.9213100578999998
 50
201.3938670043212085
 51
338.6061321496147229
  0
ARC
  5
203FD
  8
0
 10
4712.1908756958391677
 20
484.3003293731263739
 30
0.0
 40
1.7025256701951921
 50
58.3218862285526498
 51
121.6769587851352981
  0
LINE
  5
203FE
  8
0
 10
4713.0849512870845501
 20
485.7491987581332182
 30
0.0
 11
4713.1361627493733977
 21
485.6584055555215969
 31
0.0
  0
LINE
  5
203FF
  8
0
 10
4713.1361627493733977
 20
485.6584055555215969
 30
0.0
 11
4713.1361630092742416
 21
485.211347715621514
 31
0.0
  0
LINE
  5
20400
  8
0
 10
4713.1361630092742416
 20
485.211347715621514
 30
0.0
 11
4713.0849490264727137
 21
485.1205529806214827
 31
0.0
  0
ARC
  5
20401
  8
0
 10
4712.1908757970513761
 20
486.5695062863592284
 30
0.0
 40
1.702595848044467
 50
238.3234362679829985
 51
301.6765630655146992
  0
LINE
  5
20402
  8
0
 10
4711.2968025507725542
 20
485.1205529910216114
 30
0.0
 11
4711.2455886361549346
 21
485.2113476076140159
 31
0.0
  0
LINE
  5
20403
  8
0
 10
4711.2455886361549346
 20
485.2113476076140159
 30
0.0
 11
4711.2455890040728264
 21
485.6584058817214782
 31
0.0
  0
LINE
  5
20404
  8
0
 10
4711.2455890040728264
 20
485.6584058817214782
 30
0.0
 11
4711.2968027128727044
 21
485.7492005256215748
 31
0.0
  0
CIRCLE
  5
20405
  8
0
 10
4712.1908757886740204
 20
485.4348767908215905
 30
0.0
 40
1.1099927943156129
  0
ARC
  5
20407
  8
0
 10
4708.1908757886740204
 20
485.4358767908216237
 30
0.0
 40
1.1446705359520131
 50
300.129846376347075
 51
239.8162778191766904
  0
ARC
  5
20408
  8
0
 10
4704.1908604763975745
 20
485.4348767908215905
 30
0.0
 40
0.9213100578999998
 50
21.3939443297591296
 51
158.6060650467588005
  0
ARC
  5
20409
  8
0
 10
4704.1908604763975745
 20
485.4348767908215905
 30
0.0
 40
0.9213100578999998
 50
201.3938678503853055
 51
338.6061329956787063
  0
ARC
  5
2040A
  8
0
 10
4704.1908605692333367
 20
484.3003293731263739
 30
0.0
 40
1.7025256701951921
 50
58.3230412148647019
 51
121.6781137714473005
  0
LINE
  5
2040B
  8
0
 10
4703.2967849779861353
 20
485.7491987581332182
 30
0.0
 11
4703.2455735156972878
 21
485.6584055555215969
 31
0.0
  0
LINE
  5
2040C
  8
0
 10
4703.2455735156972878
 20
485.6584055555215969
 30
0.0
 11
4703.2455732557982628
 21
485.211347715621514
 31
0.0
  0
LINE
  5
2040D
  8
0
 10
4703.2455732557982628
 20
485.211347715621514
 30
0.0
 11
4703.2967872385979717
 21
485.1205529806214827
 31
0.0
  0
ARC
  5
2040E
  8
0
 10
4704.1908604680202188
 20
486.5695062863592284
 30
0.0
 40
1.702595848044467
 50
238.3234369344853008
 51
301.6765637320170867
  0
LINE
  5
2040F
  8
0
 10
4705.0849337142990407
 20
485.1205529910216114
 30
0.0
 11
4705.1361476289157508
 21
485.2113476076140159
 31
0.0
  0
LINE
  5
20410
  8
0
 10
4705.1361476289157508
 20
485.2113476076140159
 30
0.0
 11
4705.1361472609969496
 21
485.6584058817214782
 31
0.0
  0
LINE
  5
20411
  8
0
 10
4705.1361472609969496
 20
485.6584058817214782
 30
0.0
 11
4705.084933552197981
 21
485.7492005256215748
 31
0.0
  0
CIRCLE
  5
20412
  8
0
 10
4704.1908604763975745
 20
485.4348767908215905
 30
0.0
 40
1.1099927943156129
  0
ENDSEC
  0
EOF
