  0
SECTION
  2
HEADER
  9
$ACADVER
  1
AC1009
  9
$INSBASE
 10
619.8544862798988788
 20
35.3198731468746203
 30
0.0
  9
$EXTMIN
 10
614.7076630238129837
 20
28.7817119195470497
 30
-0.0000000349181948
  9
$EXTMAX
 10
625.0071483878589333
 20
36.4656633238270729
 30
0.0000000814935746
  9
$LIMMIN
 10
0.0
 20
0.0
  9
$LIMMAX
 10
11.6929133858000007
 20
8.2677165353999982
  9
$ORTHOMODE
 70
     1
  9
$REGENMODE
 70
     1
  9
$FILLMODE
 70
     1
  9
$QTEXTMODE
 70
     0
  9
$MIRRTEXT
 70
     0
  9
$DRAGMODE
 70
     2
  9
$LTSCALE
 40
0.6431102362
  9
$OSMODE
 70
    23
  9
$ATTMODE
 70
     1
  9
$TEXTSIZE
 40
0.2
  9
$TRACEWID
 40
0.05
  9
$TEXTSTYLE
  7
STANDARD
  9
$CLAYER
  8
0
  9
$CELTYPE
  6
BYLAYER
  9
$CECOLOR
 62
   256
  9
$DIMSCALE
 40
1.0
  9
$DIMASZ
 40
0.1875
  9
$DIMEXO
 40
0.0625
  9
$DIMDLI
 40
0.4443307087
  9
$DIMRND
 40
0.0
  9
$DIMDLE
 40
0.0
  9
$DIMEXE
 40
0.125
  9
$DIMTP
 40
0.01
  9
$DIMTM
 40
0.01
  9
$DIMTXT
 40
2.0
  9
$DIMCEN
 40
0.1052362205
  9
$DIMTSZ
 40
0.0
  9
$DIMTOL
 70
     1
  9
$DIMLIM
 70
     0
  9
$DIMTIH
 70
     1
  9
$DIMTOH
 70
     1
  9
$DIMSE1
 70
     0
  9
$DIMSE2
 70
     0
  9
$DIMTAD
 70
     0
  9
$DIMZIN
 70
     0
  9
$DIMBLK
  1

  9
$DIMASO
 70
     1
  9
$DIMSHO
 70
     1
  9
$DIMPOST
  1
\X
  9
$DIMAPOST
  1

  9
$DIMALT
 70
     1
  9
$DIMALTD
 70
     2
  9
$DIMALTF
 40
25.3999999999999986
  9
$DIMLFAC
 40
1.0
  9
$DIMTOFL
 70
     0
  9
$DIMTVP
 40
0.0
  9
$DIMTIX
 70
     0
  9
$DIMSOXD
 70
     0
  9
$DIMSAH
 70
     0
  9
$DIMBLK1
  1

  9
$DIMBLK2
  1

  9
$DIMSTYLE
  2
STANDARD
  9
$DIMCLRD
 70
     0
  9
$DIMCLRE
 70
     0
  9
$DIMCLRT
 70
     0
  9
$DIMTFAC
 40
1.0
  9
$DIMGAP
 40
0.09
  9
$LUNITS
 70
     2
  9
$LUPREC
 70
     4
  9
$SKETCHINC
 40
0.1
  9
$FILLETRAD
 40
0.0
  9
$AUNITS
 70
     0
  9
$AUPREC
 70
     0
  9
$MENU
  1
.
  9
$ELEVATION
 40
0.0
  9
$PELEVATION
 40
0.0
  9
$THICKNESS
 40
0.0
  9
$LIMCHECK
 70
     0
  9
$BLIPMODE
 70
     0
  9
$CHAMFERA
 40
0.0
  9
$CHAMFERB
 40
0.0
  9
$SKPOLY
 70
     0
  9
$TDCREATE
 40
2458106.4931018520146608
  9
$TDUPDATE
 40
2459731.7256597219966352
  9
$TDINDWG
 40
0.2849522685
  9
$TDUSRTIMER
 40
0.2849522685
  9
$USRTIMER
 70
     1
  9
$ANGBASE
 50
0.0
  9
$ANGDIR
 70
     0
  9
$PDMODE
 70
     0
  9
$PDSIZE
 40
0.3125
  9
$PLINEWID
 40
0.0
  9
$COORDS
 70
     1
  9
$SPLFRAME
 70
     0
  9
$SPLINETYPE
 70
     6
  9
$SPLINESEGS
 70
     8
  9
$ATTDIA
 70
     1
  9
$ATTREQ
 70
     1
  9
$HANDLING
 70
     1
  9
$HANDSEED
  5
6D00
  9
$SURFTAB1
 70
     6
  9
$SURFTAB2
 70
     6
  9
$SURFTYPE
 70
     6
  9
$SURFU
 70
     6
  9
$SURFV
 70
     6
  9
$UCSNAME
  2

  9
$UCSORG
 10
0.0
 20
0.0
 30
0.0
  9
$UCSXDIR
 10
1.0
 20
0.0
 30
0.0
  9
$UCSYDIR
 10
0.0
 20
1.0
 30
0.0
  9
$PUCSNAME
  2

  9
$PUCSORG
 10
0.0
 20
0.0
 30
0.0
  9
$PUCSXDIR
 10
1.0
 20
0.0
 30
0.0
  9
$PUCSYDIR
 10
0.0
 20
1.0
 30
0.0
  9
$USERI1
 70
     0
  9
$USERI2
 70
     0
  9
$USERI3
 70
     0
  9
$USERI4
 70
     0
  9
$USERI5
 70
     0
  9
$USERR1
 40
0.0
  9
$USERR2
 40
0.0
  9
$USERR3
 40
0.0
  9
$USERR4
 40
0.0
  9
$USERR5
 40
0.0
  9
$WORLDVIEW
 70
     1
  9
$SHADEDGE
 70
     3
  9
$SHADEDIF
 70
    70
  9
$TILEMODE
 70
     1
  9
$MAXACTVP
 70
    64
  9
$PLIMCHECK
 70
     0
  9
$PEXTMIN
 10
1.0000000000000000E+20
 20
1.0000000000000000E+20
 30
1.0000000000000000E+20
  9
$PEXTMAX
 10
-1.0000000000000000E+20
 20
-1.0000000000000000E+20
 30
-1.0000000000000000E+20
  9
$PLIMMIN
 10
0.0
 20
0.0
  9
$PLIMMAX
 10
12.0
 20
9.0
  9
$UNITMODE
 70
     0
  9
$VISRETAIN
 70
     1
  9
$PLINEGEN
 70
     0
  9
$PSLTSCALE
 70
     1
  0
ENDSEC
  0
SECTION
  2
TABLES
  0
TABLE
  2
VPORT
 70
     1
  0
VPORT
  2
*ACTIVE
 70
     0
 10
0.0
 20
0.0
 11
1.0
 21
1.0
 12
346.2832041493227848
 22
50.2296483557085409
 13
0.0
 23
0.0
 14
1.0
 24
1.0
 15
0.0
 25
0.0
 16
-0.0000000000000568
 26
0.0
 36
193.9250709296327955
 17
273.5742015565131169
 27
-17.6059607340214797
 37
0.0
 40
7.7320763608830267
 41
2.005224660397074
 42
50.0
 43
0.0
 44
0.0
 50
0.0
 51
0.0
 71
     0
 72
   100
 73
     1
 74
     1
 75
     0
 76
     0
 77
     0
 78
     0
  0
ENDTAB
  0
TABLE
  2
LTYPE
 70
     2
  0
LTYPE
  2
CONTINUOUS
 70
     0
  3
Solid line
 72
    65
 73
     0
 40
0.0
  0
LTYPE
  2
PHANTOM2
 70
     0
  3
___ _ _ ___ _ _ ___ _ _ ___ _ _
 72
    65
 73
     6
 40
1.25
 49
0.625
 49
-0.125
 49
0.125
 49
-0.125
 49
0.125
 49
-0.125
  0
ENDTAB
  0
TABLE
  2
LAYER
 70
     2
  0
LAYER
  2
0
 70
     0
 62
   255
  6
CONTINUOUS
  0
LAYER
  2
DEFPOINTS
 70
     0
 62
     7
  6
CONTINUOUS
  0
ENDTAB
  0
TABLE
  2
STYLE
 70
     1
  0
STYLE
  2
STANDARD
 70
     0
 40
0.0
 41
0.8
 50
0.0
 71
     0
 42
0.2
  3
txt
  4

  0
ENDTAB
  0
TABLE
  2
VIEW
 70
     0
  0
ENDTAB
  0
TABLE
  2
UCS
 70
     0
  0
ENDTAB
  0
TABLE
  2
APPID
 70
    10
  0
APPID
  2
ACAD
 70
     0
  0
APPID
  2
ACAD_MLEADERVER
 70
     0
  0
APPID
  2
ACAD_EXEMPT_FROM_CAD_STANDARDS
 70
     0
  0
APPID
  2
ACAD_NAV_VCDISPLAY
 70
     0
  0
APPID
  2
ACAD_DSTYLE_DIMJAG
 70
     0
  0
APPID
  2
ACAD_DSTYLE_DIMTALN
 70
     0
  0
APPID
  2
ACAECLAYERSTANDARD
 70
     0
  0
APPID
  2
ACCMTRANSPARENCY
 70
     0
  0
APPID
  2
ACDBATTR
 70
     0
  0
APPID
  2
DCO15
 70
     0
  0
ENDTAB
  0
TABLE
  2
DIMSTYLE
 70
     1
  0
DIMSTYLE
  2
STANDARD
 70
     0
  3

  4

  5

  6

  7

 40
1.0
 41
0.1875
 42
0.0625
 43
0.38
 44
0.125
 45
0.0
 46
0.0
 47
0.01
 48
0.01
140
0.15625
141
0.09
142
0.0
143
25.3999999999999986
144
1.0
145
0.0
146
1.0
147
0.09
 71
     1
 72
     0
 73
     1
 74
     1
 75
     0
 76
     0
 77
     0
 78
     4
170
     0
171
     2
172
     0
173
     0
174
     0
175
     0
176
     0
177
     0
178
     0
  0
ENDTAB
  0
ENDSEC
  0
SECTION
  2
BLOCKS
  0
BLOCK
  8
0
  2
$MODEL_SPACE
 70
     0
 10
0.0
 20
0.0
 30
0.0
  3
$MODEL_SPACE
  1

  0
ENDBLK
  5
21
  8
0
  0
BLOCK
 67
     1
  8
0
  2
$PAPER_SPACE
 70
     0
 10
0.0
 20
0.0
 30
0.0
  3
$PAPER_SPACE
  1

  0
ENDBLK
  5
1D
 67
     1
  8
0
  0
BLOCK
  8
0
  2
_FILLED
 70
     0
 10
0.0
 20
0.0
 30
0.0
  3
_FILLED
  1

  0
SOLID
  5
57D4
  8
0
  6
BYBLOCK
 62
     0
 10
0.0
 20
0.0
 30
0.0
 11
-1.0
 21
0.1666666667
 31
0.0
 12
-1.0
 22
-0.1666666667
 32
0.0
 13
-1.0
 23
-0.1666666667
 33
0.0
  0
ENDBLK
  5
57D5
  8
0
  6
BYBLOCK
 62
     0
  0
ENDSEC
  0
SECTION
  2
ENTITIES
  0
ATTDEF
  5
FAA
  8
DEFPOINTS
 10
619.8547123787553801
 20
35.3233672765093587
 30
0.0
 40
0.001
  1
P25057-CMC
  3

  2
MODELNUMBER
 70
     0
1001
ACDBATTR
1070
     0
1070
     1
  0
ATTDEF
  5
FAB
  8
DEFPOINTS
 10
619.8547123787553801
 20
35.3217006098426936
 30
0.0
 40
0.001
  1
SCRIPT
  3

  2
TRADENAME
 70
     0
1001
ACDBATTR
1070
     0
1070
     1
  0
ATTDEF
  5
FAC
  8
DEFPOINTS
 10
619.8547123787553801
 20
35.3200339431760284
 30
0.0
 40
0.001
  1
BATHROOM SINK FAUCET
  3

  2
PRODUCT
 70
     0
1001
ACDBATTR
1070
     0
1070
     1
  0
LINE
  5
6A6F
  8
0
 10
614.9091993245989443
 20
35.0973440466000213
 30
0.0
 11
614.9091993245989443
 21
35.5424022471492194
 31
0.0
  0
CIRCLE
  5
6A70
  8
0
 10
615.8544862798989925
 20
35.3198731468746203
 30
0.0
 40
1.1319999999999999
  0
LINE
  5
6A71
  8
0
 10
614.9091993245989443
 20
35.5424022471492194
 30
0.0
 11
614.960413045598898
 21
35.6331969582746311
 31
0.0
  0
LINE
  5
6A72
  8
0
 10
616.7997732351989271
 20
35.0973440466000213
 30
0.0
 11
616.7997732351989271
 21
35.5424022471492194
 31
0.0
  0
LINE
  5
6A73
  8
0
 10
616.7997732351989271
 20
35.5424022471492194
 30
0.0
 11
616.7485595141989734
 21
35.6331969582746311
 31
0.0
  0
ARC
  5
6A74
  8
0
 10
615.8544862798989925
 20
34.204163851112277
 30
0.0
 40
1.6856757012123429
 50
57.9678819672199808
 51
122.0321180327828046
  0
LINE
  5
6A75
  8
0
 10
614.9091993245989443
 20
35.0973440466000213
 30
0.0
 11
614.960413045598898
 21
35.0065493354746167
 31
0.0
  0
LINE
  5
6A76
  8
0
 10
616.7997732351989271
 20
35.0973440466000213
 30
0.0
 11
616.7485595141989734
 21
35.0065493354746167
 31
0.0
  0
ARC
  5
6A77
  8
0
 10
615.8544862798989925
 20
36.4355824426369566
 30
0.0
 40
1.6856757012123429
 50
237.9678819672172096
 51
302.0321180327799766
  0
ARC
  5
6A78
  8
0
 10
615.8544862798989925
 20
35.3198731468746203
 30
0.0
 40
0.9154131148999999
 50
21.8039964482914002
 51
158.1960035517074061
  0
ARC
  5
6A7B
  8
0
 10
615.8544862798989925
 20
35.3198731468746203
 30
0.0
 40
0.9213100578375962
 50
201.3329358434023106
 51
338.6670641565988831
  0
LINE
  5
6A7C
  8
0
 10
619.3695199691989046
 20
35.4326089727746307
 30
0.0
 11
619.3143988628989973
 21
32.1395678332746328
 31
0.0
  0
ARC
  5
6A7D
  8
0
 10
565.7913575321089183
 20
33.0035400725311376
 30
0.0
 40
53.5300140232343011
 50
356.2656955842252842
 51
359.0752083055235175
  0
ARC
  5
6A7E
  8
0
 10
609.3523057462900852
 20
30.1411589484199496
 30
0.0
 40
9.8751467227753178
 50
355.4438368465941949
 51
356.3770307208926056
  0
ARC
  5
6A7F
  8
0
 10
618.1649535282632542
 20
29.4374983699380692
 30
0.0
 40
1.034452145336606
 50
351.8473720534050244
 51
355.5209984809993102
  0
ARC
  5
6A80
  8
0
 10
617.6594604886952311
 20
29.5571171927384313
 30
0.0
 40
1.552503101034624
 50
349.855291902563124
 51
350.1226802876976194
  0
ARC
  5
6A81
  8
0
 10
619.2649709597930041
 20
29.2696692680027617
 30
0.0
 40
0.0785366708137569
 50
169.7330386853458037
 51
179.9948309984229127
  0
LINE
  5
6A82
  8
0
 10
619.1864342892989725
 20
29.2696763532746189
 30
0.0
 11
619.1848306926893883
 21
29.0149367436746317
 31
0.0
  0
ARC
  5
6A83
  8
0
 10
619.2673723658493827
 20
29.0138615759421512
 30
0.0
 40
0.0825486752995277
 50
179.253721335024494
 51
241.4433093634092984
  0
ARC
  5
6A84
  8
0
 10
619.6813989137821181
 20
35.4276419184231628
 30
0.0
 40
0.3119184952888643
 50
176.7364555382492881
 51
179.0875716431918931
  0
LINE
  5
6A85
  8
0
 10
619.3699862752000627
 20
35.4453990644408918
 30
0.0
 11
619.3699862747989755
 21
35.4624090880746223
 31
0.0
  0
ARC
  5
6A86
  8
0
 10
619.4490107121317806
 20
35.4623991630544495
 30
0.0
 40
0.07902443795607
 50
125.9281944862110976
 51
179.9928039757868135
  0
ARC
  5
6A87
  8
0
 10
619.8544862798988788
 20
35.3198731468746203
 30
0.0
 40
0.8885399610547404
 50
304.1784921182738799
 51
235.8215078817287065
  0
ARC
  5
6A88
  8
0
 10
619.8544862798988788
 20
35.3198731468746203
 30
0.0
 40
0.9347573110737483
 50
302.3422780713792122
 51
237.6577219286207878
  0
ARC
  5
6A89
  8
0
 10
619.8544862798988788
 20
35.3198731468746203
 30
0.0
 40
1.1434842941880921
 50
296.1541605548998746
 51
243.845839445102996
  0
ARC
  5
6A8A
  8
0
 10
623.3520877912972082
 20
28.9007291701472013
 30
0.0
 40
4.168821787477591
 50
175.6796358031733973
 51
178.4301485930533886
  0
ARC
  5
6A8B
  8
0
 10
650.1432916204162211
 20
26.6488637014384295
 30
0.0
 40
31.0543675502580605
 50
174.4957929769435054
 51
175.2604427646517991
  0
ARC
  5
6A8C
  8
0
 10
604.4917562497798826
 20
30.9114868505921692
 30
0.0
 40
14.7961655551926796
 50
355.0219486367204809
 51
358.6993456383523835
  0
ARC
  5
6A8D
  8
0
 10
426.6524994654861871
 20
35.0886575457085002
 30
0.0
 40
192.6844690412391969
 50
358.6579045808035175
 51
359.1230378224615833
  0
LINE
  5
6A8E
  8
0
 10
620.3394525905989667
 20
35.4326089727746307
 30
0.0
 11
620.394573696898874
 21
32.1395678332746328
 31
0.0
  0
ARC
  5
6A8F
  8
0
 10
673.917615027688953
 20
33.0035400725311376
 30
0.0
 40
53.5300140232343011
 50
180.924791694476113
 51
183.7343044157744032
  0
ARC
  5
6A90
  8
0
 10
630.3566668135076725
 20
30.1411589484199496
 30
0.0
 40
9.8751467227753178
 50
183.6229692791075081
 51
184.5561631534058051
  0
ARC
  5
6A91
  8
0
 10
621.5440190315346172
 20
29.4374983699380692
 30
0.0
 40
1.034452145336606
 50
184.4790015190006898
 51
188.1526279465954019
  0
ARC
  5
6A92
  8
0
 10
622.0495120711026402
 20
29.5571171927384313
 30
0.0
 40
1.552503101034624
 50
189.8773197123028922
 51
190.1447080974375012
  0
ARC
  5
6A93
  8
0
 10
620.4440016000047535
 20
29.2696692680027617
 30
0.0
 40
0.0785366708137569
 50
0.0051690015770923
 51
10.2669613146541998
  0
LINE
  5
6A94
  8
0
 10
620.5225382704988988
 20
29.2696763532746189
 30
0.0
 11
620.5241418671082556
 21
29.0149367436746317
 31
0.0
  0
ARC
  5
6A95
  8
0
 10
620.4416001939483749
 20
29.0138615759421512
 30
0.0
 40
0.0825486752995277
 50
298.5566906365878026
 51
0.7462786649754979
  0
ARC
  5
6A96
  8
0
 10
620.0275736460157532
 20
35.4276419184231628
 30
0.0
 40
0.3119184952888643
 50
0.91242835680808
 51
3.2635444617506302
  0
LINE
  5
6A97
  8
0
 10
620.338986284597695
 20
35.4453990644408918
 30
0.0
 11
620.3389862849988958
 21
35.4624090880746223
 31
0.0
  0
ARC
  5
6A98
  8
0
 10
620.2599618476660908
 20
35.4623991630544495
 30
0.0
 40
0.07902443795607
 50
0.0071960242131745
 51
54.0718055137889166
  0
ARC
  5
6A99
  8
0
 10
616.3568847685005494
 20
28.9007291701472013
 30
0.0
 40
4.168821787477591
 50
1.569851406946531
 51
4.3203641968265538
  0
ARC
  5
6A9A
  8
0
 10
589.5656809393816502
 20
26.6488637014384295
 30
0.0
 40
31.0543675502580605
 50
4.7395572353484612
 51
5.5042070230568019
  0
ARC
  5
6A9B
  8
0
 10
635.217216310017875
 20
30.9114868505921692
 30
0.0
 40
14.7961655551926796
 50
181.3006543616475881
 51
184.9780513632792065
  0
ARC
  5
6A9C
  8
0
 10
813.0564730943117411
 20
35.0886575457085002
 30
0.0
 40
192.6844690412391969
 50
180.876962177538303
 51
181.3420954191965109
  0
ARC
  5
6A9D
  8
0
 10
619.8544862798988788
 20
34.9027492401746287
 30
0.0
 40
0.7701239039999949
 50
54.0756170201016104
 51
125.9243829999991959
  0
ARC
  5
6A9E
  8
0
 10
619.8544862798988788
 20
30.1107823159921608
 30
0.0
 40
1.3267083034367539
 50
241.8177633580002066
 51
298.1822366419968944
  0
LINE
  5
6A9F
  8
0
 10
624.7997732351989271
 20
35.0973440466000213
 30
0.0
 11
624.7997732351989271
 21
35.5424022471492194
 31
0.0
  0
CIRCLE
  5
6AA0
  8
0
 10
623.8544862798988788
 20
35.3198731468746203
 30
0.0
 40
1.1319999999999999
  0
LINE
  5
6AA1
  8
0
 10
624.7997732351989271
 20
35.5424022471492194
 30
0.0
 11
624.7485595141989734
 21
35.6331969582746311
 31
0.0
  0
LINE
  5
6AA2
  8
0
 10
622.9091993245989443
 20
35.0973440466000213
 30
0.0
 11
622.9091993245989443
 21
35.5424022471492194
 31
0.0
  0
LINE
  5
6AA3
  8
0
 10
622.9091993245989443
 20
35.5424022471492194
 30
0.0
 11
622.960413045598898
 21
35.6331969582746311
 31
0.0
  0
ARC
  5
6AA4
  8
0
 10
623.8544862798988788
 20
34.204163851112277
 30
0.0
 40
1.6856757012123429
 50
57.9678819672199808
 51
122.0321180327828046
  0
LINE
  5
6AA5
  8
0
 10
624.7997732351989271
 20
35.0973440466000213
 30
0.0
 11
624.7485595141989734
 21
35.0065493354746167
 31
0.0
  0
LINE
  5
6AA6
  8
0
 10
622.9091993245989443
 20
35.0973440466000213
 30
0.0
 11
622.960413045598898
 21
35.0065493354746167
 31
0.0
  0
ARC
  5
6AA7
  8
0
 10
623.8544862798988788
 20
36.4355824426369566
 30
0.0
 40
1.6856757012123429
 50
237.9678819672172096
 51
302.0321180327799766
  0
ARC
  5
6AA8
  8
0
 10
623.8544862798988788
 20
35.3198731468746203
 30
0.0
 40
0.9154131148999999
 50
21.8039964482914002
 51
158.1960035517074061
  0
ARC
  5
6AA9
  8
0
 10
623.8544862798988788
 20
35.3198731468746203
 30
0.0
 40
0.9154131148999999
 50
201.8039964482925939
 51
338.1960035517085998
  0
ENDSEC
  0
EOF
