  0
SECTION
  2
HEADER
  9
$ACADVER
  1
AC1009
  9
$INSBASE
 10
633.147377938791351
 20
35.8611415946964911
 30
0.0
  9
$EXTMIN
 10
626.5743120175307013
 20
35.8592163193091409
 30
-0.0015258207003583
  9
$EXTMAX
 10
634.3172049185892547
 20
45.0581179300471604
 30
0.0000000349246037
  9
$LIMMIN
 10
0.0
 20
0.0
  9
$LIMMAX
 10
11.6929133858000007
 20
8.2677165353999982
  9
$ORTHOMODE
 70
     1
  9
$REGENMODE
 70
     1
  9
$FILLMODE
 70
     1
  9
$QTEXTMODE
 70
     0
  9
$MIRRTEXT
 70
     0
  9
$DRAGMODE
 70
     2
  9
$LTSCALE
 40
0.6431102362
  9
$OSMODE
 70
    23
  9
$ATTMODE
 70
     1
  9
$TEXTSIZE
 40
0.2
  9
$TRACEWID
 40
0.05
  9
$TEXTSTYLE
  7
STANDARD
  9
$CLAYER
  8
0
  9
$CELTYPE
  6
BYLAYER
  9
$CECOLOR
 62
   256
  9
$DIMSCALE
 40
1.0
  9
$DIMASZ
 40
0.1875
  9
$DIMEXO
 40
0.0625
  9
$DIMDLI
 40
0.4443307087
  9
$DIMRND
 40
0.0
  9
$DIMDLE
 40
0.0
  9
$DIMEXE
 40
0.125
  9
$DIMTP
 40
0.01
  9
$DIMTM
 40
0.01
  9
$DIMTXT
 40
2.0
  9
$DIMCEN
 40
0.1052362205
  9
$DIMTSZ
 40
0.0
  9
$DIMTOL
 70
     1
  9
$DIMLIM
 70
     0
  9
$DIMTIH
 70
     1
  9
$DIMTOH
 70
     1
  9
$DIMSE1
 70
     0
  9
$DIMSE2
 70
     0
  9
$DIMTAD
 70
     0
  9
$DIMZIN
 70
     0
  9
$DIMBLK
  1

  9
$DIMASO
 70
     1
  9
$DIMSHO
 70
     1
  9
$DIMPOST
  1
\X
  9
$DIMAPOST
  1

  9
$DIMALT
 70
     1
  9
$DIMALTD
 70
     2
  9
$DIMALTF
 40
25.3999999999999986
  9
$DIMLFAC
 40
1.0
  9
$DIMTOFL
 70
     0
  9
$DIMTVP
 40
0.0
  9
$DIMTIX
 70
     0
  9
$DIMSOXD
 70
     0
  9
$DIMSAH
 70
     0
  9
$DIMBLK1
  1

  9
$DIMBLK2
  1

  9
$DIMSTYLE
  2
STANDARD
  9
$DIMCLRD
 70
     0
  9
$DIMCLRE
 70
     0
  9
$DIMCLRT
 70
     0
  9
$DIMTFAC
 40
1.0
  9
$DIMGAP
 40
0.09
  9
$LUNITS
 70
     2
  9
$LUPREC
 70
     4
  9
$SKETCHINC
 40
0.1
  9
$FILLETRAD
 40
0.0
  9
$AUNITS
 70
     0
  9
$AUPREC
 70
     0
  9
$MENU
  1
.
  9
$ELEVATION
 40
0.0
  9
$PELEVATION
 40
0.0
  9
$THICKNESS
 40
0.0
  9
$LIMCHECK
 70
     0
  9
$BLIPMODE
 70
     0
  9
$CHAMFERA
 40
0.0
  9
$CHAMFERB
 40
0.0
  9
$SKPOLY
 70
     0
  9
$TDCREATE
 40
2458106.4931018520146608
  9
$TDUPDATE
 40
2459731.7250000010244548
  9
$TDINDWG
 40
0.2851027315
  9
$TDUSRTIMER
 40
0.2851027315
  9
$USRTIMER
 70
     1
  9
$ANGBASE
 50
0.0
  9
$ANGDIR
 70
     0
  9
$PDMODE
 70
     0
  9
$PDSIZE
 40
0.3125
  9
$PLINEWID
 40
0.0
  9
$COORDS
 70
     1
  9
$SPLFRAME
 70
     0
  9
$SPLINETYPE
 70
     6
  9
$SPLINESEGS
 70
     8
  9
$ATTDIA
 70
     1
  9
$ATTREQ
 70
     1
  9
$HANDLING
 70
     1
  9
$HANDSEED
  5
7289
  9
$SURFTAB1
 70
     6
  9
$SURFTAB2
 70
     6
  9
$SURFTYPE
 70
     6
  9
$SURFU
 70
     6
  9
$SURFV
 70
     6
  9
$UCSNAME
  2

  9
$UCSORG
 10
0.0
 20
0.0
 30
0.0
  9
$UCSXDIR
 10
1.0
 20
0.0
 30
0.0
  9
$UCSYDIR
 10
0.0
 20
1.0
 30
0.0
  9
$PUCSNAME
  2

  9
$PUCSORG
 10
0.0
 20
0.0
 30
0.0
  9
$PUCSXDIR
 10
1.0
 20
0.0
 30
0.0
  9
$PUCSYDIR
 10
0.0
 20
1.0
 30
0.0
  9
$USERI1
 70
     0
  9
$USERI2
 70
     0
  9
$USERI3
 70
     0
  9
$USERI4
 70
     0
  9
$USERI5
 70
     0
  9
$USERR1
 40
0.0
  9
$USERR2
 40
0.0
  9
$USERR3
 40
0.0
  9
$USERR4
 40
0.0
  9
$USERR5
 40
0.0
  9
$WORLDVIEW
 70
     1
  9
$SHADEDGE
 70
     3
  9
$SHADEDIF
 70
    70
  9
$TILEMODE
 70
     1
  9
$MAXACTVP
 70
    64
  9
$PLIMCHECK
 70
     0
  9
$PEXTMIN
 10
1.0000000000000000E+20
 20
1.0000000000000000E+20
 30
1.0000000000000000E+20
  9
$PEXTMAX
 10
-1.0000000000000000E+20
 20
-1.0000000000000000E+20
 30
-1.0000000000000000E+20
  9
$PLIMMIN
 10
0.0
 20
0.0
  9
$PLIMMAX
 10
12.0
 20
9.0
  9
$UNITMODE
 70
     0
  9
$VISRETAIN
 70
     1
  9
$PLINEGEN
 70
     0
  9
$PSLTSCALE
 70
     1
  0
ENDSEC
  0
SECTION
  2
TABLES
  0
TABLE
  2
VPORT
 70
     1
  0
VPORT
  2
*ACTIVE
 70
     0
 10
0.0
 20
0.0
 11
1.0
 21
1.0
 12
356.8715569115469179
 22
58.0646278586996303
 13
0.0
 23
0.0
 14
1.0
 24
1.0
 15
0.0
 25
0.0
 16
-0.0000000000000568
 26
0.0
 36
193.9250709296327955
 17
273.5742015565131169
 27
-17.6059607340214797
 37
0.0
 40
9.2565147732269821
 41
2.005224660397074
 42
50.0
 43
0.0
 44
0.0
 50
0.0
 51
0.0
 71
     0
 72
   100
 73
     1
 74
     1
 75
     0
 76
     0
 77
     0
 78
     0
  0
ENDTAB
  0
TABLE
  2
LTYPE
 70
     2
  0
LTYPE
  2
CONTINUOUS
 70
     0
  3
Solid line
 72
    65
 73
     0
 40
0.0
  0
LTYPE
  2
PHANTOM2
 70
     0
  3
___ _ _ ___ _ _ ___ _ _ ___ _ _
 72
    65
 73
     6
 40
1.25
 49
0.625
 49
-0.125
 49
0.125
 49
-0.125
 49
0.125
 49
-0.125
  0
ENDTAB
  0
TABLE
  2
LAYER
 70
     2
  0
LAYER
  2
0
 70
     0
 62
   255
  6
CONTINUOUS
  0
LAYER
  2
DEFPOINTS
 70
     0
 62
     7
  6
CONTINUOUS
  0
ENDTAB
  0
TABLE
  2
STYLE
 70
     1
  0
STYLE
  2
STANDARD
 70
     0
 40
0.0
 41
0.8
 50
0.0
 71
     0
 42
0.2
  3
txt
  4

  0
ENDTAB
  0
TABLE
  2
VIEW
 70
     0
  0
ENDTAB
  0
TABLE
  2
UCS
 70
     0
  0
ENDTAB
  0
TABLE
  2
APPID
 70
    10
  0
APPID
  2
ACAD
 70
     0
  0
APPID
  2
ACAD_MLEADERVER
 70
     0
  0
APPID
  2
ACAD_EXEMPT_FROM_CAD_STANDARDS
 70
     0
  0
APPID
  2
ACAD_NAV_VCDISPLAY
 70
     0
  0
APPID
  2
ACAD_DSTYLE_DIMJAG
 70
     0
  0
APPID
  2
ACAD_DSTYLE_DIMTALN
 70
     0
  0
APPID
  2
ACAECLAYERSTANDARD
 70
     0
  0
APPID
  2
ACCMTRANSPARENCY
 70
     0
  0
APPID
  2
ACDBATTR
 70
     0
  0
APPID
  2
DCO15
 70
     0
  0
ENDTAB
  0
TABLE
  2
DIMSTYLE
 70
     1
  0
DIMSTYLE
  2
STANDARD
 70
     0
  3

  4

  5

  6

  7

 40
1.0
 41
0.1875
 42
0.0625
 43
0.38
 44
0.125
 45
0.0
 46
0.0
 47
0.01
 48
0.01
140
0.15625
141
0.09
142
0.0
143
25.3999999999999986
144
1.0
145
0.0
146
1.0
147
0.09
 71
     1
 72
     0
 73
     1
 74
     1
 75
     0
 76
     0
 77
     0
 78
     4
170
     0
171
     2
172
     0
173
     0
174
     0
175
     0
176
     0
177
     0
178
     0
  0
ENDTAB
  0
ENDSEC
  0
SECTION
  2
BLOCKS
  0
BLOCK
  8
0
  2
$MODEL_SPACE
 70
     0
 10
0.0
 20
0.0
 30
0.0
  3
$MODEL_SPACE
  1

  0
ENDBLK
  5
21
  8
0
  0
BLOCK
 67
     1
  8
0
  2
$PAPER_SPACE
 70
     0
 10
0.0
 20
0.0
 30
0.0
  3
$PAPER_SPACE
  1

  0
ENDBLK
  5
1D
 67
     1
  8
0
  0
BLOCK
  8
0
  2
_FILLED
 70
     0
 10
0.0
 20
0.0
 30
0.0
  3
_FILLED
  1

  0
SOLID
  5
57D4
  8
0
  6
BYBLOCK
 62
     0
 10
0.0
 20
0.0
 30
0.0
 11
-1.0
 21
0.1666666667
 31
0.0
 12
-1.0
 22
-0.1666666667
 32
0.0
 13
-1.0
 23
-0.1666666667
 33
0.0
  0
ENDBLK
  5
57D5
  8
0
  6
BYBLOCK
 62
     0
  0
ENDSEC
  0
SECTION
  2
ENTITIES
  0
ATTDEF
  5
FAA
  8
DEFPOINTS
 10
633.1476040376477386
 20
35.8646357243312295
 30
0.0
 40
0.001
  1
P25057-CMC
  3

  2
MODELNUMBER
 70
     0
1001
ACDBATTR
1070
     0
1070
     1
  0
ATTDEF
  5
FAB
  8
DEFPOINTS
 10
633.1476040376477386
 20
35.8629690576645572
 30
0.0
 40
0.001
  1
SCRIPT
  3

  2
TRADENAME
 70
     0
1001
ACDBATTR
1070
     0
1070
     1
  0
ATTDEF
  5
FAC
  8
DEFPOINTS
 10
633.1476040376477386
 20
35.8613023909978992
 30
0.0
 40
0.001
  1
BATHROOM SINK FAUCET
  3

  2
PRODUCT
 70
     0
1001
ACDBATTR
1070
     0
1070
     1
  0
LINE
  5
6E38
  8
0
 10
632.0888779387913701
 20
35.8611415946964911
 30
0.0
 11
634.2058779387913319
 21
35.8611415946964911
 31
0.0
  0
LINE
  5
6E39
  8
0
 10
632.6353371707219821
 20
38.0591719958964916
 30
0.0
 11
633.6594187068604924
 21
38.0591719958964916
 31
0.0
  0
LINE
  5
6E3A
  8
0
 10
632.6089708031989858
 20
36.359273137496487
 30
0.0
 11
633.6857850743837162
 21
36.359273137496487
 31
0.0
  0
LINE
  5
6E3B
  8
0
 10
632.2751195289413317
 20
36.2488900946964918
 30
0.0
 11
634.0196363486413702
 21
36.2488900946964918
 31
0.0
  0
LINE
  5
6E3C
  8
0
 10
632.2419648340413687
 20
36.1641415946965026
 30
0.0
 11
634.0527910435413332
 21
36.1641415946965026
 31
0.0
  0
LINE
  5
6E3D
  8
0
 10
632.2393111050413381
 20
36.1511415946964974
 30
0.0
 11
634.0554447725413638
 21
36.1511415946964974
 31
0.0
  0
LINE
  5
6E3E
  8
0
 10
632.0275795843413107
 20
36.0377888243964932
 30
0.0
 11
634.2671762932413912
 21
36.0377888243964932
 31
0.0
  0
LINE
  5
6E3F
  8
0
 10
632.0295820622983456
 20
35.9186496873964884
 30
0.0
 11
634.2651738152843564
 21
35.9186496873964884
 31
0.0
  0
LINE
  5
6E40
  8
0
 10
632.5774115333413192
 20
37.996636436860932
 30
0.0
 11
632.5774115333413192
 21
37.7026519758965009
 31
0.0
  0
LINE
  5
6E41
  8
0
 10
632.5774115333413192
 20
36.9176077757964975
 30
0.0
 11
632.5774115333413192
 21
36.6283543201464923
 31
0.0
  0
LINE
  5
6E42
  8
0
 10
632.5774115333413192
 20
36.4040549623464926
 30
0.0
 11
632.5774115333413192
 21
36.392831084912082
 31
0.0
  0
ARC
  5
6E43
  8
0
 10
632.6438910479461128
 20
37.9931531314475777
 30
0.0
 40
0.0665707088642437
 50
97.3825234131310111
 51
177.0006345786960935
  0
ARC
  5
6E44
  8
0
 10
632.6139979688990707
 20
36.3956196797386227
 30
0.0
 40
0.0366925541211794
 50
184.3586205637942896
 51
262.1252633528309843
  0
LINE
  5
6E45
  8
0
 10
632.01537794894125
 20
35.9336285579964922
 30
0.0
 11
632.01537794894125
 21
36.0230521642849482
 31
0.0
  0
LINE
  5
6E46
  8
0
 10
632.2352717410418563
 20
36.2123763244033512
 30
0.0
 11
632.2320028870351507
 21
36.175013152125949
 31
0.0
  0
LINE
  5
6E47
  8
0
 10
632.69217310504132
 20
36.301766754691009
 30
0.0
 11
632.69217310504132
 21
36.3268721018162921
 31
0.0
  0
ARC
  5
6E48
  8
0
 10
632.6591109735890086
 20
36.3265151785063907
 30
0.0
 40
0.0330640579847903
 50
0.6185144144686898
 51
82.1976374905836735
  0
ARC
  5
6E49
  8
0
 10
632.7466650815380262
 20
36.3028994008657619
 30
0.0
 40
0.0545037465673117
 50
181.1907533224666054
 51
262.2765686970515162
  0
ARC
  5
6E4A
  8
0
 10
632.2751195289413317
 20
36.2088900946964927
 30
0.0
 40
0.0399999999999998
 50
90.0
 51
175.0
  0
ARC
  5
6E4B
  8
0
 10
632.2419648340413687
 20
36.1741415946965006
 30
0.0
 40
0.0099999999999998
 50
175.0000000013193073
 51
270.0
  0
ARC
  5
6E4C
  8
0
 10
632.2393111050413381
 20
36.1361415946964968
 30
0.0
 40
0.0149999999999999
 50
90.0
 51
151.9918652411004132
  0
ARC
  5
6E4D
  8
0
 10
632.1103334191616341
 20
36.2099857630185298
 30
0.0
 40
0.1336291011006716
 50
304.7176351914208112
 51
330.0070974628417275
  0
ARC
  5
6E4E
  8
0
 10
631.9827310578796187
 20
36.4027420659883632
 30
0.0
 40
0.364775318590893
 50
289.354364033872173
 51
303.9486170306764734
  0
ARC
  5
6E4F
  8
0
 10
631.9530454543710221
 20
36.4598168347839504
 30
0.0
 40
0.4285591885399543
 50
280.0156948876343108
 51
290.5701136513866913
  0
ARC
  5
6E50
  8
0
 10
632.0303779487824158
 20
36.0230521642849482
 30
0.0
 40
0.0149999998262709
 50
100.7519592741754053
 51
180.0
  0
ARC
  5
6E51
  8
0
 10
632.03037794894135
 20
35.9336285579964922
 30
0.0
 40
0.0149999999999997
 50
180.0
 51
266.958508716433073
  0
ARC
  5
6E52
  8
0
 10
632.0166661340387009
 20
35.6460191338999124
 30
0.0
 40
0.2729363293932591
 50
80.5267826445037542
 51
87.287628732589269
  0
ARC
  5
6E53
  8
0
 10
632.0389019260222767
 20
35.7792776179672032
 30
0.0
 40
0.1378354262835971
 50
65.4001981133791759
 51
80.52678264450374
  0
ARC
  5
6E54
  8
0
 10
632.0691506897716181
 20
35.8453472517862721
 30
0.0
 40
0.065170550164852
 50
42.6192363586017677
 51
65.4001981133791759
  0
ARC
  5
6E55
  8
0
 10
632.0862678827769514
 20
35.8624457231659406
 30
0.0
 40
0.0410087507043856
 50
9.7837898636127765
 51
41.2333948061335889
  0
ARC
  5
6E56
  8
0
 10
632.1365299079412807
 20
35.8711415946965033
 30
0.0
 40
0.0100000000000012
 50
189.9461534761022961
 51
270.0
  0
LINE
  5
6E57
  8
0
 10
632.5774115333413192
 20
37.9806675762964971
 30
0.0
 11
633.7173443442413827
 21
37.9806675762964971
 31
0.0
  0
LINE
  5
6E58
  8
0
 10
632.5774115333413192
 20
37.8434538332964934
 30
0.0
 11
633.7173443442413827
 21
37.8434538332964934
 31
0.0
  0
LINE
  5
6E59
  8
0
 10
632.5774115333413192
 20
37.715126415946493
 30
0.0
 11
633.7173443442413827
 21
37.715126415946493
 31
0.0
  0
LINE
  5
6E5A
  8
0
 10
632.5774115333413192
 20
36.9035891442465029
 30
0.0
 11
633.7173443442413827
 21
36.9035891442465029
 31
0.0
  0
LINE
  5
6E5B
  8
0
 10
632.5774115333413192
 20
36.6423970883464918
 30
0.0
 11
633.7173443442413827
 21
36.6423970883464918
 31
0.0
  0
LINE
  5
6E5C
  8
0
 10
632.5826182341281765
 20
36.5161805138964866
 30
0.0
 11
633.7121362589185765
 21
36.5161805138964866
 31
0.0
  0
LINE
  5
6E5D
  8
0
 10
632.5774115333413192
 20
36.6283543201464923
 30
0.0
 11
633.7173443442413827
 21
36.6283543201464923
 31
0.0
  0
LINE
  5
6E5E
  8
0
 10
632.5774115333413192
 20
37.7026519758965009
 30
0.0
 11
633.7173443442413827
 21
37.7026519758965009
 31
0.0
  0
LINE
  5
6E5F
  8
0
 10
632.8330541571414187
 20
37.7026519758965009
 30
0.0
 11
632.8784517179576596
 21
37.5905022969964904
 31
0.0
  0
LINE
  5
6E60
  8
0
 10
632.780950623088188
 20
37.5905022969964904
 30
0.0
 11
632.8330541571414187
 21
37.7026519758965009
 31
0.0
  0
LINE
  5
6E61
  8
0
 10
632.9238488579914019
 20
37.8434538332964934
 30
0.0
 11
632.9238488579914019
 21
36.4040549623464926
 31
0.0
  0
LINE
  5
6E62
  8
0
 10
632.9238488579914019
 20
37.7026519758965009
 30
0.0
 11
633.0356134012912435
 21
37.5905022969964904
 31
0.0
  0
LINE
  5
6E63
  8
0
 10
632.8784517179576596
 20
37.5905022969964904
 30
0.0
 11
632.9238488579914019
 21
37.7026519758965009
 31
0.0
  0
LINE
  5
6E64
  8
0
 10
633.0356134012912435
 20
36.4040549623464926
 30
0.0
 11
633.0356134012912435
 21
36.6283543201464923
 31
0.0
  0
LINE
  5
6E65
  8
0
 10
633.0356134012912435
 20
36.9176042235964914
 30
0.0
 11
633.0356134012912435
 21
37.7026519758965009
 31
0.0
  0
LINE
  5
6E66
  8
0
 10
633.147377938791351
 20
37.7026519758965009
 30
0.0
 11
633.0356134012912435
 21
37.5905022969964904
 31
0.0
  0
LINE
  5
6E67
  8
0
 10
632.8330541571414187
 20
37.4783526180965012
 30
0.0
 11
632.8784517179576596
 21
37.5905022969964904
 31
0.0
  0
LINE
  5
6E68
  8
0
 10
632.780950623088188
 20
37.5905022969964904
 30
0.0
 11
632.8330541571414187
 21
37.4783526180965012
 31
0.0
  0
LINE
  5
6E69
  8
0
 10
632.9238488579914019
 20
37.4783526180965012
 30
0.0
 11
633.0356134012912435
 21
37.5905022969964904
 31
0.0
  0
LINE
  5
6E6A
  8
0
 10
632.8784517179576596
 20
37.5905022969964904
 30
0.0
 11
632.9238488579914019
 21
37.4783526180965012
 31
0.0
  0
LINE
  5
6E6B
  8
0
 10
633.147377938791351
 20
37.4783526180965012
 30
0.0
 11
633.0356134012912435
 21
37.5905022969964904
 31
0.0
  0
LINE
  5
6E6C
  8
0
 10
632.7355530622718334
 20
37.7026519758965009
 30
0.0
 11
632.780950623088188
 21
37.5905022969964904
 31
0.0
  0
LINE
  5
6E6D
  8
0
 10
632.6937894076110069
 20
37.5905022969964904
 30
0.0
 11
632.7355530622718334
 21
37.7026519758965009
 31
0.0
  0
LINE
  5
6E6E
  8
0
 10
632.7355530622718334
 20
37.4783526180965012
 30
0.0
 11
632.780950623088188
 21
37.5905022969964904
 31
0.0
  0
LINE
  5
6E6F
  8
0
 10
632.6937894076110069
 20
37.5905022969964904
 30
0.0
 11
632.7355530622718334
 21
37.4783526180965012
 31
0.0
  0
LINE
  5
6E70
  8
0
 10
632.6591088339413318
 20
37.7026519758965009
 30
0.0
 11
632.6937894076110069
 21
37.5905022969964904
 31
0.0
  0
LINE
  5
6E71
  8
0
 10
632.6305713295469104
 20
37.5905022969964904
 30
0.0
 11
632.6591088339413318
 21
37.7026519758965009
 31
0.0
  0
LINE
  5
6E72
  8
0
 10
632.6591088339413318
 20
37.4783526180965012
 30
0.0
 11
632.6937894076110069
 21
37.5905022969964904
 31
0.0
  0
LINE
  5
6E73
  8
0
 10
632.6305713295469104
 20
37.5905022969964904
 30
0.0
 11
632.6591088339413318
 21
37.4783526180965012
 31
0.0
  0
LINE
  5
6E74
  8
0
 10
632.6082490713140487
 20
37.7026519758965009
 30
0.0
 11
632.6305713295469104
 21
37.5905022969964904
 31
0.0
  0
LINE
  5
6E75
  8
0
 10
632.5922547716270401
 20
37.5905022969964904
 30
0.0
 11
632.6082490713140487
 21
37.7026519758965009
 31
0.0
  0
LINE
  5
6E76
  8
0
 10
632.6082490713140487
 20
37.4783526180965012
 30
0.0
 11
632.6305713295469104
 21
37.5905022969964904
 31
0.0
  0
LINE
  5
6E77
  8
0
 10
632.5922547716270401
 20
37.5905022969964904
 30
0.0
 11
632.6082490713140487
 21
37.4783526180965012
 31
0.0
  0
LINE
  5
6E78
  8
0
 10
632.5826203068412497
 20
37.7026519758965009
 30
0.0
 11
632.5922547716270401
 21
37.5905022969964904
 31
0.0
  0
LINE
  5
6E79
  8
0
 10
632.5794214950442438
 20
37.5905022969964904
 30
0.0
 11
632.5826203068412497
 21
37.7026519758965009
 31
0.0
  0
LINE
  5
6E7A
  8
0
 10
632.5826203068412497
 20
37.4783526180965012
 30
0.0
 11
632.5922547716270401
 21
37.5905022969964904
 31
0.0
  0
LINE
  5
6E7B
  8
0
 10
632.5794214950442438
 20
37.5905022969964904
 30
0.0
 11
632.5826203068412497
 21
37.4783526180965012
 31
0.0
  0
LINE
  5
6E7C
  8
0
 10
632.5794214950442438
 20
37.5905022969964904
 30
0.0
 11
633.7153343825383445
 21
37.5905022969964904
 31
0.0
  0
LINE
  5
6E7D
  8
0
 10
633.4617017204413969
 20
37.7026519758965009
 30
0.0
 11
633.4163041596250423
 21
37.5905022969964904
 31
0.0
  0
LINE
  5
6E7E
  8
0
 10
633.5138052544944003
 20
37.5905022969964904
 30
0.0
 11
633.4617017204413969
 21
37.7026519758965009
 31
0.0
  0
LINE
  5
6E7F
  8
0
 10
633.3709070195914137
 20
37.7026519758965009
 30
0.0
 11
633.2591424762913448
 21
37.5905022969964904
 31
0.0
  0
LINE
  5
6E80
  8
0
 10
633.4163041596250423
 20
37.5905022969964904
 30
0.0
 11
633.3709070195914137
 21
37.7026519758965009
 31
0.0
  0
LINE
  5
6E81
  8
0
 10
633.147377938791351
 20
37.7026519758965009
 30
0.0
 11
633.2591424762913448
 21
37.5905022969964904
 31
0.0
  0
LINE
  5
6E82
  8
0
 10
633.4617017204413969
 20
37.4783526180965012
 30
0.0
 11
633.4163041596250423
 21
37.5905022969964904
 31
0.0
  0
LINE
  5
6E83
  8
0
 10
633.5138052544944003
 20
37.5905022969964904
 30
0.0
 11
633.4617017204413969
 21
37.4783526180965012
 31
0.0
  0
LINE
  5
6E84
  8
0
 10
633.3709070195914137
 20
37.4783526180965012
 30
0.0
 11
633.2591424762913448
 21
37.5905022969964904
 31
0.0
  0
LINE
  5
6E85
  8
0
 10
633.4163041596250423
 20
37.5905022969964904
 30
0.0
 11
633.3709070195914137
 21
37.4783526180965012
 31
0.0
  0
LINE
  5
6E86
  8
0
 10
633.147377938791351
 20
37.4783526180965012
 30
0.0
 11
633.2591424762913448
 21
37.5905022969964904
 31
0.0
  0
LINE
  5
6E87
  8
0
 10
633.5592028153107549
 20
37.7026519758965009
 30
0.0
 11
633.5138052544944003
 21
37.5905022969964904
 31
0.0
  0
LINE
  5
6E88
  8
0
 10
633.6009664699715813
 20
37.5905022969964904
 30
0.0
 11
633.5592028153107549
 21
37.7026519758965009
 31
0.0
  0
LINE
  5
6E89
  8
0
 10
633.5592028153107549
 20
37.4783526180965012
 30
0.0
 11
633.5138052544944003
 21
37.5905022969964904
 31
0.0
  0
LINE
  5
6E8A
  8
0
 10
633.6009664699715813
 20
37.5905022969964904
 30
0.0
 11
633.5592028153107549
 21
37.4783526180965012
 31
0.0
  0
LINE
  5
6E8B
  8
0
 10
633.6356470436412565
 20
37.7026519758965009
 30
0.0
 11
633.6009664699715813
 21
37.5905022969964904
 31
0.0
  0
LINE
  5
6E8C
  8
0
 10
633.6641845480356778
 20
37.5905022969964904
 30
0.0
 11
633.6356470436412565
 21
37.7026519758965009
 31
0.0
  0
LINE
  5
6E8D
  8
0
 10
633.6356470436412565
 20
37.4783526180965012
 30
0.0
 11
633.6009664699715813
 21
37.5905022969964904
 31
0.0
  0
LINE
  5
6E8E
  8
0
 10
633.6641845480356778
 20
37.5905022969964904
 30
0.0
 11
633.6356470436412565
 21
37.4783526180965012
 31
0.0
  0
LINE
  5
6E8F
  8
0
 10
633.6865068062686532
 20
37.7026519758965009
 30
0.0
 11
633.6641845480356778
 21
37.5905022969964904
 31
0.0
  0
LINE
  5
6E90
  8
0
 10
633.7025011059555482
 20
37.5905022969964904
 30
0.0
 11
633.6865068062686532
 21
37.7026519758965009
 31
0.0
  0
LINE
  5
6E91
  8
0
 10
633.6865068062686532
 20
37.4783526180965012
 30
0.0
 11
633.6641845480356778
 21
37.5905022969964904
 31
0.0
  0
LINE
  5
6E92
  8
0
 10
633.7025011059555482
 20
37.5905022969964904
 30
0.0
 11
633.6865068062686532
 21
37.4783526180965012
 31
0.0
  0
LINE
  5
6E93
  8
0
 10
633.7121355707413386
 20
37.7026519758965009
 30
0.0
 11
633.7025011059555482
 21
37.5905022969964904
 31
0.0
  0
LINE
  5
6E94
  8
0
 10
633.7153343825383445
 20
37.5905022969964904
 30
0.0
 11
633.7121355707413386
 21
37.7026519758965009
 31
0.0
  0
LINE
  5
6E95
  8
0
 10
633.7121355707413386
 20
37.4783526180965012
 30
0.0
 11
633.7025011059555482
 21
37.5905022969964904
 31
0.0
  0
LINE
  5
6E96
  8
0
 10
633.7153343825383445
 20
37.5905022969964904
 30
0.0
 11
633.7121355707413386
 21
37.4783526180965012
 31
0.0
  0
LINE
  5
6E97
  8
0
 10
632.5826203068412497
 20
37.4783526180965012
 30
0.0
 11
633.7121355707413386
 21
37.4783526180965012
 31
0.0
  0
LINE
  5
6E98
  8
0
 10
632.8330541571414187
 20
37.2540532602965015
 30
0.0
 11
632.8784517179576596
 21
37.3662029391964978
 31
0.0
  0
LINE
  5
6E99
  8
0
 10
632.780950623088188
 20
37.3662029391964978
 30
0.0
 11
632.8330541571414187
 21
37.2540532602965015
 31
0.0
  0
LINE
  5
6E9A
  8
0
 10
632.9238488579914019
 20
37.2540532602965015
 30
0.0
 11
633.0356134012912435
 21
37.3662029391964978
 31
0.0
  0
LINE
  5
6E9B
  8
0
 10
632.8784517179576596
 20
37.3662029391964978
 30
0.0
 11
632.9238488579914019
 21
37.2540532602965015
 31
0.0
  0
LINE
  5
6E9C
  8
0
 10
633.147377938791351
 20
37.2540532602965015
 30
0.0
 11
633.0356134012912435
 21
37.3662029391964978
 31
0.0
  0
LINE
  5
6E9D
  8
0
 10
632.8330541571414187
 20
37.4783526180965012
 30
0.0
 11
632.8784517179576596
 21
37.3662029391964978
 31
0.0
  0
LINE
  5
6E9E
  8
0
 10
632.780950623088188
 20
37.3662029391964978
 30
0.0
 11
632.8330541571414187
 21
37.4783526180965012
 31
0.0
  0
LINE
  5
6E9F
  8
0
 10
632.9238488579914019
 20
37.4783526180965012
 30
0.0
 11
633.0356134012912435
 21
37.3662029391964978
 31
0.0
  0
LINE
  5
6EA0
  8
0
 10
632.8784517179576596
 20
37.3662029391964978
 30
0.0
 11
632.9238488579914019
 21
37.4783526180965012
 31
0.0
  0
LINE
  5
6EA1
  8
0
 10
633.147377938791351
 20
37.4783526180965012
 30
0.0
 11
633.0356134012912435
 21
37.3662029391964978
 31
0.0
  0
LINE
  5
6EA2
  8
0
 10
632.7355530622718334
 20
37.2540532602965015
 30
0.0
 11
632.780950623088188
 21
37.3662029391964978
 31
0.0
  0
LINE
  5
6EA3
  8
0
 10
632.6937894076110069
 20
37.3662029391964978
 30
0.0
 11
632.7355530622718334
 21
37.2540532602965015
 31
0.0
  0
LINE
  5
6EA4
  8
0
 10
632.7355530622718334
 20
37.4783526180965012
 30
0.0
 11
632.780950623088188
 21
37.3662029391964978
 31
0.0
  0
LINE
  5
6EA5
  8
0
 10
632.6937894076110069
 20
37.3662029391964978
 30
0.0
 11
632.7355530622718334
 21
37.4783526180965012
 31
0.0
  0
LINE
  5
6EA6
  8
0
 10
632.6591088339413318
 20
37.2540532602965015
 30
0.0
 11
632.6937894076110069
 21
37.3662029391964978
 31
0.0
  0
LINE
  5
6EA7
  8
0
 10
632.6305713295469104
 20
37.3662029391964978
 30
0.0
 11
632.6591088339413318
 21
37.2540532602965015
 31
0.0
  0
LINE
  5
6EA8
  8
0
 10
632.6591088339413318
 20
37.4783526180965012
 30
0.0
 11
632.6937894076110069
 21
37.3662029391964978
 31
0.0
  0
LINE
  5
6EA9
  8
0
 10
632.6305713295469104
 20
37.3662029391964978
 30
0.0
 11
632.6591088339413318
 21
37.4783526180965012
 31
0.0
  0
LINE
  5
6EAA
  8
0
 10
632.6082490713140487
 20
37.2540532602965015
 30
0.0
 11
632.6305713295469104
 21
37.3662029391964978
 31
0.0
  0
LINE
  5
6EAB
  8
0
 10
632.5922547716270401
 20
37.3662029391964978
 30
0.0
 11
632.6082490713140487
 21
37.2540532602965015
 31
0.0
  0
LINE
  5
6EAC
  8
0
 10
632.6082490713140487
 20
37.4783526180965012
 30
0.0
 11
632.6305713295469104
 21
37.3662029391964978
 31
0.0
  0
LINE
  5
6EAD
  8
0
 10
632.5922547716270401
 20
37.3662029391964978
 30
0.0
 11
632.6082490713140487
 21
37.4783526180965012
 31
0.0
  0
LINE
  5
6EAE
  8
0
 10
632.5826203068412497
 20
37.2540532602965015
 30
0.0
 11
632.5922547716270401
 21
37.3662029391964978
 31
0.0
  0
LINE
  5
6EAF
  8
0
 10
632.5794214950442438
 20
37.3662029391964978
 30
0.0
 11
632.5826203068412497
 21
37.2540532602965015
 31
0.0
  0
LINE
  5
6EB0
  8
0
 10
632.5826203068412497
 20
37.4783526180965012
 30
0.0
 11
632.5922547716270401
 21
37.3662029391964978
 31
0.0
  0
LINE
  5
6EB1
  8
0
 10
632.5794214950442438
 20
37.3662029391964978
 30
0.0
 11
632.5826203068412497
 21
37.4783526180965012
 31
0.0
  0
LINE
  5
6EB2
  8
0
 10
632.5794214950442438
 20
37.3662029391964978
 30
0.0
 11
633.7153343825383445
 21
37.3662029391964978
 31
0.0
  0
LINE
  5
6EB3
  8
0
 10
633.4617017204413969
 20
37.2540532602965015
 30
0.0
 11
633.4163041596250423
 21
37.3662029391964978
 31
0.0
  0
LINE
  5
6EB4
  8
0
 10
633.5138052544944003
 20
37.3662029391964978
 30
0.0
 11
633.4617017204413969
 21
37.2540532602965015
 31
0.0
  0
LINE
  5
6EB5
  8
0
 10
633.3709070195914137
 20
37.2540532602965015
 30
0.0
 11
633.2591424762913448
 21
37.3662029391964978
 31
0.0
  0
LINE
  5
6EB6
  8
0
 10
633.4163041596250423
 20
37.3662029391964978
 30
0.0
 11
633.3709070195914137
 21
37.2540532602965015
 31
0.0
  0
LINE
  5
6EB7
  8
0
 10
633.147377938791351
 20
37.2540532602965015
 30
0.0
 11
633.2591424762913448
 21
37.3662029391964978
 31
0.0
  0
LINE
  5
6EB8
  8
0
 10
633.4617017204413969
 20
37.4783526180965012
 30
0.0
 11
633.4163041596250423
 21
37.3662029391964978
 31
0.0
  0
LINE
  5
6EB9
  8
0
 10
633.5138052544944003
 20
37.3662029391964978
 30
0.0
 11
633.4617017204413969
 21
37.4783526180965012
 31
0.0
  0
LINE
  5
6EBA
  8
0
 10
633.3709070195914137
 20
37.4783526180965012
 30
0.0
 11
633.2591424762913448
 21
37.3662029391964978
 31
0.0
  0
LINE
  5
6EBB
  8
0
 10
633.4163041596250423
 20
37.3662029391964978
 30
0.0
 11
633.3709070195914137
 21
37.4783526180965012
 31
0.0
  0
LINE
  5
6EBC
  8
0
 10
633.147377938791351
 20
37.4783526180965012
 30
0.0
 11
633.2591424762913448
 21
37.3662029391964978
 31
0.0
  0
LINE
  5
6EBD
  8
0
 10
633.5592028153107549
 20
37.2540532602965015
 30
0.0
 11
633.5138052544944003
 21
37.3662029391964978
 31
0.0
  0
LINE
  5
6EBE
  8
0
 10
633.6009664699715813
 20
37.3662029391964978
 30
0.0
 11
633.5592028153107549
 21
37.2540532602965015
 31
0.0
  0
LINE
  5
6EBF
  8
0
 10
633.5592028153107549
 20
37.4783526180965012
 30
0.0
 11
633.5138052544944003
 21
37.3662029391964978
 31
0.0
  0
LINE
  5
6EC0
  8
0
 10
633.6009664699715813
 20
37.3662029391964978
 30
0.0
 11
633.5592028153107549
 21
37.4783526180965012
 31
0.0
  0
LINE
  5
6EC1
  8
0
 10
633.6356470436412565
 20
37.2540532602965015
 30
0.0
 11
633.6009664699715813
 21
37.3662029391964978
 31
0.0
  0
LINE
  5
6EC2
  8
0
 10
633.6641845480356778
 20
37.3662029391964978
 30
0.0
 11
633.6356470436412565
 21
37.2540532602965015
 31
0.0
  0
LINE
  5
6EC3
  8
0
 10
633.6356470436412565
 20
37.4783526180965012
 30
0.0
 11
633.6009664699715813
 21
37.3662029391964978
 31
0.0
  0
LINE
  5
6EC4
  8
0
 10
633.6641845480356778
 20
37.3662029391964978
 30
0.0
 11
633.6356470436412565
 21
37.4783526180965012
 31
0.0
  0
LINE
  5
6EC5
  8
0
 10
633.6865068062686532
 20
37.2540532602965015
 30
0.0
 11
633.6641845480356778
 21
37.3662029391964978
 31
0.0
  0
LINE
  5
6EC6
  8
0
 10
633.7025011059555482
 20
37.3662029391964978
 30
0.0
 11
633.6865068062686532
 21
37.2540532602965015
 31
0.0
  0
LINE
  5
6EC7
  8
0
 10
633.6865068062686532
 20
37.4783526180965012
 30
0.0
 11
633.6641845480356778
 21
37.3662029391964978
 31
0.0
  0
LINE
  5
6EC8
  8
0
 10
633.7025011059555482
 20
37.3662029391964978
 30
0.0
 11
633.6865068062686532
 21
37.4783526180965012
 31
0.0
  0
LINE
  5
6EC9
  8
0
 10
633.7121355707413386
 20
37.2540532602965015
 30
0.0
 11
633.7025011059555482
 21
37.3662029391964978
 31
0.0
  0
LINE
  5
6ECA
  8
0
 10
633.7153343825383445
 20
37.3662029391964978
 30
0.0
 11
633.7121355707413386
 21
37.2540532602965015
 31
0.0
  0
LINE
  5
6ECB
  8
0
 10
633.7121355707413386
 20
37.4783526180965012
 30
0.0
 11
633.7025011059555482
 21
37.3662029391964978
 31
0.0
  0
LINE
  5
6ECC
  8
0
 10
633.7153343825383445
 20
37.3662029391964978
 30
0.0
 11
633.7121355707413386
 21
37.4783526180965012
 31
0.0
  0
LINE
  5
6ECD
  8
0
 10
632.5826203068412497
 20
37.0297539024965019
 30
0.0
 11
633.7121355707413386
 21
37.0297539024965019
 31
0.0
  0
LINE
  5
6ECE
  8
0
 10
632.8330541571414187
 20
37.2540532602965015
 30
0.0
 11
632.8784517179576596
 21
37.1419035813964911
 31
0.0
  0
LINE
  5
6ECF
  8
0
 10
632.780950623088188
 20
37.1419035813964911
 30
0.0
 11
632.8330541571414187
 21
37.2540532602965015
 31
0.0
  0
LINE
  5
6ED0
  8
0
 10
632.9238488579914019
 20
37.2540532602965015
 30
0.0
 11
633.0356134012912435
 21
37.1419035813964911
 31
0.0
  0
LINE
  5
6ED1
  8
0
 10
632.8784517179576596
 20
37.1419035813964911
 30
0.0
 11
632.9238488579914019
 21
37.2540532602965015
 31
0.0
  0
LINE
  5
6ED2
  8
0
 10
633.147377938791351
 20
37.2540532602965015
 30
0.0
 11
633.0356134012912435
 21
37.1419035813964911
 31
0.0
  0
LINE
  5
6ED3
  8
0
 10
632.8330541571414187
 20
37.0297539024965019
 30
0.0
 11
632.8784517179576596
 21
37.1419035813964911
 31
0.0
  0
LINE
  5
6ED4
  8
0
 10
632.780950623088188
 20
37.1419035813964911
 30
0.0
 11
632.8330541571414187
 21
37.0297539024965019
 31
0.0
  0
LINE
  5
6ED5
  8
0
 10
632.9238488579914019
 20
37.0297539024965019
 30
0.0
 11
633.0356134012912435
 21
37.1419035813964911
 31
0.0
  0
LINE
  5
6ED6
  8
0
 10
632.8784517179576596
 20
37.1419035813964911
 30
0.0
 11
632.9238488579914019
 21
37.0297539024965019
 31
0.0
  0
LINE
  5
6ED7
  8
0
 10
633.147377938791351
 20
37.0297539024965019
 30
0.0
 11
633.0356134012912435
 21
37.1419035813964911
 31
0.0
  0
LINE
  5
6ED8
  8
0
 10
632.7355530622718334
 20
37.2540532602965015
 30
0.0
 11
632.780950623088188
 21
37.1419035813964911
 31
0.0
  0
LINE
  5
6ED9
  8
0
 10
632.6937894076110069
 20
37.1419035813964911
 30
0.0
 11
632.7355530622718334
 21
37.2540532602965015
 31
0.0
  0
LINE
  5
6EDA
  8
0
 10
632.7355530622718334
 20
37.0297539024965019
 30
0.0
 11
632.780950623088188
 21
37.1419035813964911
 31
0.0
  0
LINE
  5
6EDB
  8
0
 10
632.6937894076110069
 20
37.1419035813964911
 30
0.0
 11
632.7355530622718334
 21
37.0297539024965019
 31
0.0
  0
LINE
  5
6EDC
  8
0
 10
632.6591088339413318
 20
37.2540532602965015
 30
0.0
 11
632.6937894076110069
 21
37.1419035813964911
 31
0.0
  0
LINE
  5
6EDD
  8
0
 10
632.6305713295469104
 20
37.1419035813964911
 30
0.0
 11
632.6591088339413318
 21
37.2540532602965015
 31
0.0
  0
LINE
  5
6EDE
  8
0
 10
632.6591088339413318
 20
37.0297539024965019
 30
0.0
 11
632.6937894076110069
 21
37.1419035813964911
 31
0.0
  0
LINE
  5
6EDF
  8
0
 10
632.6305713295469104
 20
37.1419035813964911
 30
0.0
 11
632.6591088339413318
 21
37.0297539024965019
 31
0.0
  0
LINE
  5
6EE0
  8
0
 10
632.6082490713140487
 20
37.2540532602965015
 30
0.0
 11
632.6305713295469104
 21
37.1419035813964911
 31
0.0
  0
LINE
  5
6EE1
  8
0
 10
632.5922547716270401
 20
37.1419035813964911
 30
0.0
 11
632.6082490713140487
 21
37.2540532602965015
 31
0.0
  0
LINE
  5
6EE2
  8
0
 10
632.6082490713140487
 20
37.0297539024965019
 30
0.0
 11
632.6305713295469104
 21
37.1419035813964911
 31
0.0
  0
LINE
  5
6EE3
  8
0
 10
632.5922547716270401
 20
37.1419035813964911
 30
0.0
 11
632.6082490713140487
 21
37.0297539024965019
 31
0.0
  0
LINE
  5
6EE4
  8
0
 10
632.5826203068412497
 20
37.2540532602965015
 30
0.0
 11
632.5922547716270401
 21
37.1419035813964911
 31
0.0
  0
LINE
  5
6EE5
  8
0
 10
632.5794214950442438
 20
37.1419035813964911
 30
0.0
 11
632.5826203068412497
 21
37.2540532602965015
 31
0.0
  0
LINE
  5
6EE6
  8
0
 10
632.5826203068412497
 20
37.0297539024965019
 30
0.0
 11
632.5922547716270401
 21
37.1419035813964911
 31
0.0
  0
LINE
  5
6EE7
  8
0
 10
632.5794214950442438
 20
37.1419035813964911
 30
0.0
 11
632.5826203068412497
 21
37.0297539024965019
 31
0.0
  0
LINE
  5
6EE8
  8
0
 10
632.5794214950442438
 20
37.1419035813964911
 30
0.0
 11
633.7153343825383445
 21
37.1419035813964911
 31
0.0
  0
LINE
  5
6EE9
  8
0
 10
633.4617017204413969
 20
37.2540532602965015
 30
0.0
 11
633.4163041596250423
 21
37.1419035813964911
 31
0.0
  0
LINE
  5
6EEA
  8
0
 10
633.5138052544944003
 20
37.1419035813964911
 30
0.0
 11
633.4617017204413969
 21
37.2540532602965015
 31
0.0
  0
LINE
  5
6EEB
  8
0
 10
633.3709070195914137
 20
37.2540532602965015
 30
0.0
 11
633.2591424762913448
 21
37.1419035813964911
 31
0.0
  0
LINE
  5
6EEC
  8
0
 10
633.4163041596250423
 20
37.1419035813964911
 30
0.0
 11
633.3709070195914137
 21
37.2540532602965015
 31
0.0
  0
LINE
  5
6EED
  8
0
 10
633.147377938791351
 20
37.2540532602965015
 30
0.0
 11
633.2591424762913448
 21
37.1419035813964911
 31
0.0
  0
LINE
  5
6EEE
  8
0
 10
633.4617017204413969
 20
37.0297539024965019
 30
0.0
 11
633.4163041596250423
 21
37.1419035813964911
 31
0.0
  0
LINE
  5
6EEF
  8
0
 10
633.5138052544944003
 20
37.1419035813964911
 30
0.0
 11
633.4617017204413969
 21
37.0297539024965019
 31
0.0
  0
LINE
  5
6EF0
  8
0
 10
633.3709070195914137
 20
37.0297539024965019
 30
0.0
 11
633.2591424762913448
 21
37.1419035813964911
 31
0.0
  0
LINE
  5
6EF1
  8
0
 10
633.4163041596250423
 20
37.1419035813964911
 30
0.0
 11
633.3709070195914137
 21
37.0297539024965019
 31
0.0
  0
LINE
  5
6EF2
  8
0
 10
633.147377938791351
 20
37.0297539024965019
 30
0.0
 11
633.2591424762913448
 21
37.1419035813964911
 31
0.0
  0
LINE
  5
6EF3
  8
0
 10
633.5592028153107549
 20
37.2540532602965015
 30
0.0
 11
633.5138052544944003
 21
37.1419035813964911
 31
0.0
  0
LINE
  5
6EF4
  8
0
 10
633.6009664699715813
 20
37.1419035813964911
 30
0.0
 11
633.5592028153107549
 21
37.2540532602965015
 31
0.0
  0
LINE
  5
6EF5
  8
0
 10
633.5592028153107549
 20
37.0297539024965019
 30
0.0
 11
633.5138052544944003
 21
37.1419035813964911
 31
0.0
  0
LINE
  5
6EF6
  8
0
 10
633.6009664699715813
 20
37.1419035813964911
 30
0.0
 11
633.5592028153107549
 21
37.0297539024965019
 31
0.0
  0
LINE
  5
6EF7
  8
0
 10
633.6356470436412565
 20
37.2540532602965015
 30
0.0
 11
633.6009664699715813
 21
37.1419035813964911
 31
0.0
  0
LINE
  5
6EF8
  8
0
 10
633.6641845480356778
 20
37.1419035813964911
 30
0.0
 11
633.6356470436412565
 21
37.2540532602965015
 31
0.0
  0
LINE
  5
6EF9
  8
0
 10
633.6356470436412565
 20
37.0297539024965019
 30
0.0
 11
633.6009664699715813
 21
37.1419035813964911
 31
0.0
  0
LINE
  5
6EFA
  8
0
 10
633.6641845480356778
 20
37.1419035813964911
 30
0.0
 11
633.6356470436412565
 21
37.0297539024965019
 31
0.0
  0
LINE
  5
6EFB
  8
0
 10
633.6865068062686532
 20
37.2540532602965015
 30
0.0
 11
633.6641845480356778
 21
37.1419035813964911
 31
0.0
  0
LINE
  5
6EFC
  8
0
 10
633.7025011059555482
 20
37.1419035813964911
 30
0.0
 11
633.6865068062686532
 21
37.2540532602965015
 31
0.0
  0
LINE
  5
6EFD
  8
0
 10
633.6865068062686532
 20
37.0297539024965019
 30
0.0
 11
633.6641845480356778
 21
37.1419035813964911
 31
0.0
  0
LINE
  5
6EFE
  8
0
 10
633.7025011059555482
 20
37.1419035813964911
 30
0.0
 11
633.6865068062686532
 21
37.0297539024965019
 31
0.0
  0
LINE
  5
6EFF
  8
0
 10
633.7121355707413386
 20
37.2540532602965015
 30
0.0
 11
633.7025011059555482
 21
37.1419035813964911
 31
0.0
  0
LINE
  5
6F00
  8
0
 10
633.7153343825383445
 20
37.1419035813964911
 30
0.0
 11
633.7121355707413386
 21
37.2540532602965015
 31
0.0
  0
LINE
  5
6F01
  8
0
 10
633.7121355707413386
 20
37.0297539024965019
 30
0.0
 11
633.7025011059555482
 21
37.1419035813964911
 31
0.0
  0
LINE
  5
6F02
  8
0
 10
633.7153343825383445
 20
37.1419035813964911
 30
0.0
 11
633.7121355707413386
 21
37.0297539024965019
 31
0.0
  0
LINE
  5
6F03
  8
0
 10
632.5826203068412497
 20
37.2540532602965015
 30
0.0
 11
633.7121355707413386
 21
37.2540532602965015
 31
0.0
  0
LINE
  5
6F04
  8
0
 10
632.8330541571414187
 20
37.0297539024965019
 30
0.0
 11
632.8784517179576596
 21
36.9176042235964914
 31
0.0
  0
LINE
  5
6F05
  8
0
 10
632.780950623088188
 20
36.9176042235964914
 30
0.0
 11
632.8330541571414187
 21
37.0297539024965019
 31
0.0
  0
LINE
  5
6F06
  8
0
 10
632.9238488579914019
 20
37.0297539024965019
 30
0.0
 11
633.0356134012912435
 21
36.9176042235964914
 31
0.0
  0
LINE
  5
6F07
  8
0
 10
632.8784517179576596
 20
36.9176042235964914
 30
0.0
 11
632.9238488579914019
 21
37.0297539024965019
 31
0.0
  0
LINE
  5
6F08
  8
0
 10
633.147377938791351
 20
37.0297539024965019
 30
0.0
 11
633.0356134012912435
 21
36.9176042235964914
 31
0.0
  0
LINE
  5
6F09
  8
0
 10
632.7355530622718334
 20
37.0297539024965019
 30
0.0
 11
632.780950623088188
 21
36.9176042235964914
 31
0.0
  0
LINE
  5
6F0A
  8
0
 10
632.6937894076110069
 20
36.9176042235964914
 30
0.0
 11
632.7355530622718334
 21
37.0297539024965019
 31
0.0
  0
LINE
  5
6F0B
  8
0
 10
632.6591088339413318
 20
37.0297539024965019
 30
0.0
 11
632.6937894076110069
 21
36.9176042235964914
 31
0.0
  0
LINE
  5
6F0C
  8
0
 10
632.6305713295469104
 20
36.9176042235964914
 30
0.0
 11
632.6591088339413318
 21
37.0297539024965019
 31
0.0
  0
LINE
  5
6F0D
  8
0
 10
632.6082490713140487
 20
37.0297539024965019
 30
0.0
 11
632.6305713295469104
 21
36.9176042235964914
 31
0.0
  0
LINE
  5
6F0E
  8
0
 10
632.5922547716270401
 20
36.9176042235964914
 30
0.0
 11
632.6082490713140487
 21
37.0297539024965019
 31
0.0
  0
LINE
  5
6F0F
  8
0
 10
632.5826203068412497
 20
37.0297539024965019
 30
0.0
 11
632.5922547716270401
 21
36.9176042235964914
 31
0.0
  0
LINE
  5
6F10
  8
0
 10
632.5794214950442438
 20
36.9176042235964914
 30
0.0
 11
632.5826203068412497
 21
37.0297539024965019
 31
0.0
  0
LINE
  5
6F11
  8
0
 10
633.4617017204413969
 20
37.0297539024965019
 30
0.0
 11
633.4163041596250423
 21
36.9176042235964914
 31
0.0
  0
LINE
  5
6F12
  8
0
 10
633.5138052544944003
 20
36.9176042235964914
 30
0.0
 11
633.4617017204413969
 21
37.0297539024965019
 31
0.0
  0
LINE
  5
6F13
  8
0
 10
633.3709070195914137
 20
37.0297539024965019
 30
0.0
 11
633.2591424762913448
 21
36.9176042235964914
 31
0.0
  0
LINE
  5
6F14
  8
0
 10
633.4163041596250423
 20
36.9176042235964914
 30
0.0
 11
633.3709070195914137
 21
37.0297539024965019
 31
0.0
  0
LINE
  5
6F15
  8
0
 10
633.147377938791351
 20
37.0297539024965019
 30
0.0
 11
633.2591424762913448
 21
36.9176042235964914
 31
0.0
  0
LINE
  5
6F16
  8
0
 10
633.5592028153107549
 20
37.0297539024965019
 30
0.0
 11
633.5138052544944003
 21
36.9176042235964914
 31
0.0
  0
LINE
  5
6F17
  8
0
 10
633.6009664699715813
 20
36.9176042235964914
 30
0.0
 11
633.5592028153107549
 21
37.0297539024965019
 31
0.0
  0
LINE
  5
6F18
  8
0
 10
633.6356470436412565
 20
37.0297539024965019
 30
0.0
 11
633.6009664699715813
 21
36.9176042235964914
 31
0.0
  0
LINE
  5
6F19
  8
0
 10
633.6641845480356778
 20
36.9176042235964914
 30
0.0
 11
633.6356470436412565
 21
37.0297539024965019
 31
0.0
  0
LINE
  5
6F1A
  8
0
 10
633.6865068062686532
 20
37.0297539024965019
 30
0.0
 11
633.6641845480356778
 21
36.9176042235964914
 31
0.0
  0
LINE
  5
6F1B
  8
0
 10
633.7025011059555482
 20
36.9176042235964914
 30
0.0
 11
633.6865068062686532
 21
37.0297539024965019
 31
0.0
  0
LINE
  5
6F1C
  8
0
 10
633.7121355707413386
 20
37.0297539024965019
 30
0.0
 11
633.7025011059555482
 21
36.9176042235964914
 31
0.0
  0
LINE
  5
6F1D
  8
0
 10
633.7153343825383445
 20
36.9176042235964914
 30
0.0
 11
633.7121355707413386
 21
37.0297539024965019
 31
0.0
  0
LINE
  5
6F1E
  8
0
 10
632.5774115333413192
 20
36.9176042235964914
 30
0.0
 11
633.7173443442413827
 21
36.9176042235964914
 31
0.0
  0
LINE
  5
6F1F
  8
0
 10
632.5826203068412497
 20
36.5162046412465031
 30
0.0
 11
633.7121355707413386
 21
36.5162046412465031
 31
0.0
  0
LINE
  5
6F20
  8
0
 10
632.8330541571414187
 20
36.5162046412465031
 30
0.0
 11
632.8784517179576596
 21
36.6283543201464923
 31
0.0
  0
LINE
  5
6F21
  8
0
 10
632.780950623088188
 20
36.6283543201464923
 30
0.0
 11
632.8330541571414187
 21
36.5162046412465031
 31
0.0
  0
LINE
  5
6F22
  8
0
 10
632.9238488579914019
 20
36.5162046412465031
 30
0.0
 11
633.0356134012912435
 21
36.6283543201464923
 31
0.0
  0
LINE
  5
6F23
  8
0
 10
632.8784517179576596
 20
36.6283543201464923
 30
0.0
 11
632.9238488579914019
 21
36.5162046412465031
 31
0.0
  0
LINE
  5
6F24
  8
0
 10
633.147377938791351
 20
36.5162046412465031
 30
0.0
 11
633.0356134012912435
 21
36.6283543201464923
 31
0.0
  0
LINE
  5
6F25
  8
0
 10
632.7355530622718334
 20
36.5162046412465031
 30
0.0
 11
632.780950623088188
 21
36.6283543201464923
 31
0.0
  0
LINE
  5
6F26
  8
0
 10
632.6937894076110069
 20
36.6283543201464923
 30
0.0
 11
632.7355530622718334
 21
36.5162046412465031
 31
0.0
  0
LINE
  5
6F27
  8
0
 10
632.6591088339413318
 20
36.5162046412465031
 30
0.0
 11
632.6937894076110069
 21
36.6283543201464923
 31
0.0
  0
LINE
  5
6F28
  8
0
 10
632.6305713295469104
 20
36.6283543201464923
 30
0.0
 11
632.6591088339413318
 21
36.5162046412465031
 31
0.0
  0
LINE
  5
6F29
  8
0
 10
632.6082490713140487
 20
36.5162046412465031
 30
0.0
 11
632.6305713295469104
 21
36.6283543201464923
 31
0.0
  0
LINE
  5
6F2A
  8
0
 10
632.5922547716270401
 20
36.6283543201464923
 30
0.0
 11
632.6082490713140487
 21
36.5162046412465031
 31
0.0
  0
LINE
  5
6F2B
  8
0
 10
632.5826203068412497
 20
36.5162046412465031
 30
0.0
 11
632.5922547716270401
 21
36.6283543201464923
 31
0.0
  0
LINE
  5
6F2C
  8
0
 10
632.5794214950442438
 20
36.6283543201464923
 30
0.0
 11
632.5826203068412497
 21
36.5162046412465031
 31
0.0
  0
LINE
  5
6F2D
  8
0
 10
633.4617017204413969
 20
36.5162046412465031
 30
0.0
 11
633.4163041596250423
 21
36.6283543201464923
 31
0.0
  0
LINE
  5
6F2E
  8
0
 10
633.5138052544944003
 20
36.6283543201464923
 30
0.0
 11
633.4617017204413969
 21
36.5162046412465031
 31
0.0
  0
LINE
  5
6F2F
  8
0
 10
633.3709070195914137
 20
36.5162046412465031
 30
0.0
 11
633.2591424762913448
 21
36.6283543201464923
 31
0.0
  0
LINE
  5
6F30
  8
0
 10
633.4163041596250423
 20
36.6283543201464923
 30
0.0
 11
633.3709070195914137
 21
36.5162046412465031
 31
0.0
  0
LINE
  5
6F31
  8
0
 10
633.147377938791351
 20
36.5162046412465031
 30
0.0
 11
633.2591424762913448
 21
36.6283543201464923
 31
0.0
  0
LINE
  5
6F32
  8
0
 10
633.5592028153107549
 20
36.5162046412465031
 30
0.0
 11
633.5138052544944003
 21
36.6283543201464923
 31
0.0
  0
LINE
  5
6F33
  8
0
 10
633.6009664699715813
 20
36.6283543201464923
 30
0.0
 11
633.5592028153107549
 21
36.5162046412465031
 31
0.0
  0
LINE
  5
6F34
  8
0
 10
633.6356470436412565
 20
36.5162046412465031
 30
0.0
 11
633.6009664699715813
 21
36.6283543201464923
 31
0.0
  0
LINE
  5
6F35
  8
0
 10
633.6641845480356778
 20
36.6283543201464923
 30
0.0
 11
633.6356470436412565
 21
36.5162046412465031
 31
0.0
  0
LINE
  5
6F36
  8
0
 10
633.6865068062686532
 20
36.5162046412465031
 30
0.0
 11
633.6641845480356778
 21
36.6283543201464923
 31
0.0
  0
LINE
  5
6F37
  8
0
 10
633.7025011059555482
 20
36.6283543201464923
 30
0.0
 11
633.6865068062686532
 21
36.5162046412465031
 31
0.0
  0
LINE
  5
6F38
  8
0
 10
633.7121355707413386
 20
36.5162046412465031
 30
0.0
 11
633.7025011059555482
 21
36.6283543201464923
 31
0.0
  0
LINE
  5
6F39
  8
0
 10
633.7153343825383445
 20
36.6283543201464923
 30
0.0
 11
633.7121355707413386
 21
36.5162046412465031
 31
0.0
  0
LINE
  5
6F3A
  8
0
 10
632.8330541571414187
 20
36.5162046412465031
 30
0.0
 11
632.8784517179576596
 21
36.4040549623464926
 31
0.0
  0
LINE
  5
6F3B
  8
0
 10
632.780950623088188
 20
36.4040549623464926
 30
0.0
 11
632.8330541571414187
 21
36.5162046412465031
 31
0.0
  0
LINE
  5
6F3C
  8
0
 10
632.9238488579914019
 20
36.5162046412465031
 30
0.0
 11
633.0356134012912435
 21
36.4040549623464926
 31
0.0
  0
LINE
  5
6F3D
  8
0
 10
632.8784517179576596
 20
36.4040549623464926
 30
0.0
 11
632.9238488579914019
 21
36.5162046412465031
 31
0.0
  0
LINE
  5
6F3E
  8
0
 10
633.147377938791351
 20
36.5162046412465031
 30
0.0
 11
633.0356134012912435
 21
36.4040549623464926
 31
0.0
  0
LINE
  5
6F3F
  8
0
 10
632.7355530622718334
 20
36.5162046412465031
 30
0.0
 11
632.780950623088188
 21
36.4040549623464926
 31
0.0
  0
LINE
  5
6F40
  8
0
 10
632.6937894076110069
 20
36.4040549623464926
 30
0.0
 11
632.7355530622718334
 21
36.5162046412465031
 31
0.0
  0
LINE
  5
6F41
  8
0
 10
632.6591088339413318
 20
36.5162046412465031
 30
0.0
 11
632.6937894076110069
 21
36.4040549623464926
 31
0.0
  0
LINE
  5
6F42
  8
0
 10
632.6305713295469104
 20
36.4040549623464926
 30
0.0
 11
632.6591088339413318
 21
36.5162046412465031
 31
0.0
  0
LINE
  5
6F43
  8
0
 10
632.6082490713140487
 20
36.5162046412465031
 30
0.0
 11
632.6305713295469104
 21
36.4040549623464926
 31
0.0
  0
LINE
  5
6F44
  8
0
 10
632.5922547716270401
 20
36.4040549623464926
 30
0.0
 11
632.6082490713140487
 21
36.5162046412465031
 31
0.0
  0
LINE
  5
6F45
  8
0
 10
632.5826203068412497
 20
36.5162046412465031
 30
0.0
 11
632.5922547716270401
 21
36.4040549623464926
 31
0.0
  0
LINE
  5
6F46
  8
0
 10
632.5794214950442438
 20
36.4040549623464926
 30
0.0
 11
632.5826203068412497
 21
36.5162046412465031
 31
0.0
  0
LINE
  5
6F47
  8
0
 10
633.4617017204413969
 20
36.5162046412465031
 30
0.0
 11
633.4163041596250423
 21
36.4040549623464926
 31
0.0
  0
LINE
  5
6F48
  8
0
 10
633.5138052544944003
 20
36.4040549623464926
 30
0.0
 11
633.4617017204413969
 21
36.5162046412465031
 31
0.0
  0
LINE
  5
6F49
  8
0
 10
633.3709070195914137
 20
36.5162046412465031
 30
0.0
 11
633.2591424762913448
 21
36.4040549623464926
 31
0.0
  0
LINE
  5
6F4A
  8
0
 10
633.4163041596250423
 20
36.4040549623464926
 30
0.0
 11
633.3709070195914137
 21
36.5162046412465031
 31
0.0
  0
LINE
  5
6F4B
  8
0
 10
633.147377938791351
 20
36.5162046412465031
 30
0.0
 11
633.2591424762913448
 21
36.4040549623464926
 31
0.0
  0
LINE
  5
6F4C
  8
0
 10
633.5592028153107549
 20
36.5162046412465031
 30
0.0
 11
633.5138052544944003
 21
36.4040549623464926
 31
0.0
  0
LINE
  5
6F4D
  8
0
 10
633.6009664699715813
 20
36.4040549623464926
 30
0.0
 11
633.5592028153107549
 21
36.5162046412465031
 31
0.0
  0
LINE
  5
6F4E
  8
0
 10
633.6356470436412565
 20
36.5162046412465031
 30
0.0
 11
633.6009664699715813
 21
36.4040549623464926
 31
0.0
  0
LINE
  5
6F4F
  8
0
 10
633.6641845480356778
 20
36.4040549623464926
 30
0.0
 11
633.6356470436412565
 21
36.5162046412465031
 31
0.0
  0
LINE
  5
6F50
  8
0
 10
633.6865068062686532
 20
36.5162046412465031
 30
0.0
 11
633.6641845480356778
 21
36.4040549623464926
 31
0.0
  0
LINE
  5
6F51
  8
0
 10
633.7025011059555482
 20
36.4040549623464926
 30
0.0
 11
633.6865068062686532
 21
36.5162046412465031
 31
0.0
  0
LINE
  5
6F52
  8
0
 10
633.7121355707413386
 20
36.5162046412465031
 30
0.0
 11
633.7025011059555482
 21
36.4040549623464926
 31
0.0
  0
LINE
  5
6F53
  8
0
 10
633.7153343825383445
 20
36.4040549623464926
 30
0.0
 11
633.7121355707413386
 21
36.5162046412465031
 31
0.0
  0
LINE
  5
6F54
  8
0
 10
632.5774115333413192
 20
36.4040549623464926
 30
0.0
 11
633.7173443442413827
 21
36.4040549623464926
 31
0.0
  0
LINE
  5
6F55
  8
0
 10
633.3709070195914137
 20
37.8434538332964934
 30
0.0
 11
633.3709070195914137
 21
36.4040549623464926
 31
0.0
  0
LINE
  5
6F56
  8
0
 10
633.2591424762913448
 20
36.4040549623464926
 30
0.0
 11
633.2591424762913448
 21
36.6283543201464923
 31
0.0
  0
LINE
  5
6F57
  8
0
 10
633.2591424762913448
 20
36.9176042235964914
 30
0.0
 11
633.2591424762913448
 21
37.7026519758965009
 31
0.0
  0
LINE
  5
6F58
  8
0
 10
632.578061412391321
 20
37.9806675762964971
 30
0.0
 11
632.578061412391321
 21
37.8434538332964934
 31
0.0
  0
LINE
  5
6F59
  8
0
 10
632.578061412391321
 20
37.9806675762964971
 30
0.0
 11
632.5800673198423283
 21
37.9798476921284021
 31
0.0
  0
LINE
  5
6F5A
  8
0
 10
632.5800673198423283
 20
37.9806675762964971
 30
0.0
 11
632.5800673198423283
 21
37.8434538332964934
 31
0.0
  0
LINE
  5
6F5B
  8
0
 10
632.5800673198423283
 20
37.9806675762964971
 30
0.0
 11
632.5852603231282956
 21
37.9785372691458605
 31
0.0
  0
LINE
  5
6F5C
  8
0
 10
632.5852603231282956
 20
37.9806675762964971
 30
0.0
 11
632.5852603231282956
 21
37.8434538332964934
 31
0.0
  0
LINE
  5
6F5D
  8
0
 10
632.5852603231282956
 20
37.9806675762964971
 30
0.0
 11
632.5956733339514813
 21
37.9765826489221681
 31
0.0
  0
LINE
  5
6F5E
  8
0
 10
632.5956733339514813
 20
37.9806675762964971
 30
0.0
 11
632.5956733339514813
 21
37.8434538332964934
 31
0.0
  0
LINE
  5
6F5F
  8
0
 10
632.5956733339514813
 20
37.9806675762964971
 30
0.0
 11
632.6112022307864891
 21
37.9747804155704998
 31
0.0
  0
LINE
  5
6F60
  8
0
 10
632.6112022307864891
 20
37.9806675762964971
 30
0.0
 11
632.6112022307864891
 21
37.8434538332964934
 31
0.0
  0
LINE
  5
6F61
  8
0
 10
632.6112022307864891
 20
37.9806675762964971
 30
0.0
 11
632.6318540122904324
 21
37.9731105487486218
 31
0.0
  0
LINE
  5
6F62
  8
0
 10
632.6318540122904324
 20
37.9806675762964971
 30
0.0
 11
632.6318540122904324
 21
37.8434538332964934
 31
0.0
  0
LINE
  5
6F63
  8
0
 10
632.6318540122904324
 20
37.9806675762964971
 30
0.0
 11
632.6575522874645685
 21
37.9715356517136726
 31
0.0
  0
LINE
  5
6F64
  8
0
 10
632.6575522874645685
 20
37.9806675762964971
 30
0.0
 11
632.6575522874645685
 21
37.8434538332964934
 31
0.0
  0
LINE
  5
6F65
  8
0
 10
632.6575522874645685
 20
37.9806675762964971
 30
0.0
 11
632.6882102993761237
 21
37.9700427919560823
 31
0.0
  0
LINE
  5
6F66
  8
0
 10
632.6882102993761237
 20
37.9806675762964971
 30
0.0
 11
632.6882102993761237
 21
37.8434538332964934
 31
0.0
  0
LINE
  5
6F67
  8
0
 10
632.6882102993761237
 20
37.9806675762964971
 30
0.0
 11
632.7237626171867078
 21
37.9686126792799996
 31
0.0
  0
LINE
  5
6F68
  8
0
 10
632.7237626171867078
 20
37.9806675762964971
 30
0.0
 11
632.7237626171867078
 21
37.8434538332964934
 31
0.0
  0
LINE
  5
6F69
  8
0
 10
632.7237626171867078
 20
37.9806675762964971
 30
0.0
 11
632.7640206733155992
 21
37.9672529889854502
 31
0.0
  0
LINE
  5
6F6A
  8
0
 10
632.7640206733155992
 20
37.9806675762964971
 30
0.0
 11
632.7640206733155992
 21
37.8434538332964934
 31
0.0
  0
LINE
  5
6F6B
  8
0
 10
632.7640206733155992
 20
37.9806675762964971
 30
0.0
 11
632.8089517193311622
 21
37.9659483414304901
 31
0.0
  0
LINE
  5
6F6C
  8
0
 10
632.8089517193311622
 20
37.9806675762964971
 30
0.0
 11
632.8089517193311622
 21
37.8434538332964934
 31
0.0
  0
LINE
  5
6F6D
  8
0
 10
632.8089517193311622
 20
37.9806675762964971
 30
0.0
 11
632.8600350570413866
 21
37.9628846841965029
 31
0.0
  0
LINE
  5
6F6E
  8
0
 10
632.8784640945236788
 20
37.9806675762964971
 30
0.0
 11
632.8784640945236788
 21
37.8434538332964934
 31
0.0
  0
LINE
  5
6F6F
  8
0
 10
632.8784640945236788
 20
37.9806675762964971
 30
0.0
 11
632.9196449709413628
 21
37.9634346923964969
 31
0.0
  0
LINE
  5
6F70
  8
0
 10
632.968553774948532
 20
37.9806675762964971
 30
0.0
 11
632.968553774948532
 21
37.8434538332964934
 31
0.0
  0
LINE
  5
6F71
  8
0
 10
632.968553774948532
 20
37.9806675762964971
 30
0.0
 11
633.0063056125412686
 21
37.961727152696497
 31
0.0
  0
LINE
  5
6F72
  8
0
 10
633.0579760740324673
 20
37.9806675762964971
 30
0.0
 11
633.0579760740324673
 21
37.8434538332964934
 31
0.0
  0
LINE
  5
6F73
  8
0
 10
633.0579760740324673
 20
37.9806675762964971
 30
0.0
 11
633.0957172425413546
 21
37.961727152696497
 31
0.0
  0
LINE
  5
6F74
  8
0
 10
633.1096270170412481
 20
37.9617271527964917
 30
0.0
 11
633.147377938791351
 21
37.9806675762964971
 31
0.0
  0
LINE
  5
6F75
  8
0
 10
633.0579760740324673
 20
37.9806675762964971
 30
0.0
 11
633.0202153871413202
 21
37.9617271527964917
 31
0.0
  0
LINE
  5
6F76
  8
0
 10
632.968553774948532
 20
37.9806675762964971
 30
0.0
 11
632.9402093793413542
 21
37.963129097996493
 31
0.0
  0
LINE
  5
6F77
  8
0
 10
632.8784640945236788
 20
37.9806675762964971
 30
0.0
 11
632.8746602071413463
 21
37.9632628598965027
 31
0.0
  0
LINE
  5
6F78
  8
0
 10
632.578061412391321
 20
37.8434538332964934
 30
0.0
 11
632.5800673198423283
 21
37.8442737174646027
 31
0.0
  0
LINE
  5
6F79
  8
0
 10
632.5800673198423283
 20
37.8434538332964934
 30
0.0
 11
632.5852603231282956
 21
37.84558414044713
 31
0.0
  0
LINE
  5
6F7A
  8
0
 10
632.5852603231282956
 20
37.8434538332964934
 30
0.0
 11
632.5956733339514813
 21
37.8475387606708225
 31
0.0
  0
LINE
  5
6F7B
  8
0
 10
632.5956733339514813
 20
37.8434538332964934
 30
0.0
 11
632.6112022307864891
 21
37.8493409940224907
 31
0.0
  0
LINE
  5
6F7C
  8
0
 10
632.6112022307864891
 20
37.8434538332964934
 30
0.0
 11
632.6318540122904324
 21
37.8510108608443687
 31
0.0
  0
LINE
  5
6F7D
  8
0
 10
632.6318540122904324
 20
37.8434538332964934
 30
0.0
 11
632.6575522874645685
 21
37.8525857578793179
 31
0.0
  0
LINE
  5
6F7E
  8
0
 10
632.6575522874645685
 20
37.8434538332964934
 30
0.0
 11
632.6882102993761237
 21
37.8540786176369082
 31
0.0
  0
LINE
  5
6F7F
  8
0
 10
632.6882102993761237
 20
37.8434538332964934
 30
0.0
 11
632.7237626171867078
 21
37.855508730312998
 31
0.0
  0
LINE
  5
6F80
  8
0
 10
632.7237626171867078
 20
37.8434538332964934
 30
0.0
 11
632.7640206733155992
 21
37.8568684206075403
 31
0.0
  0
LINE
  5
6F81
  8
0
 10
632.7640206733155992
 20
37.8434538332964934
 30
0.0
 11
632.8089517193311622
 21
37.8581730681625004
 31
0.0
  0
LINE
  5
6F82
  8
0
 10
632.8089517193311622
 20
37.8434538332964934
 30
0.0
 11
632.8600350570413866
 21
37.8612367253965019
 31
0.0
  0
LINE
  5
6F83
  8
0
 10
632.8784640945236788
 20
37.8434538332964934
 30
0.0
 11
632.9196449709413628
 21
37.8606867171964865
 31
0.0
  0
LINE
  5
6F84
  8
0
 10
632.968553774948532
 20
37.8434538332964934
 30
0.0
 11
633.0063056125412686
 21
37.8623942568964935
 31
0.0
  0
LINE
  5
6F85
  8
0
 10
633.0579760740324673
 20
37.8434538332964934
 30
0.0
 11
633.0957172425413546
 21
37.8623942568964935
 31
0.0
  0
LINE
  5
6F86
  8
0
 10
633.1096270170412481
 20
37.8623942567964917
 30
0.0
 11
633.147377938791351
 21
37.8434538332964934
 31
0.0
  0
LINE
  5
6F87
  8
0
 10
633.0579760740324673
 20
37.8434538332964934
 30
0.0
 11
633.0202153871413202
 21
37.8623942567964917
 31
0.0
  0
LINE
  5
6F88
  8
0
 10
632.968553774948532
 20
37.8434538332964934
 30
0.0
 11
632.9402093793413542
 21
37.8609923115964975
 31
0.0
  0
LINE
  5
6F89
  8
0
 10
632.8784640945236788
 20
37.8434538332964934
 30
0.0
 11
632.8746602071413463
 21
37.860858549696502
 31
0.0
  0
ARC
  5
6F8A
  8
0
 10
632.8803850911339168
 20
38.0194188742562815
 30
0.0
 40
0.0600852605327047
 50
250.2031641879084134
 51
259.8258464290897223
  0
ARC
  5
6F8B
  8
0
 10
632.8685662340101317
 20
37.9698266543062175
 30
0.0
 40
0.0096240034858579
 50
277.1948656407112139
 51
295.2345794085102284
  0
ARC
  5
6F8C
  8
0
 10
632.8717436653348614
 20
37.9639777659988269
 30
0.0
 40
0.0030028830887067
 50
287.951515102632186
 51
346.2271507937081765
  0
ARC
  5
6F8D
  8
0
 10
632.9302740678634791
 20
37.9866253975893926
 30
0.0
 40
0.0255105176098565
 50
245.3763868071710874
 51
292.9208673287191118
  0
ARC
  5
6F8E
  8
0
 10
633.0132604997422732
 20
37.9755021599510485
 30
0.0
 40
0.0154311788545556
 50
243.2111675884922022
 51
296.7888332353314809
  0
ARC
  5
6F8F
  8
0
 10
633.102672129692337
 20
37.9755021597410689
 30
0.0
 40
0.0154311786445766
 50
243.2111674028433868
 51
296.7888334209943082
  0
ARC
  5
6F90
  8
0
 10
632.8803850911339168
 20
37.804702535336709
 30
0.0
 40
0.0600852605327047
 50
100.1741535709103061
 51
109.7968358120916008
  0
ARC
  5
6F91
  8
0
 10
632.8685662340101317
 20
37.854294755286773
 30
0.0
 40
0.0096240034858579
 50
64.7654205914897716
 51
82.8051343592887719
  0
ARC
  5
6F92
  8
0
 10
632.8717436653348614
 20
37.8601436435941565
 30
0.0
 40
0.0030028830887067
 50
13.7728492062918608
 51
72.048484897367814
  0
ARC
  5
6F93
  8
0
 10
632.9302740678634791
 20
37.8374960120035908
 30
0.0
 40
0.0255105176098565
 50
67.0791326712808598
 51
114.6236131928287989
  0
ARC
  5
6F94
  8
0
 10
633.0132604997422732
 20
37.848619249641942
 30
0.0
 40
0.0154311788545556
 50
63.2111667646685333
 51
116.7888324115077978
  0
ARC
  5
6F95
  8
0
 10
633.102672129692337
 20
37.8486192498519216
 30
0.0
 40
0.0154311786445766
 50
63.2111665790056492
 51
116.7888325971564996
  0
LINE
  5
6F96
  8
0
 10
633.1026721298032953
 20
37.9600709810965
 30
0.0
 11
633.1026721298032953
 21
37.8640504284964905
 31
0.0
  0
LINE
  5
6F97
  8
0
 10
633.0132604998532315
 20
37.9600709810965
 30
0.0
 11
633.0132604998532315
 21
37.8640504284964976
 31
0.0
  0
LINE
  5
6F98
  8
0
 10
632.9298950143778484
 20
37.9611176962586612
 30
0.0
 11
632.9298950143778484
 21
37.8630037133343222
 31
0.0
  0
LINE
  5
6F99
  8
0
 10
632.8726691901767936
 20
37.9611210702482609
 30
0.0
 11
632.8726691901767936
 21
37.8630003393447225
 31
0.0
  0
LINE
  5
6F9A
  8
0
 10
632.5774115333413192
 20
37.8434538332964934
 30
0.0
 11
632.5793596249413895
 21
37.8425687488966389
 31
0.0
  0
LINE
  5
6F9B
  8
0
 10
632.5793596249413895
 20
37.8434538332964934
 30
0.0
 11
632.5793596249413895
 21
37.715126415946493
 31
0.0
  0
LINE
  5
6F9C
  8
0
 10
632.5793596249413895
 20
37.8434538332964934
 30
0.0
 11
632.5819600736413122
 21
37.8424099220802574
 31
0.0
  0
LINE
  5
6F9D
  8
0
 10
632.5819600736413122
 20
37.8434538332964934
 30
0.0
 11
632.5819600736413122
 21
37.715126415946493
 31
0.0
  0
LINE
  5
6F9E
  8
0
 10
632.5819600736413122
 20
37.8434538332964934
 30
0.0
 11
632.5897880349698426
 21
37.8403592886284912
 31
0.0
  0
LINE
  5
6F9F
  8
0
 10
632.5897880349698426
 20
37.8434538332964934
 30
0.0
 11
632.5897880349698426
 21
37.715126415946493
 31
0.0
  0
LINE
  5
6FA0
  8
0
 10
632.5897880349698426
 20
37.8434538332964934
 30
0.0
 11
632.6027541254063635
 21
37.8384888705178781
 31
0.0
  0
LINE
  5
6FA1
  8
0
 10
632.6027541254063635
 20
37.8434538332964934
 30
0.0
 11
632.6027541254063635
 21
37.715126415946493
 31
0.0
  0
LINE
  5
6FA2
  8
0
 10
632.6027541254063635
 20
37.8434538332964934
 30
0.0
 11
632.6208642930959059
 21
37.8367654008125882
 31
0.0
  0
LINE
  5
6FA3
  8
0
 10
632.6208642930959059
 20
37.8434538332964934
 30
0.0
 11
632.6208642930959059
 21
37.715126415946493
 31
0.0
  0
LINE
  5
6FA4
  8
0
 10
632.6208642930959059
 20
37.8434538332964934
 30
0.0
 11
632.6439985583740508
 21
37.8351750041740331
 31
0.0
  0
LINE
  5
6FA5
  8
0
 10
632.6439985583740508
 20
37.8434538332964934
 30
0.0
 11
632.6439985583740508
 21
37.715126415946493
 31
0.0
  0
LINE
  5
6FA6
  8
0
 10
632.6439985583740508
 20
37.8434538332964934
 30
0.0
 11
632.672191440813549
 21
37.8336483974399087
 31
0.0
  0
LINE
  5
6FA7
  8
0
 10
632.672191440813549
 20
37.8434538332964934
 30
0.0
 11
632.672191440813549
 21
37.715126415946493
 31
0.0
  0
LINE
  5
6FA8
  8
0
 10
632.672191440813549
 20
37.8434538332964934
 30
0.0
 11
632.7053525489559433
 21
37.8321806991804976
 31
0.0
  0
LINE
  5
6FA9
  8
0
 10
632.7053525489559433
 20
37.8434538332964934
 30
0.0
 11
632.7053525489559433
 21
37.715126415946493
 31
0.0
  0
LINE
  5
6FAA
  8
0
 10
632.7053525489559433
 20
37.8434538332964934
 30
0.0
 11
632.743254989055572
 21
37.8308418951776915
 31
0.0
  0
LINE
  5
6FAB
  8
0
 10
632.743254989055572
 20
37.8434538332964934
 30
0.0
 11
632.743254989055572
 21
37.715126415946493
 31
0.0
  0
LINE
  5
6FAC
  8
0
 10
632.743254989055572
 20
37.8434538332964934
 30
0.0
 11
632.7858440585193875
 21
37.8295500307329604
 31
0.0
  0
LINE
  5
6FAD
  8
0
 10
632.7858440585193875
 20
37.8434538332964934
 30
0.0
 11
632.7858440585193875
 21
37.715126415946493
 31
0.0
  0
LINE
  5
6FAE
  8
0
 10
632.7858440585193875
 20
37.8434538332964934
 30
0.0
 11
632.8330727822591371
 21
37.8282859460743097
 31
0.0
  0
LINE
  5
6FAF
  8
0
 10
632.8330727822591371
 20
37.8434538332964934
 30
0.0
 11
632.8330727822591371
 21
37.715126415946493
 31
0.0
  0
LINE
  5
6FB0
  8
0
 10
632.8330727822591371
 20
37.8434538332964934
 30
0.0
 11
632.8886408984413947
 21
37.8262266993964928
 31
0.0
  0
LINE
  5
6FB1
  8
0
 10
633.0132950488873576
 20
37.8434538332964934
 30
0.0
 11
633.0132950488873576
 21
37.715126415946493
 31
0.0
  0
LINE
  5
6FB2
  8
0
 10
633.0132950488873576
 20
37.8434538332964934
 30
0.0
 11
633.0455632842413252
 21
37.8274260044965018
 31
0.0
  0
LINE
  5
6FB3
  8
0
 10
633.1027192986254022
 20
37.8434538332964934
 30
0.0
 11
633.1027192986254022
 21
37.715126415946493
 31
0.0
  0
LINE
  5
6FB4
  8
0
 10
633.1027192986254022
 20
37.8434538332964934
 30
0.0
 11
633.1349749129412885
 21
37.8274260044965018
 31
0.0
  0
LINE
  5
6FB5
  8
0
 10
632.9238488579914019
 20
37.8434538332964934
 30
0.0
 11
632.9087967118413189
 21
37.8262257159964932
 31
0.0
  0
LINE
  5
6FB6
  8
0
 10
633.0132950488873576
 20
37.8434538332964934
 30
0.0
 11
632.9809577223412589
 21
37.8274260044965018
 31
0.0
  0
LINE
  5
6FB7
  8
0
 10
633.1027192986254022
 20
37.8434538332964934
 30
0.0
 11
633.0703693510413359
 21
37.8274260044965018
 31
0.0
  0
LINE
  5
6FB8
  8
0
 10
632.9238488579914019
 20
37.8434538332964934
 30
0.0
 11
632.9561516555412481
 21
37.8274260044965018
 31
0.0
  0
ARC
  5
6FB9
  8
0
 10
632.902229342592932
 20
37.8711642811319606
 30
0.0
 40
0.0469471198977133
 50
253.1754784298923084
 51
265.858066642312906
  0
ARC
  5
6FBA
  8
0
 10
632.900832586659476
 20
37.8518764853005365
 30
0.0
 40
0.0276088160638325
 50
265.858066642312906
 51
279.6825026172580806
  0
ARC
  5
6FBB
  8
0
 10
632.9043244289391623
 20
37.8314107363729235
 30
0.0
 40
0.0068473170410119
 50
279.6825026172649018
 51
310.7790549836529976
  0
ARC
  5
6FBC
  8
0
 10
632.9685546889413672
 20
37.8590508849952627
 30
0.0
 40
0.0339701089795472
 50
248.5852726873638971
 51
291.4147273126362165
  0
ARC
  5
6FBD
  8
0
 10
633.0579663176413305
 20
37.8590508849952698
 30
0.0
 40
0.0339701089795627
 50
248.5852726873712015
 51
291.4147273126151276
  0
LINE
  5
6FBE
  8
0
 10
632.5774115333413192
 20
37.715126415946493
 30
0.0
 11
632.5793596249413895
 21
37.7160115003463474
 31
0.0
  0
LINE
  5
6FBF
  8
0
 10
632.5793596249413895
 20
37.715126415946493
 30
0.0
 11
632.5819600736413122
 21
37.7161703271627431
 31
0.0
  0
LINE
  5
6FC0
  8
0
 10
632.5819600736413122
 20
37.715126415946493
 30
0.0
 11
632.5897880349698426
 21
37.7182209606145094
 31
0.0
  0
LINE
  5
6FC1
  8
0
 10
632.5897880349698426
 20
37.715126415946493
 30
0.0
 11
632.6027541254063635
 21
37.7200913787251082
 31
0.0
  0
LINE
  5
6FC2
  8
0
 10
632.6027541254063635
 20
37.715126415946493
 30
0.0
 11
632.6208642930959059
 21
37.721814848430391
 31
0.0
  0
LINE
  5
6FC3
  8
0
 10
632.6208642930959059
 20
37.715126415946493
 30
0.0
 11
632.6439985583740508
 21
37.7234052450689532
 31
0.0
  0
LINE
  5
6FC4
  8
0
 10
632.6439985583740508
 20
37.715126415946493
 30
0.0
 11
632.672191440813549
 21
37.7249318518030776
 31
0.0
  0
LINE
  5
6FC5
  8
0
 10
632.672191440813549
 20
37.715126415946493
 30
0.0
 11
632.7053525489559433
 21
37.7263995500624887
 31
0.0
  0
LINE
  5
6FC6
  8
0
 10
632.7053525489559433
 20
37.715126415946493
 30
0.0
 11
632.743254989055572
 21
37.727738354065302
 31
0.0
  0
LINE
  5
6FC7
  8
0
 10
632.743254989055572
 20
37.715126415946493
 30
0.0
 11
632.7858440585193875
 21
37.7290302185100401
 31
0.0
  0
LINE
  5
6FC8
  8
0
 10
632.7858440585193875
 20
37.715126415946493
 30
0.0
 11
632.8330727822591371
 21
37.7302943031686766
 31
0.0
  0
LINE
  5
6FC9
  8
0
 10
632.8330727822591371
 20
37.715126415946493
 30
0.0
 11
632.8886408984413947
 21
37.7323535498464935
 31
0.0
  0
LINE
  5
6FCA
  8
0
 10
633.0132950488873576
 20
37.715126415946493
 30
0.0
 11
633.0455632842413252
 21
37.7311542447464916
 31
0.0
  0
LINE
  5
6FCB
  8
0
 10
633.1027192986254022
 20
37.715126415946493
 30
0.0
 11
633.1349749129412885
 21
37.7311542447464916
 31
0.0
  0
LINE
  5
6FCC
  8
0
 10
632.9238488579914019
 20
37.715126415946493
 30
0.0
 11
632.9087967118413189
 21
37.7323545332464931
 31
0.0
  0
LINE
  5
6FCD
  8
0
 10
633.0132950488873576
 20
37.715126415946493
 30
0.0
 11
632.9809577223412589
 21
37.7311542447464916
 31
0.0
  0
LINE
  5
6FCE
  8
0
 10
633.1027192986254022
 20
37.715126415946493
 30
0.0
 11
633.0703693510413359
 21
37.7311542447464916
 31
0.0
  0
LINE
  5
6FCF
  8
0
 10
632.9238488579914019
 20
37.715126415946493
 30
0.0
 11
632.9561516555412481
 21
37.7311542447464916
 31
0.0
  0
ARC
  5
6FD0
  8
0
 10
632.902229342592932
 20
37.6874159681110399
 30
0.0
 40
0.0469471198977133
 50
94.141933357687094
 51
106.8245215701077058
  0
ARC
  5
6FD1
  8
0
 10
632.900832586659476
 20
37.7067037639424498
 30
0.0
 40
0.0276088160638325
 50
80.3174973827418768
 51
94.141933357687094
  0
ARC
  5
6FD2
  8
0
 10
632.9043244289391623
 20
37.7271695128700699
 30
0.0
 40
0.0068473170410119
 50
49.2209450163470379
 51
80.3174973827351408
  0
ARC
  5
6FD3
  8
0
 10
632.9685546889413672
 20
37.6995293642477378
 30
0.0
 40
0.0339701089795472
 50
68.5852726873638545
 51
111.4147273126361029
  0
ARC
  5
6FD4
  8
0
 10
633.0579663176413305
 20
37.6995293642477165
 30
0.0
 40
0.0339701089795627
 50
68.5852726873848724
 51
111.414727312628699
  0
LINE
  5
6FD5
  8
0
 10
632.900832586659476
 20
37.824267669236697
 30
0.0
 11
632.900832586659476
 21
37.7343125800062822
 31
0.0
  0
LINE
  5
6FD6
  8
0
 10
632.9685546889413672
 20
37.8250807760157031
 30
0.0
 11
632.9685546889413672
 21
37.7334994732272833
 31
0.0
  0
LINE
  5
6FD7
  8
0
 10
633.0579663176413305
 20
37.8250807760157102
 30
0.0
 11
633.0579663176413305
 21
37.7334994732272833
 31
0.0
  0
LINE
  5
6FD8
  8
0
 10
632.5774115333413192
 20
36.9035891442465029
 30
0.0
 11
632.5793596249413895
 21
36.9027040598466414
 31
0.0
  0
LINE
  5
6FD9
  8
0
 10
632.5793596249413895
 20
36.9035891442465029
 30
0.0
 11
632.5793596249413895
 21
36.6423970883464918
 31
0.0
  0
LINE
  5
6FDA
  8
0
 10
632.5793596249413895
 20
36.9035891442465029
 30
0.0
 11
632.5819600736413122
 21
36.9025452330302528
 31
0.0
  0
LINE
  5
6FDB
  8
0
 10
632.5819600736413122
 20
36.9035891442465029
 30
0.0
 11
632.5819600736413122
 21
36.6423970883464918
 31
0.0
  0
LINE
  5
6FDC
  8
0
 10
632.5819600736413122
 20
36.9035891442465029
 30
0.0
 11
632.5897880349698426
 21
36.9004945995784865
 31
0.0
  0
LINE
  5
6FDD
  8
0
 10
632.5897880349698426
 20
36.9035891442465029
 30
0.0
 11
632.5897880349698426
 21
36.6423970883464918
 31
0.0
  0
LINE
  5
6FDE
  8
0
 10
632.5897880349698426
 20
36.9035891442465029
 30
0.0
 11
632.6027541254063635
 21
36.8986241814678806
 31
0.0
  0
LINE
  5
6FDF
  8
0
 10
632.6027541254063635
 20
36.9035891442465029
 30
0.0
 11
632.6027541254063635
 21
36.6423970883464918
 31
0.0
  0
LINE
  5
6FE0
  8
0
 10
632.6027541254063635
 20
36.9035891442465029
 30
0.0
 11
632.6208642930959059
 21
36.8969007117625978
 31
0.0
  0
LINE
  5
6FE1
  8
0
 10
632.6208642930959059
 20
36.9035891442465029
 30
0.0
 11
632.6208642930959059
 21
36.6423970883464918
 31
0.0
  0
LINE
  5
6FE2
  8
0
 10
632.6208642930959059
 20
36.9035891442465029
 30
0.0
 11
632.6439985583740508
 21
36.8953103151240427
 31
0.0
  0
LINE
  5
6FE3
  8
0
 10
632.6439985583740508
 20
36.9035891442465029
 30
0.0
 11
632.6439985583740508
 21
36.6423970883464918
 31
0.0
  0
LINE
  5
6FE4
  8
0
 10
632.6439985583740508
 20
36.9035891442465029
 30
0.0
 11
632.672191440813549
 21
36.8937837083899112
 31
0.0
  0
LINE
  5
6FE5
  8
0
 10
632.672191440813549
 20
36.9035891442465029
 30
0.0
 11
632.672191440813549
 21
36.6423970883464918
 31
0.0
  0
LINE
  5
6FE6
  8
0
 10
632.672191440813549
 20
36.9035891442465029
 30
0.0
 11
632.7053525489559433
 21
36.8923160101305001
 31
0.0
  0
LINE
  5
6FE7
  8
0
 10
632.7053525489559433
 20
36.9035891442465029
 30
0.0
 11
632.7053525489559433
 21
36.6423970883464918
 31
0.0
  0
LINE
  5
6FE8
  8
0
 10
632.7053525489559433
 20
36.9035891442465029
 30
0.0
 11
632.743254989055572
 21
36.890977206127701
 31
0.0
  0
LINE
  5
6FE9
  8
0
 10
632.743254989055572
 20
36.9035891442465029
 30
0.0
 11
632.743254989055572
 21
36.6423970883464918
 31
0.0
  0
LINE
  5
6FEA
  8
0
 10
632.743254989055572
 20
36.9035891442465029
 30
0.0
 11
632.7858440585193875
 21
36.8896853416829629
 31
0.0
  0
LINE
  5
6FEB
  8
0
 10
632.7858440585193875
 20
36.9035891442465029
 30
0.0
 11
632.7858440585193875
 21
36.6423970883464918
 31
0.0
  0
LINE
  5
6FEC
  8
0
 10
632.7858440585193875
 20
36.9035891442465029
 30
0.0
 11
632.8330727822591371
 21
36.8884212570243122
 31
0.0
  0
LINE
  5
6FED
  8
0
 10
632.8330727822591371
 20
36.9035891442465029
 30
0.0
 11
632.8330727822591371
 21
36.6423970883464918
 31
0.0
  0
LINE
  5
6FEE
  8
0
 10
632.8330727822591371
 20
36.9035891442465029
 30
0.0
 11
632.8886408984413947
 21
36.8863620103465024
 31
0.0
  0
LINE
  5
6FEF
  8
0
 10
633.0132950488873576
 20
36.9035891442465029
 30
0.0
 11
633.0132950488873576
 21
36.6423970883464918
 31
0.0
  0
LINE
  5
6FF0
  8
0
 10
633.0132950488873576
 20
36.9035891442465029
 30
0.0
 11
633.0455632842413252
 21
36.8875613154464901
 31
0.0
  0
LINE
  5
6FF1
  8
0
 10
633.1027192986254022
 20
36.9035891442465029
 30
0.0
 11
633.1027192986254022
 21
36.6423970883464918
 31
0.0
  0
LINE
  5
6FF2
  8
0
 10
633.1027192986254022
 20
36.9035891442465029
 30
0.0
 11
633.1349749129412885
 21
36.8875613154464901
 31
0.0
  0
LINE
  5
6FF3
  8
0
 10
632.9238488579914019
 20
36.9035891442465029
 30
0.0
 11
632.9087967118413189
 21
36.8863610269465028
 31
0.0
  0
LINE
  5
6FF4
  8
0
 10
633.0132950488873576
 20
36.9035891442465029
 30
0.0
 11
632.9809577223412589
 21
36.8875613154464901
 31
0.0
  0
LINE
  5
6FF5
  8
0
 10
633.1027192986254022
 20
36.9035891442465029
 30
0.0
 11
633.0703693510413359
 21
36.8875613154464901
 31
0.0
  0
LINE
  5
6FF6
  8
0
 10
632.9238488579914019
 20
36.9035891442465029
 30
0.0
 11
632.9561516555412481
 21
36.8875613154464901
 31
0.0
  0
ARC
  5
6FF7
  8
0
 10
632.902229342592932
 20
36.9312995920819631
 30
0.0
 40
0.0469471198977133
 50
253.1754784298923084
 51
265.858066642312906
  0
ARC
  5
6FF8
  8
0
 10
632.900832586659476
 20
36.912011796250539
 30
0.0
 40
0.0276088160638325
 50
265.858066642312906
 51
279.6825026172580806
  0
ARC
  5
6FF9
  8
0
 10
632.9043244289391623
 20
36.8915460473229189
 30
0.0
 40
0.0068473170410119
 50
279.6825026172649018
 51
310.7790549836529976
  0
ARC
  5
6FFA
  8
0
 10
632.9685546889413672
 20
36.919186195945251
 30
0.0
 40
0.0339701089795472
 50
248.5852726873638971
 51
291.4147273126362165
  0
ARC
  5
6FFB
  8
0
 10
633.0579663176413305
 20
36.9191861959452723
 30
0.0
 40
0.0339701089795627
 50
248.5852726873712015
 51
291.4147273126151276
  0
LINE
  5
6FFC
  8
0
 10
632.5774115333413192
 20
36.6423970883464918
 30
0.0
 11
632.5793596249413895
 21
36.6432821727463534
 31
0.0
  0
LINE
  5
6FFD
  8
0
 10
632.5793596249413895
 20
36.6423970883464918
 30
0.0
 11
632.5819600736413122
 21
36.6434409995627419
 31
0.0
  0
LINE
  5
6FFE
  8
0
 10
632.5819600736413122
 20
36.6423970883464918
 30
0.0
 11
632.5897880349698426
 21
36.6454916330145011
 31
0.0
  0
LINE
  5
6FFF
  8
0
 10
632.5897880349698426
 20
36.6423970883464918
 30
0.0
 11
632.6027541254063635
 21
36.647362051125107
 31
0.0
  0
LINE
  5
7000
  8
0
 10
632.6027541254063635
 20
36.6423970883464918
 30
0.0
 11
632.6208642930959059
 21
36.6490855208303898
 31
0.0
  0
LINE
  5
7001
  8
0
 10
632.6208642930959059
 20
36.6423970883464918
 30
0.0
 11
632.6439985583740508
 21
36.6506759174689591
 31
0.0
  0
LINE
  5
7002
  8
0
 10
632.6439985583740508
 20
36.6423970883464918
 30
0.0
 11
632.672191440813549
 21
36.6522025242030765
 31
0.0
  0
LINE
  5
7003
  8
0
 10
632.672191440813549
 20
36.6423970883464918
 30
0.0
 11
632.7053525489559433
 21
36.6536702224624875
 31
0.0
  0
LINE
  5
7004
  8
0
 10
632.7053525489559433
 20
36.6423970883464918
 30
0.0
 11
632.743254989055572
 21
36.6550090264653008
 31
0.0
  0
LINE
  5
7005
  8
0
 10
632.743254989055572
 20
36.6423970883464918
 30
0.0
 11
632.7858440585193875
 21
36.6563008909100319
 31
0.0
  0
LINE
  5
7006
  8
0
 10
632.7858440585193875
 20
36.6423970883464918
 30
0.0
 11
632.8330727822591371
 21
36.6575649755686825
 31
0.0
  0
LINE
  5
7007
  8
0
 10
632.8330727822591371
 20
36.6423970883464918
 30
0.0
 11
632.8886408984413947
 21
36.6596242222464923
 31
0.0
  0
LINE
  5
7008
  8
0
 10
633.0132950488873576
 20
36.6423970883464918
 30
0.0
 11
633.0455632842413252
 21
36.6584249171464975
 31
0.0
  0
LINE
  5
7009
  8
0
 10
633.1027192986254022
 20
36.6423970883464918
 30
0.0
 11
633.1349749129412885
 21
36.6584249171464975
 31
0.0
  0
LINE
  5
700A
  8
0
 10
632.9238488579914019
 20
36.6423970883464918
 30
0.0
 11
632.9087967118413189
 21
36.659625205646492
 31
0.0
  0
LINE
  5
700B
  8
0
 10
633.0132950488873576
 20
36.6423970883464918
 30
0.0
 11
632.9809577223412589
 21
36.6584249171464975
 31
0.0
  0
LINE
  5
700C
  8
0
 10
633.1027192986254022
 20
36.6423970883464918
 30
0.0
 11
633.0703693510413359
 21
36.6584249171464975
 31
0.0
  0
LINE
  5
700D
  8
0
 10
632.9238488579914019
 20
36.6423970883464918
 30
0.0
 11
632.9561516555412481
 21
36.6584249171464975
 31
0.0
  0
ARC
  5
700E
  8
0
 10
632.902229342592932
 20
36.6146866405110387
 30
0.0
 40
0.0469471198977133
 50
94.141933357687094
 51
106.8245215701077058
  0
ARC
  5
700F
  8
0
 10
632.900832586659476
 20
36.6339744363424487
 30
0.0
 40
0.0276088160638325
 50
80.3174973827418768
 51
94.141933357687094
  0
ARC
  5
7010
  8
0
 10
632.9043244289391623
 20
36.6544401852700688
 30
0.0
 40
0.0068473170410119
 50
49.2209450163470379
 51
80.3174973827351408
  0
ARC
  5
7011
  8
0
 10
632.9685546889413672
 20
36.6268000366477366
 30
0.0
 40
0.0339701089795472
 50
68.5852726873638545
 51
111.4147273126361029
  0
ARC
  5
7012
  8
0
 10
633.0579663176413305
 20
36.6268000366477224
 30
0.0
 40
0.0339701089795627
 50
68.5852726873848724
 51
111.414727312628699
  0
LINE
  5
7013
  8
0
 10
632.900832586659476
 20
36.8844029801867066
 30
0.0
 11
632.900832586659476
 21
36.661583252406281
 31
0.0
  0
LINE
  5
7014
  8
0
 10
632.9685546889413672
 20
36.8852160869657126
 30
0.0
 11
632.9685546889413672
 21
36.6607701456272821
 31
0.0
  0
LINE
  5
7015
  8
0
 10
633.0579663176413305
 20
36.8852160869657126
 30
0.0
 11
633.0579663176413305
 21
36.6607701456272821
 31
0.0
  0
LINE
  5
7016
  8
0
 10
633.7173443442413827
 20
37.996636436860932
 30
0.0
 11
633.7173443442413827
 21
37.7026519758965009
 31
0.0
  0
LINE
  5
7017
  8
0
 10
633.7173443442413827
 20
36.9176077757964975
 30
0.0
 11
633.7173443442413827
 21
36.6283543201464923
 31
0.0
  0
LINE
  5
7018
  8
0
 10
633.7173443442413827
 20
36.4040549623464926
 30
0.0
 11
633.7173443442413827
 21
36.392831084912082
 31
0.0
  0
ARC
  5
7019
  8
0
 10
633.6508648296365891
 20
37.9931531314475777
 30
0.0
 40
0.0665707088642437
 50
2.9993654213039158
 51
82.6174765868689747
  0
ARC
  5
701A
  8
0
 10
633.6807579086835176
 20
36.3956196797386227
 30
0.0
 40
0.0366925541211794
 50
277.8747366471690157
 51
355.6413794362056251
  0
LINE
  5
701B
  8
0
 10
633.6025827725412682
 20
36.301766754691009
 30
0.0
 11
633.6025827725412682
 21
36.3268721018162921
 31
0.0
  0
ARC
  5
701C
  8
0
 10
633.6356449039936933
 20
36.3265151785063907
 30
0.0
 40
0.0330640579847903
 50
97.8023625094163265
 51
179.3814855855312942
  0
ARC
  5
701D
  8
0
 10
633.548090796044562
 20
36.3028994008657619
 30
0.0
 40
0.0545037465673117
 50
277.7234313029484838
 51
358.8092466775331104
  0
LINE
  5
701E
  8
0
 10
633.7166944651912672
 20
37.9806675762964971
 30
0.0
 11
633.7166944651912672
 21
37.8434538332964934
 31
0.0
  0
LINE
  5
701F
  8
0
 10
633.7166944651912672
 20
37.9806675762964971
 30
0.0
 11
633.7146885577403737
 21
37.9798476921284021
 31
0.0
  0
LINE
  5
7020
  8
0
 10
633.7146885577403737
 20
37.9806675762964971
 30
0.0
 11
633.7146885577403737
 21
37.8434538332964934
 31
0.0
  0
LINE
  5
7021
  8
0
 10
633.7146885577403737
 20
37.9806675762964971
 30
0.0
 11
633.7094955544542927
 21
37.9785372691458605
 31
0.0
  0
LINE
  5
7022
  8
0
 10
633.7094955544542927
 20
37.9806675762964971
 30
0.0
 11
633.7094955544542927
 21
37.8434538332964934
 31
0.0
  0
LINE
  5
7023
  8
0
 10
633.7094955544542927
 20
37.9806675762964971
 30
0.0
 11
633.6990825436312207
 21
37.9765826489221681
 31
0.0
  0
LINE
  5
7024
  8
0
 10
633.6990825436312207
 20
37.9806675762964971
 30
0.0
 11
633.6990825436312207
 21
37.8434538332964934
 31
0.0
  0
LINE
  5
7025
  8
0
 10
633.6990825436312207
 20
37.9806675762964971
 30
0.0
 11
633.6835536467960992
 21
37.9747804155704998
 31
0.0
  0
LINE
  5
7026
  8
0
 10
633.6835536467960992
 20
37.9806675762964971
 30
0.0
 11
633.6835536467960992
 21
37.8434538332964934
 31
0.0
  0
LINE
  5
7027
  8
0
 10
633.6835536467960992
 20
37.9806675762964971
 30
0.0
 11
633.6629018652922696
 21
37.9731105487486218
 31
0.0
  0
LINE
  5
7028
  8
0
 10
633.6629018652922696
 20
37.9806675762964971
 30
0.0
 11
633.6629018652922696
 21
37.8434538332964934
 31
0.0
  0
LINE
  5
7029
  8
0
 10
633.6629018652922696
 20
37.9806675762964971
 30
0.0
 11
633.6372035901180197
 21
37.9715356517136726
 31
0.0
  0
LINE
  5
702A
  8
0
 10
633.6372035901180197
 20
37.9806675762964971
 30
0.0
 11
633.6372035901180197
 21
37.8434538332964934
 31
0.0
  0
LINE
  5
702B
  8
0
 10
633.6372035901180197
 20
37.9806675762964971
 30
0.0
 11
633.6065455782065783
 21
37.9700427919560823
 31
0.0
  0
LINE
  5
702C
  8
0
 10
633.6065455782065783
 20
37.9806675762964971
 30
0.0
 11
633.6065455782065783
 21
37.8434538332964934
 31
0.0
  0
LINE
  5
702D
  8
0
 10
633.6065455782065783
 20
37.9806675762964971
 30
0.0
 11
633.5709932603958805
 21
37.9686126792799996
 31
0.0
  0
LINE
  5
702E
  8
0
 10
633.5709932603958805
 20
37.9806675762964971
 30
0.0
 11
633.5709932603958805
 21
37.8434538332964934
 31
0.0
  0
LINE
  5
702F
  8
0
 10
633.5709932603958805
 20
37.9806675762964971
 30
0.0
 11
633.5307352042672164
 21
37.9672529889854502
 31
0.0
  0
LINE
  5
7030
  8
0
 10
633.5307352042672164
 20
37.9806675762964971
 30
0.0
 11
633.5307352042672164
 21
37.8434538332964934
 31
0.0
  0
LINE
  5
7031
  8
0
 10
633.5307352042672164
 20
37.9806675762964971
 30
0.0
 11
633.4858041582515398
 21
37.9659483414304901
 31
0.0
  0
LINE
  5
7032
  8
0
 10
633.4858041582515398
 20
37.9806675762964971
 30
0.0
 11
633.4858041582515398
 21
37.8434538332964934
 31
0.0
  0
LINE
  5
7033
  8
0
 10
633.4858041582515398
 20
37.9806675762964971
 30
0.0
 11
633.4347208205413153
 21
37.9628846841965029
 31
0.0
  0
LINE
  5
7034
  8
0
 10
633.4162917830590231
 20
37.9806675762964971
 30
0.0
 11
633.4162917830590231
 21
37.8434538332964934
 31
0.0
  0
LINE
  5
7035
  8
0
 10
633.4162917830590231
 20
37.9806675762964971
 30
0.0
 11
633.3751109066413392
 21
37.9634346923964969
 31
0.0
  0
LINE
  5
7036
  8
0
 10
633.3262021026341699
 20
37.9806675762964971
 30
0.0
 11
633.3262021026341699
 21
37.8434538332964934
 31
0.0
  0
LINE
  5
7037
  8
0
 10
633.3262021026341699
 20
37.9806675762964971
 30
0.0
 11
633.2884502650413197
 21
37.961727152696497
 31
0.0
  0
LINE
  5
7038
  8
0
 10
633.2367798035502346
 20
37.9806675762964971
 30
0.0
 11
633.2367798035502346
 21
37.8434538332964934
 31
0.0
  0
LINE
  5
7039
  8
0
 10
633.2367798035502346
 20
37.9806675762964971
 30
0.0
 11
633.1990386350413473
 21
37.961727152696497
 31
0.0
  0
LINE
  5
703A
  8
0
 10
633.1851288605413401
 20
37.9617271527964917
 30
0.0
 11
633.147377938791351
 21
37.9806675762964971
 31
0.0
  0
LINE
  5
703B
  8
0
 10
633.2367798035502346
 20
37.9806675762964971
 30
0.0
 11
633.2745404904413817
 21
37.9617271527964917
 31
0.0
  0
LINE
  5
703C
  8
0
 10
633.3262021026341699
 20
37.9806675762964971
 30
0.0
 11
633.3545464982413478
 21
37.963129097996493
 31
0.0
  0
LINE
  5
703D
  8
0
 10
633.4162917830590231
 20
37.9806675762964971
 30
0.0
 11
633.4200956704413557
 21
37.9632628598965027
 31
0.0
  0
LINE
  5
703E
  8
0
 10
633.7166944651912672
 20
37.8434538332964934
 30
0.0
 11
633.7146885577403737
 21
37.8442737174646027
 31
0.0
  0
LINE
  5
703F
  8
0
 10
633.7146885577403737
 20
37.8434538332964934
 30
0.0
 11
633.7094955544542927
 21
37.84558414044713
 31
0.0
  0
LINE
  5
7040
  8
0
 10
633.7094955544542927
 20
37.8434538332964934
 30
0.0
 11
633.6990825436312207
 21
37.8475387606708225
 31
0.0
  0
LINE
  5
7041
  8
0
 10
633.6990825436312207
 20
37.8434538332964934
 30
0.0
 11
633.6835536467960992
 21
37.8493409940224907
 31
0.0
  0
LINE
  5
7042
  8
0
 10
633.6835536467960992
 20
37.8434538332964934
 30
0.0
 11
633.6629018652922696
 21
37.8510108608443687
 31
0.0
  0
LINE
  5
7043
  8
0
 10
633.6629018652922696
 20
37.8434538332964934
 30
0.0
 11
633.6372035901180197
 21
37.8525857578793179
 31
0.0
  0
LINE
  5
7044
  8
0
 10
633.6372035901180197
 20
37.8434538332964934
 30
0.0
 11
633.6065455782065783
 21
37.8540786176369082
 31
0.0
  0
LINE
  5
7045
  8
0
 10
633.6065455782065783
 20
37.8434538332964934
 30
0.0
 11
633.5709932603958805
 21
37.855508730312998
 31
0.0
  0
LINE
  5
7046
  8
0
 10
633.5709932603958805
 20
37.8434538332964934
 30
0.0
 11
633.5307352042672164
 21
37.8568684206075403
 31
0.0
  0
LINE
  5
7047
  8
0
 10
633.5307352042672164
 20
37.8434538332964934
 30
0.0
 11
633.4858041582515398
 21
37.8581730681625004
 31
0.0
  0
LINE
  5
7048
  8
0
 10
633.4858041582515398
 20
37.8434538332964934
 30
0.0
 11
633.4347208205413153
 21
37.8612367253965019
 31
0.0
  0
LINE
  5
7049
  8
0
 10
633.4162917830590231
 20
37.8434538332964934
 30
0.0
 11
633.3751109066413392
 21
37.8606867171964865
 31
0.0
  0
LINE
  5
704A
  8
0
 10
633.3262021026341699
 20
37.8434538332964934
 30
0.0
 11
633.2884502650413197
 21
37.8623942568964935
 31
0.0
  0
LINE
  5
704B
  8
0
 10
633.2367798035502346
 20
37.8434538332964934
 30
0.0
 11
633.1990386350413473
 21
37.8623942568964935
 31
0.0
  0
LINE
  5
704C
  8
0
 10
633.1851288605413401
 20
37.8623942567964917
 30
0.0
 11
633.147377938791351
 21
37.8434538332964934
 31
0.0
  0
LINE
  5
704D
  8
0
 10
633.2367798035502346
 20
37.8434538332964934
 30
0.0
 11
633.2745404904413817
 21
37.8623942567964917
 31
0.0
  0
LINE
  5
704E
  8
0
 10
633.3262021026341699
 20
37.8434538332964934
 30
0.0
 11
633.3545464982413478
 21
37.8609923115964975
 31
0.0
  0
LINE
  5
704F
  8
0
 10
633.4162917830590231
 20
37.8434538332964934
 30
0.0
 11
633.4200956704413557
 21
37.860858549696502
 31
0.0
  0
ARC
  5
7050
  8
0
 10
633.4143707864487851
 20
38.0194188742562815
 30
0.0
 40
0.0600852605327047
 50
280.1741535709102777
 51
289.796835812091615
  0
ARC
  5
7051
  8
0
 10
633.4261896435725703
 20
37.9698266543062175
 30
0.0
 40
0.0096240034858579
 50
244.7654205914898
 51
262.8051343592887861
  0
ARC
  5
7052
  8
0
 10
633.4230122122479543
 20
37.9639777659988269
 30
0.0
 40
0.0030028830887067
 50
193.7728492062917951
 51
252.048484897367814
  0
ARC
  5
7053
  8
0
 10
633.3644818097193365
 20
37.9866253975893926
 30
0.0
 40
0.0255105176098565
 50
247.0791326712808882
 51
294.6236131928288273
  0
ARC
  5
7054
  8
0
 10
633.2814953778404288
 20
37.9755021599510485
 30
0.0
 40
0.0154311788545556
 50
243.2111667646626074
 51
296.7888324115078262
  0
ARC
  5
7055
  8
0
 10
633.192083747890365
 20
37.9755021597410689
 30
0.0
 40
0.0154311786445766
 50
243.2111665790056065
 51
296.7888325971566132
  0
ARC
  5
7056
  8
0
 10
633.4143707864487851
 20
37.804702535336709
 30
0.0
 40
0.0600852605327047
 50
70.2031641879084134
 51
79.8258464290896939
  0
ARC
  5
7057
  8
0
 10
633.4261896435725703
 20
37.854294755286773
 30
0.0
 40
0.0096240034858579
 50
97.1948656407112139
 51
115.2345794085102
  0
ARC
  5
7058
  8
0
 10
633.4230122122479543
 20
37.8601436435941565
 30
0.0
 40
0.0030028830887067
 50
107.9515151026322002
 51
166.2271507937080912
  0
ARC
  5
7059
  8
0
 10
633.3644818097193365
 20
37.8374960120035908
 30
0.0
 40
0.0255105176098565
 50
65.3763868071711727
 51
112.9208673287190976
  0
ARC
  5
705A
  8
0
 10
633.2814953778404288
 20
37.848619249641942
 30
0.0
 40
0.0154311788545556
 50
63.2111675884922093
 51
116.7888332353314951
  0
ARC
  5
705B
  8
0
 10
633.192083747890365
 20
37.8486192498519216
 30
0.0
 40
0.0154311786445766
 50
63.2111674028434507
 51
116.788833420994294
  0
LINE
  5
705C
  8
0
 10
633.1920837477792929
 20
37.9600709810965
 30
0.0
 11
633.1920837477792929
 21
37.8640504284964905
 31
0.0
  0
LINE
  5
705D
  8
0
 10
633.2814953777293567
 20
37.9600709810965
 30
0.0
 11
633.2814953777293567
 21
37.8640504284964976
 31
0.0
  0
LINE
  5
705E
  8
0
 10
633.3648608632048536
 20
37.9611176962586612
 30
0.0
 11
633.3648608632048536
 21
37.8630037133343222
 31
0.0
  0
LINE
  5
705F
  8
0
 10
633.4220866874057947
 20
37.9611210702482609
 30
0.0
 11
633.4220866874057947
 21
37.8630003393447225
 31
0.0
  0
LINE
  5
7060
  8
0
 10
633.7173443442413827
 20
37.8434538332964934
 30
0.0
 11
633.7153962526413125
 21
37.8425687488966389
 31
0.0
  0
LINE
  5
7061
  8
0
 10
633.7153962526413125
 20
37.8434538332964934
 30
0.0
 11
633.7153962526413125
 21
37.715126415946493
 31
0.0
  0
LINE
  5
7062
  8
0
 10
633.7153962526413125
 20
37.8434538332964934
 30
0.0
 11
633.7127958039412761
 21
37.8424099220802574
 31
0.0
  0
LINE
  5
7063
  8
0
 10
633.7127958039412761
 20
37.8434538332964934
 30
0.0
 11
633.7127958039412761
 21
37.715126415946493
 31
0.0
  0
LINE
  5
7064
  8
0
 10
633.7127958039412761
 20
37.8434538332964934
 30
0.0
 11
633.7049678426128594
 21
37.8403592886284912
 31
0.0
  0
LINE
  5
7065
  8
0
 10
633.7049678426128594
 20
37.8434538332964934
 30
0.0
 11
633.7049678426128594
 21
37.715126415946493
 31
0.0
  0
LINE
  5
7066
  8
0
 10
633.7049678426128594
 20
37.8434538332964934
 30
0.0
 11
633.6920017521762247
 21
37.8384888705178781
 31
0.0
  0
LINE
  5
7067
  8
0
 10
633.6920017521762247
 20
37.8434538332964934
 30
0.0
 11
633.6920017521762247
 21
37.715126415946493
 31
0.0
  0
LINE
  5
7068
  8
0
 10
633.6920017521762247
 20
37.8434538332964934
 30
0.0
 11
633.6738915844866824
 21
37.8367654008125882
 31
0.0
  0
LINE
  5
7069
  8
0
 10
633.6738915844866824
 20
37.8434538332964934
 30
0.0
 11
633.6738915844866824
 21
37.715126415946493
 31
0.0
  0
LINE
  5
706A
  8
0
 10
633.6738915844866824
 20
37.8434538332964934
 30
0.0
 11
633.6507573192086511
 21
37.8351750041740331
 31
0.0
  0
LINE
  5
706B
  8
0
 10
633.6507573192086511
 20
37.8434538332964934
 30
0.0
 11
633.6507573192086511
 21
37.715126415946493
 31
0.0
  0
LINE
  5
706C
  8
0
 10
633.6507573192086511
 20
37.8434538332964934
 30
0.0
 11
633.622564436769153
 21
37.8336483974399087
 31
0.0
  0
LINE
  5
706D
  8
0
 10
633.622564436769153
 20
37.8434538332964934
 30
0.0
 11
633.622564436769153
 21
37.715126415946493
 31
0.0
  0
LINE
  5
706E
  8
0
 10
633.622564436769153
 20
37.8434538332964934
 30
0.0
 11
633.5894033286266449
 21
37.8321806991804976
 31
0.0
  0
LINE
  5
706F
  8
0
 10
633.5894033286266449
 20
37.8434538332964934
 30
0.0
 11
633.5894033286266449
 21
37.715126415946493
 31
0.0
  0
LINE
  5
7070
  8
0
 10
633.5894033286266449
 20
37.8434538332964934
 30
0.0
 11
633.55150088852713
 21
37.8308418951776915
 31
0.0
  0
LINE
  5
7071
  8
0
 10
633.55150088852713
 20
37.8434538332964934
 30
0.0
 11
633.55150088852713
 21
37.715126415946493
 31
0.0
  0
LINE
  5
7072
  8
0
 10
633.55150088852713
 20
37.8434538332964934
 30
0.0
 11
633.5089118190632007
 21
37.8295500307329604
 31
0.0
  0
LINE
  5
7073
  8
0
 10
633.5089118190632007
 20
37.8434538332964934
 30
0.0
 11
633.5089118190632007
 21
37.715126415946493
 31
0.0
  0
LINE
  5
7074
  8
0
 10
633.5089118190632007
 20
37.8434538332964934
 30
0.0
 11
633.4616830953236786
 21
37.8282859460743097
 31
0.0
  0
LINE
  5
7075
  8
0
 10
633.4616830953236786
 20
37.8434538332964934
 30
0.0
 11
633.4616830953236786
 21
37.715126415946493
 31
0.0
  0
LINE
  5
7076
  8
0
 10
633.4616830953236786
 20
37.8434538332964934
 30
0.0
 11
633.4061149791414209
 21
37.8262266993964928
 31
0.0
  0
LINE
  5
7077
  8
0
 10
633.2814608286953444
 20
37.8434538332964934
 30
0.0
 11
633.2814608286953444
 21
37.715126415946493
 31
0.0
  0
LINE
  5
7078
  8
0
 10
633.2814608286953444
 20
37.8434538332964934
 30
0.0
 11
633.2491925933412631
 21
37.8274260044965018
 31
0.0
  0
LINE
  5
7079
  8
0
 10
633.1920365789572998
 20
37.8434538332964934
 30
0.0
 11
633.1920365789572998
 21
37.715126415946493
 31
0.0
  0
LINE
  5
707A
  8
0
 10
633.1920365789572998
 20
37.8434538332964934
 30
0.0
 11
633.1597809646414134
 21
37.8274260044965018
 31
0.0
  0
LINE
  5
707B
  8
0
 10
633.3709070195914137
 20
37.8434538332964934
 30
0.0
 11
633.385959165741383
 21
37.8262257159964932
 31
0.0
  0
LINE
  5
707C
  8
0
 10
633.2814608286953444
 20
37.8434538332964934
 30
0.0
 11
633.3137981552413294
 21
37.8274260044965018
 31
0.0
  0
LINE
  5
707D
  8
0
 10
633.1920365789572998
 20
37.8434538332964934
 30
0.0
 11
633.224386526541366
 21
37.8274260044965018
 31
0.0
  0
LINE
  5
707E
  8
0
 10
633.3709070195914137
 20
37.8434538332964934
 30
0.0
 11
633.3386042220413401
 21
37.8274260044965018
 31
0.0
  0
ARC
  5
707F
  8
0
 10
633.3925265349898837
 20
37.8711642811319606
 30
0.0
 40
0.0469471198977133
 50
274.141933357687094
 51
286.8245215701077768
  0
ARC
  5
7080
  8
0
 10
633.3939232909231123
 20
37.8518764853005365
 30
0.0
 40
0.0276088160638325
 50
260.3174973827419194
 51
274.141933357687094
  0
ARC
  5
7081
  8
0
 10
633.3904314486434259
 20
37.8314107363729235
 30
0.0
 40
0.0068473170410119
 50
229.2209450163470024
 51
260.3174973827352119
  0
ARC
  5
7082
  8
0
 10
633.3262011886413347
 20
37.8590508849952627
 30
0.0
 40
0.0339701089795472
 50
248.5852726873638119
 51
291.4147273126362165
  0
ARC
  5
7083
  8
0
 10
633.2367895599412577
 20
37.8590508849952698
 30
0.0
 40
0.0339701089795627
 50
248.5852726873849008
 51
291.4147273126287132
  0
LINE
  5
7084
  8
0
 10
633.7173443442413827
 20
37.715126415946493
 30
0.0
 11
633.7153962526413125
 21
37.7160115003463474
 31
0.0
  0
LINE
  5
7085
  8
0
 10
633.7153962526413125
 20
37.715126415946493
 30
0.0
 11
633.7127958039412761
 21
37.7161703271627431
 31
0.0
  0
LINE
  5
7086
  8
0
 10
633.7127958039412761
 20
37.715126415946493
 30
0.0
 11
633.7049678426128594
 21
37.7182209606145094
 31
0.0
  0
LINE
  5
7087
  8
0
 10
633.7049678426128594
 20
37.715126415946493
 30
0.0
 11
633.6920017521762247
 21
37.7200913787251082
 31
0.0
  0
LINE
  5
7088
  8
0
 10
633.6920017521762247
 20
37.715126415946493
 30
0.0
 11
633.6738915844866824
 21
37.721814848430391
 31
0.0
  0
LINE
  5
7089
  8
0
 10
633.6738915844866824
 20
37.715126415946493
 30
0.0
 11
633.6507573192086511
 21
37.7234052450689532
 31
0.0
  0
LINE
  5
708A
  8
0
 10
633.6507573192086511
 20
37.715126415946493
 30
0.0
 11
633.622564436769153
 21
37.7249318518030776
 31
0.0
  0
LINE
  5
708B
  8
0
 10
633.622564436769153
 20
37.715126415946493
 30
0.0
 11
633.5894033286266449
 21
37.7263995500624887
 31
0.0
  0
LINE
  5
708C
  8
0
 10
633.5894033286266449
 20
37.715126415946493
 30
0.0
 11
633.55150088852713
 21
37.727738354065302
 31
0.0
  0
LINE
  5
708D
  8
0
 10
633.55150088852713
 20
37.715126415946493
 30
0.0
 11
633.5089118190632007
 21
37.7290302185100401
 31
0.0
  0
LINE
  5
708E
  8
0
 10
633.5089118190632007
 20
37.715126415946493
 30
0.0
 11
633.4616830953236786
 21
37.7302943031686766
 31
0.0
  0
LINE
  5
708F
  8
0
 10
633.4616830953236786
 20
37.715126415946493
 30
0.0
 11
633.4061149791414209
 21
37.7323535498464935
 31
0.0
  0
LINE
  5
7090
  8
0
 10
633.2814608286953444
 20
37.715126415946493
 30
0.0
 11
633.2491925933412631
 21
37.7311542447464916
 31
0.0
  0
LINE
  5
7091
  8
0
 10
633.1920365789572998
 20
37.715126415946493
 30
0.0
 11
633.1597809646414134
 21
37.7311542447464916
 31
0.0
  0
LINE
  5
7092
  8
0
 10
633.3709070195914137
 20
37.715126415946493
 30
0.0
 11
633.385959165741383
 21
37.7323545332464931
 31
0.0
  0
LINE
  5
7093
  8
0
 10
633.2814608286953444
 20
37.715126415946493
 30
0.0
 11
633.3137981552413294
 21
37.7311542447464916
 31
0.0
  0
LINE
  5
7094
  8
0
 10
633.1920365789572998
 20
37.715126415946493
 30
0.0
 11
633.224386526541366
 21
37.7311542447464916
 31
0.0
  0
LINE
  5
7095
  8
0
 10
633.3709070195914137
 20
37.715126415946493
 30
0.0
 11
633.3386042220413401
 21
37.7311542447464916
 31
0.0
  0
ARC
  5
7096
  8
0
 10
633.3925265349898837
 20
37.6874159681110399
 30
0.0
 40
0.0469471198977133
 50
73.1754784298922516
 51
85.858066642312906
  0
ARC
  5
7097
  8
0
 10
633.3939232909231123
 20
37.7067037639424498
 30
0.0
 40
0.0276088160638325
 50
85.8580666423129202
 51
99.6825026172581232
  0
ARC
  5
7098
  8
0
 10
633.3904314486434259
 20
37.7271695128700699
 30
0.0
 40
0.0068473170410119
 50
99.682502617264845
 51
130.7790549836529124
  0
ARC
  5
7099
  8
0
 10
633.3262011886413347
 20
37.6995293642477378
 30
0.0
 40
0.0339701089795472
 50
68.5852726873637835
 51
111.4147273126362023
  0
ARC
  5
709A
  8
0
 10
633.2367895599412577
 20
37.6995293642477165
 30
0.0
 40
0.0339701089795627
 50
68.5852726873712584
 51
111.4147273126150992
  0
LINE
  5
709B
  8
0
 10
633.3939232909231123
 20
37.824267669236697
 30
0.0
 11
633.3939232909231123
 21
37.7343125800062822
 31
0.0
  0
LINE
  5
709C
  8
0
 10
633.3262011886413347
 20
37.8250807760157031
 30
0.0
 11
633.3262011886413347
 21
37.7334994732272833
 31
0.0
  0
LINE
  5
709D
  8
0
 10
633.2367895599412577
 20
37.8250807760157102
 30
0.0
 11
633.2367895599412577
 21
37.7334994732272833
 31
0.0
  0
LINE
  5
709E
  8
0
 10
633.7173443442413827
 20
36.9035891442465029
 30
0.0
 11
633.7153962526413125
 21
36.9027040598466414
 31
0.0
  0
LINE
  5
709F
  8
0
 10
633.7153962526413125
 20
36.9035891442465029
 30
0.0
 11
633.7153962526413125
 21
36.6423970883464918
 31
0.0
  0
LINE
  5
70A0
  8
0
 10
633.7153962526413125
 20
36.9035891442465029
 30
0.0
 11
633.7127958039412761
 21
36.9025452330302528
 31
0.0
  0
LINE
  5
70A1
  8
0
 10
633.7127958039412761
 20
36.9035891442465029
 30
0.0
 11
633.7127958039412761
 21
36.6423970883464918
 31
0.0
  0
LINE
  5
70A2
  8
0
 10
633.7127958039412761
 20
36.9035891442465029
 30
0.0
 11
633.7049678426128594
 21
36.9004945995784865
 31
0.0
  0
LINE
  5
70A3
  8
0
 10
633.7049678426128594
 20
36.9035891442465029
 30
0.0
 11
633.7049678426128594
 21
36.6423970883464918
 31
0.0
  0
LINE
  5
70A4
  8
0
 10
633.7049678426128594
 20
36.9035891442465029
 30
0.0
 11
633.6920017521762247
 21
36.8986241814678806
 31
0.0
  0
LINE
  5
70A5
  8
0
 10
633.6920017521762247
 20
36.9035891442465029
 30
0.0
 11
633.6920017521762247
 21
36.6423970883464918
 31
0.0
  0
LINE
  5
70A6
  8
0
 10
633.6920017521762247
 20
36.9035891442465029
 30
0.0
 11
633.6738915844866824
 21
36.8969007117625978
 31
0.0
  0
LINE
  5
70A7
  8
0
 10
633.6738915844866824
 20
36.9035891442465029
 30
0.0
 11
633.6738915844866824
 21
36.6423970883464918
 31
0.0
  0
LINE
  5
70A8
  8
0
 10
633.6738915844866824
 20
36.9035891442465029
 30
0.0
 11
633.6507573192086511
 21
36.8953103151240427
 31
0.0
  0
LINE
  5
70A9
  8
0
 10
633.6507573192086511
 20
36.9035891442465029
 30
0.0
 11
633.6507573192086511
 21
36.6423970883464918
 31
0.0
  0
LINE
  5
70AA
  8
0
 10
633.6507573192086511
 20
36.9035891442465029
 30
0.0
 11
633.622564436769153
 21
36.8937837083899112
 31
0.0
  0
LINE
  5
70AB
  8
0
 10
633.622564436769153
 20
36.9035891442465029
 30
0.0
 11
633.622564436769153
 21
36.6423970883464918
 31
0.0
  0
LINE
  5
70AC
  8
0
 10
633.622564436769153
 20
36.9035891442465029
 30
0.0
 11
633.5894033286266449
 21
36.8923160101305001
 31
0.0
  0
LINE
  5
70AD
  8
0
 10
633.5894033286266449
 20
36.9035891442465029
 30
0.0
 11
633.5894033286266449
 21
36.6423970883464918
 31
0.0
  0
LINE
  5
70AE
  8
0
 10
633.5894033286266449
 20
36.9035891442465029
 30
0.0
 11
633.55150088852713
 21
36.890977206127701
 31
0.0
  0
LINE
  5
70AF
  8
0
 10
633.55150088852713
 20
36.9035891442465029
 30
0.0
 11
633.55150088852713
 21
36.6423970883464918
 31
0.0
  0
LINE
  5
70B0
  8
0
 10
633.55150088852713
 20
36.9035891442465029
 30
0.0
 11
633.5089118190632007
 21
36.8896853416829629
 31
0.0
  0
LINE
  5
70B1
  8
0
 10
633.5089118190632007
 20
36.9035891442465029
 30
0.0
 11
633.5089118190632007
 21
36.6423970883464918
 31
0.0
  0
LINE
  5
70B2
  8
0
 10
633.5089118190632007
 20
36.9035891442465029
 30
0.0
 11
633.4616830953236786
 21
36.8884212570243122
 31
0.0
  0
LINE
  5
70B3
  8
0
 10
633.4616830953236786
 20
36.9035891442465029
 30
0.0
 11
633.4616830953236786
 21
36.6423970883464918
 31
0.0
  0
LINE
  5
70B4
  8
0
 10
633.4616830953236786
 20
36.9035891442465029
 30
0.0
 11
633.4061149791414209
 21
36.8863620103465024
 31
0.0
  0
LINE
  5
70B5
  8
0
 10
633.2814608286953444
 20
36.9035891442465029
 30
0.0
 11
633.2814608286953444
 21
36.6423970883464918
 31
0.0
  0
LINE
  5
70B6
  8
0
 10
633.2814608286953444
 20
36.9035891442465029
 30
0.0
 11
633.2491925933412631
 21
36.8875613154464901
 31
0.0
  0
LINE
  5
70B7
  8
0
 10
633.1920365789572998
 20
36.9035891442465029
 30
0.0
 11
633.1920365789572998
 21
36.6423970883464918
 31
0.0
  0
LINE
  5
70B8
  8
0
 10
633.1920365789572998
 20
36.9035891442465029
 30
0.0
 11
633.1597809646414134
 21
36.8875613154464901
 31
0.0
  0
LINE
  5
70B9
  8
0
 10
633.3709070195914137
 20
36.9035891442465029
 30
0.0
 11
633.385959165741383
 21
36.8863610269465028
 31
0.0
  0
LINE
  5
70BA
  8
0
 10
633.2814608286953444
 20
36.9035891442465029
 30
0.0
 11
633.3137981552413294
 21
36.8875613154464901
 31
0.0
  0
LINE
  5
70BB
  8
0
 10
633.1920365789572998
 20
36.9035891442465029
 30
0.0
 11
633.224386526541366
 21
36.8875613154464901
 31
0.0
  0
LINE
  5
70BC
  8
0
 10
633.3709070195914137
 20
36.9035891442465029
 30
0.0
 11
633.3386042220413401
 21
36.8875613154464901
 31
0.0
  0
ARC
  5
70BD
  8
0
 10
633.3925265349898837
 20
36.9312995920819631
 30
0.0
 40
0.0469471198977133
 50
274.141933357687094
 51
286.8245215701077768
  0
ARC
  5
70BE
  8
0
 10
633.3939232909231123
 20
36.912011796250539
 30
0.0
 40
0.0276088160638325
 50
260.3174973827419194
 51
274.141933357687094
  0
ARC
  5
70BF
  8
0
 10
633.3904314486434259
 20
36.8915460473229189
 30
0.0
 40
0.0068473170410119
 50
229.2209450163470024
 51
260.3174973827352119
  0
ARC
  5
70C0
  8
0
 10
633.3262011886413347
 20
36.919186195945251
 30
0.0
 40
0.0339701089795472
 50
248.5852726873638119
 51
291.4147273126362165
  0
ARC
  5
70C1
  8
0
 10
633.2367895599412577
 20
36.9191861959452723
 30
0.0
 40
0.0339701089795627
 50
248.5852726873849008
 51
291.4147273126287132
  0
LINE
  5
70C2
  8
0
 10
633.7173443442413827
 20
36.6423970883464918
 30
0.0
 11
633.7153962526413125
 21
36.6432821727463534
 31
0.0
  0
LINE
  5
70C3
  8
0
 10
633.7153962526413125
 20
36.6423970883464918
 30
0.0
 11
633.7127958039412761
 21
36.6434409995627419
 31
0.0
  0
LINE
  5
70C4
  8
0
 10
633.7127958039412761
 20
36.6423970883464918
 30
0.0
 11
633.7049678426128594
 21
36.6454916330145011
 31
0.0
  0
LINE
  5
70C5
  8
0
 10
633.7049678426128594
 20
36.6423970883464918
 30
0.0
 11
633.6920017521762247
 21
36.647362051125107
 31
0.0
  0
LINE
  5
70C6
  8
0
 10
633.6920017521762247
 20
36.6423970883464918
 30
0.0
 11
633.6738915844866824
 21
36.6490855208303898
 31
0.0
  0
LINE
  5
70C7
  8
0
 10
633.6738915844866824
 20
36.6423970883464918
 30
0.0
 11
633.6507573192086511
 21
36.6506759174689591
 31
0.0
  0
LINE
  5
70C8
  8
0
 10
633.6507573192086511
 20
36.6423970883464918
 30
0.0
 11
633.622564436769153
 21
36.6522025242030765
 31
0.0
  0
LINE
  5
70C9
  8
0
 10
633.622564436769153
 20
36.6423970883464918
 30
0.0
 11
633.5894033286266449
 21
36.6536702224624875
 31
0.0
  0
LINE
  5
70CA
  8
0
 10
633.5894033286266449
 20
36.6423970883464918
 30
0.0
 11
633.55150088852713
 21
36.6550090264653008
 31
0.0
  0
LINE
  5
70CB
  8
0
 10
633.55150088852713
 20
36.6423970883464918
 30
0.0
 11
633.5089118190632007
 21
36.6563008909100319
 31
0.0
  0
LINE
  5
70CC
  8
0
 10
633.5089118190632007
 20
36.6423970883464918
 30
0.0
 11
633.4616830953236786
 21
36.6575649755686825
 31
0.0
  0
LINE
  5
70CD
  8
0
 10
633.4616830953236786
 20
36.6423970883464918
 30
0.0
 11
633.4061149791414209
 21
36.6596242222464923
 31
0.0
  0
LINE
  5
70CE
  8
0
 10
633.2814608286953444
 20
36.6423970883464918
 30
0.0
 11
633.2491925933412631
 21
36.6584249171464975
 31
0.0
  0
LINE
  5
70CF
  8
0
 10
633.1920365789572998
 20
36.6423970883464918
 30
0.0
 11
633.1597809646414134
 21
36.6584249171464975
 31
0.0
  0
LINE
  5
70D0
  8
0
 10
633.3709070195914137
 20
36.6423970883464918
 30
0.0
 11
633.385959165741383
 21
36.659625205646492
 31
0.0
  0
LINE
  5
70D1
  8
0
 10
633.2814608286953444
 20
36.6423970883464918
 30
0.0
 11
633.3137981552413294
 21
36.6584249171464975
 31
0.0
  0
LINE
  5
70D2
  8
0
 10
633.1920365789572998
 20
36.6423970883464918
 30
0.0
 11
633.224386526541366
 21
36.6584249171464975
 31
0.0
  0
LINE
  5
70D3
  8
0
 10
633.3709070195914137
 20
36.6423970883464918
 30
0.0
 11
633.3386042220413401
 21
36.6584249171464975
 31
0.0
  0
ARC
  5
70D4
  8
0
 10
633.3925265349898837
 20
36.6146866405110387
 30
0.0
 40
0.0469471198977133
 50
73.1754784298922516
 51
85.858066642312906
  0
ARC
  5
70D5
  8
0
 10
633.3939232909231123
 20
36.6339744363424487
 30
0.0
 40
0.0276088160638325
 50
85.8580666423129202
 51
99.6825026172581232
  0
ARC
  5
70D6
  8
0
 10
633.3904314486434259
 20
36.6544401852700688
 30
0.0
 40
0.0068473170410119
 50
99.682502617264845
 51
130.7790549836529124
  0
ARC
  5
70D7
  8
0
 10
633.3262011886413347
 20
36.6268000366477366
 30
0.0
 40
0.0339701089795472
 50
68.5852726873637835
 51
111.4147273126362023
  0
ARC
  5
70D8
  8
0
 10
633.2367895599412577
 20
36.6268000366477224
 30
0.0
 40
0.0339701089795627
 50
68.5852726873712584
 51
111.4147273126150992
  0
LINE
  5
70D9
  8
0
 10
633.3939232909231123
 20
36.8844029801867066
 30
0.0
 11
633.3939232909231123
 21
36.661583252406281
 31
0.0
  0
LINE
  5
70DA
  8
0
 10
633.3262011886413347
 20
36.8852160869657126
 30
0.0
 11
633.3262011886413347
 21
36.6607701456272821
 31
0.0
  0
LINE
  5
70DB
  8
0
 10
633.2367895599412577
 20
36.8852160869657126
 30
0.0
 11
633.2367895599412577
 21
36.6607701456272821
 31
0.0
  0
ARC
  5
70DC
  8
0
 10
631.7176360502038506
 20
36.9971715396366179
 30
0.0
 40
0.9743181763262709
 50
309.8249043065408159
 51
332.4839558220940035
  0
LINE
  5
70DD
  8
0
 10
634.2793779286413383
 20
35.9336285579964922
 30
0.0
 11
634.2793779286413383
 21
36.0230521642849482
 31
0.0
  0
LINE
  5
70DE
  8
0
 10
634.0594841365407319
 20
36.2123763244033512
 30
0.0
 11
634.0627529905475512
 21
36.175013152125949
 31
0.0
  0
ARC
  5
70DF
  8
0
 10
634.0196363486413702
 20
36.2088900946964927
 30
0.0
 40
0.0399999999999998
 50
4.9999999999998241
 51
90.0
  0
ARC
  5
70E0
  8
0
 10
634.0527910435413332
 20
36.1741415946965006
 30
0.0
 40
0.0099999999999998
 50
270.0
 51
4.9999999986806536
  0
ARC
  5
70E1
  8
0
 10
634.0554447725413638
 20
36.1361415946964968
 30
0.0
 40
0.0149999999999999
 50
28.0081347588997396
 51
90.0
  0
ARC
  5
70E2
  8
0
 10
634.1844224584209542
 20
36.2099857630185298
 30
0.0
 40
0.1336291011006716
 50
209.9929025371583009
 51
235.2823648085791888
  0
ARC
  5
70E3
  8
0
 10
634.3120248197029696
 20
36.4027420659883632
 30
0.0
 40
0.364775318590893
 50
236.0513829693234982
 51
250.6456359661277986
  0
ARC
  5
70E4
  8
0
 10
634.3417104232115662
 20
36.4598168347839504
 30
0.0
 40
0.4285591885399543
 50
249.429886348613195
 51
259.9843051123656892
  0
ARC
  5
70E5
  8
0
 10
634.2643779288001724
 20
36.0230521642849482
 30
0.0
 40
0.0149999998262709
 50
0.0
 51
79.2480407258245947
  0
ARC
  5
70E6
  8
0
 10
634.2643779286413519
 20
35.9336285579964922
 30
0.0
 40
0.0149999999999997
 50
273.041491283566927
 51
0.0
  0
ARC
  5
70E7
  8
0
 10
634.2780897435440011
 20
35.6460191338999124
 30
0.0
 40
0.2729363293932591
 50
92.7123712674107452
 51
99.4732173554962742
  0
ARC
  5
70E8
  8
0
 10
634.2558539515604252
 20
35.7792776179672032
 30
0.0
 40
0.1378354262835971
 50
99.4732173554962742
 51
114.5998018866207957
  0
ARC
  5
70E9
  8
0
 10
634.2256051878109702
 20
35.8453472517862721
 30
0.0
 40
0.065170550164852
 50
114.5998018866207957
 51
137.3807636413982038
  0
ARC
  5
70EA
  8
0
 10
634.2084879948057505
 20
35.8624457231659406
 30
0.0
 40
0.0410087507043856
 50
138.7666051938664111
 51
170.2162101363871898
  0
ARC
  5
70EB
  8
0
 10
634.1582259696414212
 20
35.8711415946965033
 30
0.0
 40
0.0100000000000012
 50
270.0
 51
350.0538465238973913
  0
LINE
  5
70EC
  8
0
 10
633.7121355707413386
 20
36.5162046412465031
 30
0.0
 11
633.7025011059555482
 21
36.6283543201464923
 31
0.0
  0
ARC
  5
70ED
  8
0
 10
633.147377938791351
 20
36.9156344047322165
 30
0.0
 40
0.0306909333888664
 50
246.163586310817692
 51
293.8364136891822227
  0
ARC
  5
70EE
  8
0
 10
633.147377938791351
 20
36.6303517188295871
 30
0.0
 40
0.0306910331200538
 50
66.1636685690576059
 51
113.8363314309423941
  0
LINE
  5
70EF
  8
0
 10
633.4607017501913333
 20
38.0051346521668734
 30
0.0
 11
633.4607017501913333
 21
37.9806675762964971
 31
0.0
  0
LINE
  5
70F0
  8
0
 10
633.4607017501913333
 20
36.4040549623464926
 30
0.0
 11
633.4607017501913333
 21
36.3929178887965108
 31
0.0
  0
ARC
  5
70F1
  8
0
 10
633.4155884437548139
 20
38.025605884333217
 30
0.0
 40
0.0335782386118496
 50
55.8873729523314395
 51
85.8976774255963988
  0
ARC
  5
70F2
  8
0
 10
633.4048843832425746
 20
38.009803555762069
 30
0.0
 40
0.0526646342831314
 50
25.321545948210801
 51
55.887372952331333
  0
ARC
  5
70F3
  8
0
 10
633.3657994785891105
 20
37.9913102208631699
 30
0.0
 40
0.0959038896820302
 50
8.2879916138246443
 51
25.3215459482106091
  0
ARC
  5
70F4
  8
0
 10
633.3457271758763909
 20
36.4132602251553479
 30
0.0
 40
0.1167602817203755
 50
339.7742714038406007
 51
349.9665504274374257
  0
ARC
  5
70F5
  8
0
 10
633.428972083046915
 20
36.3845262294914207
 30
0.0
 40
0.0287719706137085
 50
308.787578818983377
 51
336.1531365978084978
  0
ARC
  5
70F6
  8
0
 10
633.4387063254982877
 20
36.3726397822155292
 30
0.0
 40
0.0134096744807852
 50
274.5912314232385825
 51
308.182968793525788
  0
LINE
  5
70F7
  8
0
 10
632.834054127391255
 20
38.0051346521668734
 30
0.0
 11
632.834054127391255
 21
37.9806675762964971
 31
0.0
  0
LINE
  5
70F8
  8
0
 10
632.834054127391255
 20
36.4040549623464926
 30
0.0
 11
632.834054127391255
 21
36.3929178887965108
 31
0.0
  0
ARC
  5
70F9
  8
0
 10
632.8791674338278881
 20
38.025605884333217
 30
0.0
 40
0.0335782386118496
 50
94.1023225744036154
 51
124.1126270476684965
  0
ARC
  5
70FA
  8
0
 10
632.889871494340241
 20
38.009803555762069
 30
0.0
 40
0.0526646342831314
 50
124.112627047668596
 51
154.6784540517892026
  0
ARC
  5
70FB
  8
0
 10
632.9289563989934777
 20
37.9913102208631699
 30
0.0
 40
0.0959038896820302
 50
154.6784540517894015
 51
171.712008386175313
  0
ARC
  5
70FC
  8
0
 10
632.9490287017061974
 20
36.4132602251553479
 30
0.0
 40
0.1167602817203755
 50
190.033449572562489
 51
200.2257285961593993
  0
ARC
  5
70FD
  8
0
 10
632.8657837945359006
 20
36.3845262294914207
 30
0.0
 40
0.0287719706137085
 50
203.8468634021911896
 51
231.2124211810163956
  0
ARC
  5
70FE
  8
0
 10
632.8560495520844142
 20
36.3726397822155292
 30
0.0
 40
0.0134096744807852
 50
231.817031206474212
 51
265.4087685767614175
  0
LINE
  5
70FF
  8
0
 10
626.6452289045364523
 20
42.9739057659964772
 30
0.0
 11
627.2854539104137075
 21
42.9739057659964772
 31
0.0
  0
ARC
  5
7100
  8
0
 10
626.6466539904796491
 20
43.0089519898089989
 30
0.0
 40
0.035075186007516
 50
163.2585548964829911
 51
267.6714623534061843
  0
ARC
  5
7101
  8
0
 10
629.0234350960460006
 20
42.2718960667339729
 30
0.0
 40
2.5235151842353698
 50
127.589954797414407
 51
162.7777594511821064
  0
ARC
  5
7102
  8
0
 10
629.7468660019085291
 20
41.266207604020849
 30
0.0
 40
3.7619318163046831
 50
102.057492655139697
 51
126.9771922672050977
  0
ARC
  5
7103
  8
0
 10
627.285327827341348
 20
43.0089055226965087
 30
0.0
 40
0.0349999838000109
 50
270.2064013397491067
 51
343.9809781199882082
  0
ARC
  5
7104
  8
0
 10
628.8846399720231375
 20
42.5205461310876416
 30
0.0
 40
1.6372174242793149
 50
133.6511830752735079
 51
162.9990898785696061
  0
ARC
  5
7105
  8
0
 10
629.5864321799169829
 20
41.7069591142070024
 30
0.0
 40
2.7108502666926251
 50
107.1696680357133005
 51
132.5138802778780018
  0
ARC
  5
7106
  8
0
 10
629.9744689627034404
 20
40.6138121495175994
 30
0.0
 40
3.870128463452351
 50
96.9173423266114469
 51
107.8809645872513983
  0
ARC
  5
7107
  8
0
 10
629.9522176402465448
 20
41.1230777143450581
 30
0.0
 40
3.3621190448984231
 50
82.4138422875694658
 51
97.5861577124305342
  0
ARC
  5
7108
  8
0
 10
630.0151199177844319
 20
41.8132669792343421
 30
0.0
 40
2.6698214847267381
 50
42.050559583277682
 51
81.7965196516376238
  0
ARC
  5
7109
  8
0
 10
629.4311089612764363
 20
41.4044716840166416
 30
0.0
 40
3.3784227619124909
 50
13.2640928864370196
 51
40.5645893294348525
  0
ARC
  5
710A
  8
0
 10
627.720022868655974
 20
40.9068554223801186
 30
0.0
 40
5.158850887300515
 50
356.9103873407997867
 51
14.2831504952345902
  0
LINE
  5
710B
  8
0
 10
632.871375149741425
 20
40.6288047910964991
 30
0.0
 11
632.7816415951822364
 21
38.0591719958964916
 31
0.0
  0
ARC
  5
710C
  8
0
 10
627.134047321252865
 20
43.0067563701885902
 30
0.0
 40
0.0335433992093956
 50
281.6650552789906214
 51
350.8451334485922075
  0
ARC
  5
710D
  8
0
 10
628.9161487842583256
 20
42.522275632883499
 30
0.0
 40
1.813430057040059
 50
138.0120868535348109
 51
164.6794102782494065
  0
ARC
  5
710E
  8
0
 10
629.1991728165246514
 20
42.2136643350022993
 30
0.0
 40
2.230610313704172
 50
114.092758376607506
 51
136.9832814807421926
  0
ARC
  5
710F
  8
0
 10
630.0775199648057878
 20
40.2568848573154128
 30
0.0
 40
4.3754820847665323
 50
100.8453550942864041
 51
114.1326151140999059
  0
ARC
  5
7110
  8
0
 10
629.9300466311668742
 20
41.3593272495336777
 30
0.0
 40
3.26558240203937
 50
78.0563263140420673
 51
101.9436736859579042
  0
ARC
  5
7111
  8
0
 10
630.0279643873999476
 20
41.8222312786272212
 30
0.0
 40
2.7924354617166811
 50
40.337959064968743
 51
78.0563263140420673
  0
ARC
  5
7112
  8
0
 10
628.9013748642112205
 20
41.1179355795123698
 30
0.0
 40
4.1115575336715997
 50
3.176467660690157
 51
37.6559181506155696
  0
ARC
  5
7113
  8
0
 10
626.5249563959303032
 20
40.8859468704518179
 30
0.0
 40
6.49794848716994
 50
357.7332494014306121
 51
4.0578270556154248
  0
LINE
  5
7114
  8
0
 10
633.0178203411413733
 20
40.6289403901964832
 30
0.0
 11
632.9263990930584214
 21
38.0591719958964916
 31
0.0
  0
ARC
  5
7115
  8
0
 10
629.9308440225836421
 20
40.7114532615795497
 30
0.0
 40
4.3433512384345656
 50
77.0977544086687629
 51
102.9022455913311944
  0
ARC
  5
7116
  8
0
 10
630.1381554317379141
 20
41.903574715659758
 30
0.0
 40
3.135693152127434
 50
40.6004064895776722
 51
75.9262560570740987
  0
ARC
  5
7117
  8
0
 10
629.6895070505572676
 20
41.551332460001781
 30
0.0
 40
3.705650159392647
 50
18.5612436350213201
 51
40.2211984293972904
  0
ARC
  5
7118
  8
0
 10
627.9449091687023383
 20
40.985765296726882
 30
0.0
 40
5.5395644647854203
 50
4.587030584908665
 51
18.3627757018872018
  0
ARC
  5
7119
  8
0
 10
623.5989111401246419
 20
40.6367298496644267
 30
0.0
 40
9.8995558108428252
 50
0.5052646548031752
 51
4.5890778011265141
  0
LINE
  5
711A
  8
0
 10
633.4980820265413968
 20
40.7240282660964894
 30
0.0
 11
633.5330210856366193
 21
38.0591719958964916
 31
0.0
  0
ARC
  5
711B
  8
0
 10
626.8036595370715531
 20
43.0085843941845667
 30
0.0
 40
0.0360512786060974
 50
161.1157814492796945
 51
254.1384740266022106
  0
ARC
  5
711C
  8
0
 10
629.334187042844178
 20
42.076206252645342
 30
0.0
 40
2.732872705475732
 50
142.891403629663813
 51
159.7912793260165927
  0
ARC
  5
711D
  8
0
 10
629.2979502825888858
 20
41.9962873985633465
 30
0.0
 40
2.7535221657062352
 50
116.6605903478520929
 51
141.1099907063513967
  0
ARC
  5
711E
  8
0
 10
629.9383194635589689
 20
40.8166888276322908
 30
0.0
 40
4.0952682562208942
 50
101.7767530182925952
 51
117.262121523289693
  0
ARC
  5
711F
  8
0
 10
629.972929191612252
 20
40.9741194293311324
 30
0.0
 40
3.9487671450659612
 50
77.2653732769042136
 51
102.7346267230958006
  0
ARC
  5
7120
  8
0
 10
630.1250952910088472
 20
41.9038558955331197
 30
0.0
 40
3.0088889240182621
 50
41.3482224106410925
 51
76.1889684630964865
  0
ARC
  5
7121
  8
0
 10
629.781353039695432
 20
41.6053327316501722
 30
0.0
 40
3.464154869676431
 50
20.4023346344070511
 51
41.2988701347378466
  0
ARC
  5
7122
  8
0
 10
626.6157124012534041
 20
40.7434750048164318
 30
0.0
 40
6.7381553831642744
 50
359.0255778752493825
 51
17.8864265599968917
  0
LINE
  5
7123
  8
0
 10
633.352893356841264
 20
40.6288855666964892
 30
0.0
 11
633.3731850141763289
 21
38.0591719958964916
 31
0.0
  0
LINE
  5
7124
  8
0
 10
632.2243763327913939
 20
36.152484594696503
 30
0.0
 11
632.3023779489413982
 21
36.152484594696503
 31
0.0
  0
LINE
  5
7125
  8
0
 10
633.9923779286414174
 20
36.152484594696503
 30
0.0
 11
634.0703795447914217
 21
36.152484594696503
 31
0.0
  0
LINE
  5
7126
  8
0
 10
632.212620627717456
 20
36.1486649346155673
 30
0.0
 11
632.0756960601900118
 21
36.0491834131360491
 31
0.0
  0
ARC
  5
7127
  8
0
 10
632.2243763327913939
 20
36.1324845946964928
 30
0.0
 40
0.0200000000000024
 50
90.0
 51
126.0000000114926024
  0
ARC
  5
7128
  8
0
 10
632.0689598006736105
 20
35.961443176957502
 30
0.0
 40
0.0663513785910113
 50
143.8569470791622962
 51
159.4457760962635007
  0
ARC
  5
7129
  8
0
 10
632.0500560606358249
 20
35.9685313940654225
 30
0.0
 40
0.0461624160325237
 50
159.4457760962635007
 51
200.5542239037364993
  0
ARC
  5
712A
  8
0
 10
632.0497823765678049
 20
35.9694122068778483
 30
0.0
 40
0.0462245751354766
 50
201.6956756801758956
 51
221.901962453554404
  0
ARC
  5
712B
  8
0
 10
632.028877938791311
 20
35.8631161428965015
 30
0.0
 40
0.0600000000000014
 50
0.0000000000008142
 51
61.6037363823943025
  0
LINE
  5
712C
  8
0
 10
632.0888779387913701
 20
35.8631161428965015
 30
0.0
 11
632.0888779387913701
 21
35.8611415946964911
 31
0.0
  0
ARC
  5
712D
  8
0
 10
632.2788386209246028
 20
36.1724851854816905
 30
0.0
 40
0.0200006431880871
 50
204.6558018535372128
 51
269.8688424257441056
  0
ARC
  5
712E
  8
0
 10
634.5771198273788514
 20
36.9971715396366179
 30
0.0
 40
0.9743181763262709
 50
207.5160441779059965
 51
230.1750956934592125
  0
LINE
  5
712F
  8
0
 10
634.0821352498651322
 20
36.1486649346155673
 30
0.0
 11
634.2190598173925764
 21
36.0491834131360491
 31
0.0
  0
ARC
  5
7130
  8
0
 10
634.0703795447914217
 20
36.1324845946964928
 30
0.0
 40
0.0200000000000024
 50
53.9999999885072697
 51
90.0
  0
ARC
  5
7131
  8
0
 10
634.2257960769089777
 20
35.961443176957502
 30
0.0
 40
0.0663513785910113
 50
20.5542239037364709
 51
36.1430529208376896
  0
ARC
  5
7132
  8
0
 10
634.2446998169469907
 20
35.9685313940654225
 30
0.0
 40
0.0461624160325237
 50
339.4457760962635007
 51
20.5542239037364709
  0
ARC
  5
7133
  8
0
 10
634.2449735010147833
 20
35.9694122068778483
 30
0.0
 40
0.0462245751354766
 50
318.0980375464454823
 51
338.304324319824218
  0
ARC
  5
7134
  8
0
 10
634.265877938791391
 20
35.8631161428965015
 30
0.0
 40
0.0600000000000014
 50
118.3962636176056975
 51
179.9999999999992042
  0
LINE
  5
7135
  8
0
 10
634.2058779387913319
 20
35.8631161428965015
 30
0.0
 11
634.2058779387913319
 21
35.8611415946964911
 31
0.0
  0
ARC
  5
7136
  8
0
 10
633.147377938791351
 20
37.8590508450661432
 30
0.0
 40
0.0339700690504323
 50
248.5852599531183955
 51
291.4147400468680189
  0
ARC
  5
7137
  8
0
 10
633.147377938791351
 20
37.7066704852642332
 30
0.0
 40
0.0274461204657661
 50
63.1340583200645185
 51
116.8659416799576007
  0
ARC
  5
7139
  8
0
 10
634.0159172566578718
 20
36.1724851854816905
 30
0.0
 40
0.0200006431880871
 50
270.1311575742558944
 51
335.3441981464628157
  0
LINE
  5
713A
  8
0
 10
632.3023779489413982
 20
36.1641415946965026
 30
0.0
 11
632.3023779489413982
 21
36.1511415946964974
 31
0.0
  0
LINE
  5
713B
  8
0
 10
633.9923779286414174
 20
36.1641415946965026
 30
0.0
 11
633.9923779286414174
 21
36.1511415946964974
 31
0.0
  0
ENDSEC
  0
EOF
