  0
SECTION
  2
HEADER
  9
$ACADVER
  1
AC1009
  9
$INSBASE
 10
4409.2281361217346785
 20
199.1857659048824019
 30
0.0
  9
$EXTMIN
 10
4399.5150579990822735
 20
199.1849076967361896
 30
-0.0000000000112498
  9
$EXTMAX
 10
4411.5918635888938297
 20
234.0269657334035003
 30
0.0000000000002956
  9
$LIMMIN
 10
0.0
 20
0.0
  9
$LIMMAX
 10
11.6929133858000007
 20
8.2677165353999982
  9
$ORTHOMODE
 70
     0
  9
$REGENMODE
 70
     1
  9
$FILLMODE
 70
     1
  9
$QTEXTMODE
 70
     0
  9
$MIRRTEXT
 70
     0
  9
$DRAGMODE
 70
     2
  9
$LTSCALE
 40
0.6431102362
  9
$OSMODE
 70
     7
  9
$ATTMODE
 70
     1
  9
$TEXTSIZE
 40
0.2
  9
$TRACEWID
 40
0.05
  9
$TEXTSTYLE
  7
STANDARD
  9
$CLAYER
  8
0
  9
$CELTYPE
  6
BYLAYER
  9
$CECOLOR
 62
   256
  9
$DIMSCALE
 40
1.0
  9
$DIMASZ
 40
0.1875
  9
$DIMEXO
 40
0.0625
  9
$DIMDLI
 40
0.4443307087
  9
$DIMRND
 40
0.0
  9
$DIMDLE
 40
0.0
  9
$DIMEXE
 40
0.125
  9
$DIMTP
 40
0.01
  9
$DIMTM
 40
0.01
  9
$DIMTXT
 40
2.0
  9
$DIMCEN
 40
0.1052362205
  9
$DIMTSZ
 40
0.0
  9
$DIMTOL
 70
     1
  9
$DIMLIM
 70
     0
  9
$DIMTIH
 70
     1
  9
$DIMTOH
 70
     1
  9
$DIMSE1
 70
     0
  9
$DIMSE2
 70
     0
  9
$DIMTAD
 70
     0
  9
$DIMZIN
 70
     0
  9
$DIMBLK
  1

  9
$DIMASO
 70
     1
  9
$DIMSHO
 70
     1
  9
$DIMPOST
  1
\X
  9
$DIMAPOST
  1

  9
$DIMALT
 70
     1
  9
$DIMALTD
 70
     2
  9
$DIMALTF
 40
25.3999999999999986
  9
$DIMLFAC
 40
1.0
  9
$DIMTOFL
 70
     0
  9
$DIMTVP
 40
0.0
  9
$DIMTIX
 70
     0
  9
$DIMSOXD
 70
     0
  9
$DIMSAH
 70
     0
  9
$DIMBLK1
  1

  9
$DIMBLK2
  1

  9
$DIMSTYLE
  2
STANDARD
  9
$DIMCLRD
 70
     0
  9
$DIMCLRE
 70
     0
  9
$DIMCLRT
 70
     0
  9
$DIMTFAC
 40
1.0
  9
$DIMGAP
 40
0.09
  9
$LUNITS
 70
     2
  9
$LUPREC
 70
     4
  9
$SKETCHINC
 40
0.1
  9
$FILLETRAD
 40
0.0
  9
$AUNITS
 70
     0
  9
$AUPREC
 70
     0
  9
$MENU
  1
.
  9
$ELEVATION
 40
0.0
  9
$PELEVATION
 40
0.0
  9
$THICKNESS
 40
0.0
  9
$LIMCHECK
 70
     0
  9
$BLIPMODE
 70
     0
  9
$CHAMFERA
 40
0.0
  9
$CHAMFERB
 40
0.0
  9
$SKPOLY
 70
     0
  9
$TDCREATE
 40
2458060.468368056230247
  9
$TDUPDATE
 40
2459580.6535069439560175
  9
$TDINDWG
 40
0.4747177083
  9
$TDUSRTIMER
 40
0.4747177083
  9
$USRTIMER
 70
     1
  9
$ANGBASE
 50
0.0
  9
$ANGDIR
 70
     0
  9
$PDMODE
 70
     0
  9
$PDSIZE
 40
0.3125
  9
$PLINEWID
 40
0.0
  9
$COORDS
 70
     1
  9
$SPLFRAME
 70
     0
  9
$SPLINETYPE
 70
     6
  9
$SPLINESEGS
 70
     8
  9
$ATTDIA
 70
     1
  9
$ATTREQ
 70
     1
  9
$HANDLING
 70
     1
  9
$HANDSEED
  5
FE59
  9
$SURFTAB1
 70
     6
  9
$SURFTAB2
 70
     6
  9
$SURFTYPE
 70
     6
  9
$SURFU
 70
     6
  9
$SURFV
 70
     6
  9
$UCSNAME
  2

  9
$UCSORG
 10
0.0
 20
0.0
 30
0.0
  9
$UCSXDIR
 10
1.0
 20
0.0
 30
0.0
  9
$UCSYDIR
 10
0.0
 20
1.0
 30
0.0
  9
$PUCSNAME
  2

  9
$PUCSORG
 10
0.0
 20
0.0
 30
0.0
  9
$PUCSXDIR
 10
1.0
 20
0.0
 30
0.0
  9
$PUCSYDIR
 10
0.0
 20
1.0
 30
0.0
  9
$USERI1
 70
     0
  9
$USERI2
 70
     0
  9
$USERI3
 70
     0
  9
$USERI4
 70
     0
  9
$USERI5
 70
     0
  9
$USERR1
 40
0.0
  9
$USERR2
 40
0.0
  9
$USERR3
 40
0.0
  9
$USERR4
 40
0.0
  9
$USERR5
 40
0.0
  9
$WORLDVIEW
 70
     1
  9
$SHADEDGE
 70
     3
  9
$SHADEDIF
 70
    70
  9
$TILEMODE
 70
     1
  9
$MAXACTVP
 70
    64
  9
$PLIMCHECK
 70
     0
  9
$PEXTMIN
 10
1.0000000000000000E+20
 20
1.0000000000000000E+20
 30
1.0000000000000000E+20
  9
$PEXTMAX
 10
-1.0000000000000000E+20
 20
-1.0000000000000000E+20
 30
-1.0000000000000000E+20
  9
$PLIMMIN
 10
0.0
 20
0.0
  9
$PLIMMAX
 10
12.0
 20
9.0
  9
$UNITMODE
 70
     0
  9
$VISRETAIN
 70
     1
  9
$PLINEGEN
 70
     0
  9
$PSLTSCALE
 70
     1
  0
ENDSEC
  0
SECTION
  2
TABLES
  0
TABLE
  2
VPORT
 70
     1
  0
VPORT
  2
*ACTIVE
 70
     0
 10
0.0
 20
0.0
 11
1.0
 21
1.0
 12
602.0093934111755516
 22
90.6106745183199251
 13
0.0
 23
0.0
 14
1.0
 24
1.0
 15
0.0
 25
0.0
 16
0.0
 26
0.0
 36
17.1152628219792007
 17
3803.5440673828129547
 27
125.9952621967499056
 37
0.0
 40
35.0915238459990135
 41
2.2831541218637992
 42
50.0
 43
0.0
 44
0.0
 50
0.0
 51
0.0
 71
     0
 72
   100
 73
     1
 74
     1
 75
     0
 76
     0
 77
     0
 78
     0
  0
ENDTAB
  0
TABLE
  2
LTYPE
 70
     2
  0
LTYPE
  2
CONTINUOUS
 70
     0
  3
Solid line
 72
    65
 73
     0
 40
0.0
  0
LTYPE
  2
PHANTOM2
 70
     0
  3
___ _ _ ___ _ _ ___ _ _ ___ _ _
 72
    65
 73
     6
 40
1.25
 49
0.625
 49
-0.125
 49
0.125
 49
-0.125
 49
0.125
 49
-0.125
  0
ENDTAB
  0
TABLE
  2
LAYER
 70
     2
  0
LAYER
  2
0
 70
     0
 62
   255
  6
CONTINUOUS
  0
LAYER
  2
DEFPOINTS
 70
     0
 62
     7
  6
CONTINUOUS
  0
ENDTAB
  0
TABLE
  2
STYLE
 70
     1
  0
STYLE
  2
STANDARD
 70
     0
 40
0.0
 41
0.8
 50
0.0
 71
     0
 42
0.2
  3
txt
  4

  0
ENDTAB
  0
TABLE
  2
VIEW
 70
     0
  0
ENDTAB
  0
TABLE
  2
UCS
 70
     0
  0
ENDTAB
  0
TABLE
  2
APPID
 70
     9
  0
APPID
  2
ACAD
 70
     0
  0
APPID
  2
ACAD_MLEADERVER
 70
     0
  0
APPID
  2
ACAD_EXEMPT_FROM_CAD_STANDARDS
 70
     0
  0
APPID
  2
ACAD_NAV_VCDISPLAY
 70
     0
  0
APPID
  2
ACAECLAYERSTANDARD
 70
     0
  0
APPID
  2
ACCMTRANSPARENCY
 70
     0
  0
APPID
  2
ACAD_DSTYLE_DIMJAG
 70
     0
  0
APPID
  2
ACAD_DSTYLE_DIMTALN
 70
     0
  0
APPID
  2
ACDBATTR
 70
     0
  0
ENDTAB
  0
TABLE
  2
DIMSTYLE
 70
     1
  0
DIMSTYLE
  2
STANDARD
 70
     0
  3

  4

  5

  6

  7

 40
1.0
 41
0.1875
 42
0.0625
 43
0.38
 44
0.125
 45
0.0
 46
0.0
 47
0.01
 48
0.01
140
0.15625
141
0.09
142
0.0
143
25.3999999999999986
144
1.0
145
0.0
146
1.0
147
0.09
 71
     1
 72
     0
 73
     1
 74
     1
 75
     0
 76
     0
 77
     0
 78
     4
170
     0
171
     2
172
     0
173
     0
174
     0
175
     0
176
     0
177
     0
178
     0
  0
ENDTAB
  0
ENDSEC
  0
SECTION
  2
BLOCKS
  0
BLOCK
  8
0
  2
$MODEL_SPACE
 70
     0
 10
0.0
 20
0.0
 30
0.0
  3
$MODEL_SPACE
  1

  0
ENDBLK
  5
21
  8
0
  0
BLOCK
 67
     1
  8
0
  2
$PAPER_SPACE
 70
     0
 10
0.0
 20
0.0
 30
0.0
  3
$PAPER_SPACE
  1

  0
ENDBLK
  5
1D
 67
     1
  8
0
  0
ENDSEC
  0
SECTION
  2
ENTITIES
  0
ATTDEF
  5
3930
  8
DEFPOINTS
 10
4409.2281610666495908
 20
199.1891329835742965
 30
0.0
 40
0.001
  1
P25088-00
  3

  2
MODELNUMBER
 70
     0
1001
ACDBATTR
1070
     0
1070
     1
  0
ATTDEF
  5
3931
  8
DEFPOINTS
 10
4409.2281610666495908
 20
199.187466316907603
 30
0.0
 40
0.001
  1
SCRIPT
  3

  2
TRADENAME
 70
     0
1001
ACDBATTR
1070
     0
1070
     1
  0
ATTDEF
  5
3932
  8
DEFPOINTS
 10
4409.2281610666495908
 20
199.1857996502409094
 30
0.0
 40
0.001
  1
BATH FILLER
  3

  2
PRODUCT
 70
     0
1001
ACDBATTR
1070
     0
1070
     1
  0
ARC
  5
FD7E
  8
0
 10
4409.2281361217346785
 20
223.030060527882398
 30
0.0
 40
0.9055118110000002
 50
116.0253099333657048
 51
63.9746900666342313
  0
LINE
  5
FD7F
  8
0
 10
4408.3029392713360721
 20
224.826809999382391
 30
0.0
 11
4408.7963132544537075
 21
224.826809999382391
 31
0.0
  0
LINE
  5
FD80
  8
0
 10
4409.6599589890183779
 20
224.826809999382391
 30
0.0
 11
4410.1533329721360133
 21
224.826809999382391
 31
0.0
  0
LINE
  5
FD81
  8
0
 10
4399.7611013021059989
 20
230.7378099993823923
 30
0.0
 11
4400.7432164755691701
 21
230.7378099993823923
 31
0.0
  0
ARC
  5
FD82
  8
0
 10
4404.4964667058702616
 20
228.8216635818951943
 30
0.0
 40
5.1931238657625114
 50
55.0042188371675707
 51
124.9957811628324009
  0
ARC
  5
FD83
  8
0
 10
4404.6216186629008007
 20
228.7180648961193015
 30
0.0
 40
5.3499416603684571
 50
125.4574586372953036
 51
143.9714294499950995
  0
ARC
  5
FD84
  8
0
 10
4403.9769570368616769
 20
229.15808220076309
 30
0.0
 40
4.5698348569717382
 50
143.6789188659656986
 51
158.8927372958285957
  0
ARC
  5
FD85
  8
0
 10
4399.7611132690208251
 20
230.7878097603893934
 30
0.0
 40
0.0499997624391035
 50
161.4109712359104947
 51
269.9862868593704093
  0
ARC
  5
FD86
  8
0
 10
4404.4256599114351047
 20
228.851555801622311
 30
0.0
 40
4.2562802875838344
 50
68.3904598554853607
 51
111.6095401445145967
  0
ARC
  5
FD87
  8
0
 10
4404.1251141954080595
 20
229.5642191841519093
 30
0.0
 40
3.483062844612463
 50
111.3305056009974976
 51
128.188629511545912
  0
ARC
  5
FD88
  8
0
 10
4404.4824764400718777
 20
229.100705447765705
 30
0.0
 40
4.0683192399854642
 50
128.1085081895452049
 51
142.9504971403773084
  0
ARC
  5
FD89
  8
0
 10
4404.2030397017997529
 20
229.2977213087461053
 30
0.0
 40
3.726610106191834
 50
142.7795199625105056
 51
150.5730148418300871
  0
ARC
  5
FD8A
  8
0
 10
4403.2364014476534066
 20
229.847206312038395
 30
0.0
 40
2.614717980898114
 50
150.6534106553129106
 51
159.3182195418706897
  0
ARC
  5
FD8B
  8
0
 10
4400.7432164755691701
 20
230.7878101219127132
 30
0.0
 40
0.0500001225550196
 50
270.0
 51
339.9468728466592893
  0
ARC
  5
FD8C
  8
0
 10
4408.7960224737889803
 20
226.1711646466762033
 30
0.0
 40
0.0544347428668065
 50
105.3932521463060965
 51
182.3349634903576941
  0
LINE
  5
FD8D
  8
0
 10
4408.7416329270254209
 20
226.1689468924323876
 30
0.0
 11
4408.8178481561362787
 21
224.2982325859823902
 31
0.0
  0
ARC
  5
FD8E
  8
0
 10
4388.6146126565490704
 20
223.4938007339214892
 30
0.0
 40
20.2192441811350285
 50
1.004005801735665
 51
2.2801405238583641
  0
ARC
  5
FD8F
  8
0
 10
4402.888529481752812
 20
223.7448089744177082
 30
0.0
 40
5.9431206118026418
 50
357.7334635310095905
 51
0.9957369265073591
  0
ARC
  5
FD90
  8
0
 10
4407.5095664864356877
 20
223.5608850299310006
 30
0.0
 40
1.318425349645916
 50
313.9690717536491888
 51
357.7780652542829216
  0
ARC
  5
FD91
  8
0
 10
4409.2047890063968225
 20
221.8880636245721973
 30
0.0
 40
0.3064598231972507
 50
93.7827651278349492
 51
104.9656334405703006
  0
ARC
  5
FD92
  8
0
 10
4409.1434617199183776
 20
222.1174905350798099
 30
0.0
 40
0.0689777326474957
 50
104.9656334405703006
 51
126.9341643004979971
  0
ARC
  5
FD93
  8
0
 10
4409.1077971836957659
 20
222.1648878073254139
 30
0.0
 40
0.009661162803413
 50
126.7756274006680002
 51
233.2243725993369026
  0
ARC
  5
FD94
  8
0
 10
4409.212404312182116
 20
222.4482367633279125
 30
0.0
 40
0.315574845780819
 50
254.3595513398229002
 51
264.9905202281257175
  0
ARC
  5
FD95
  8
0
 10
4409.1492017884747838
 20
222.2190234307194885
 30
0.0
 40
0.077814932681301
 50
232.6688635338987865
 51
253.6721490740968079
  0
ARC
  5
FD96
  8
0
 10
4409.2281379014812046
 20
222.384213354689507
 30
0.0
 40
0.1951071335289347
 50
257.2707505697065926
 51
282.7289722187775851
  0
ARC
  5
FD97
  8
0
 10
4409.2514832370752629
 20
221.8880636245721973
 30
0.0
 40
0.3064598231972507
 50
75.0343665594296567
 51
86.217234872165065
  0
ARC
  5
FD98
  8
0
 10
4409.3128105235527983
 20
222.1174905350798099
 30
0.0
 40
0.0689777326474957
 50
53.0658356995019531
 51
75.0343665594296567
  0
ARC
  5
FD99
  8
0
 10
4409.34847505977541
 20
222.1648878073254139
 30
0.0
 40
0.009661162803413
 50
306.7756274006630974
 51
53.2243725993319927
  0
ARC
  5
FD9A
  8
0
 10
4409.2438679312890599
 20
222.4482367633279125
 30
0.0
 40
0.315574845780819
 50
275.0094797718742825
 51
285.6404486601771282
  0
ARC
  5
FD9B
  8
0
 10
4409.3070704549973016
 20
222.2190234307194885
 30
0.0
 40
0.077814932681301
 50
286.3278509259031921
 51
307.3311364661010998
  0
ARC
  5
FD9C
  8
0
 10
4409.2281361217346785
 20
221.6485164324876109
 30
0.0
 40
0.5470767328947892
 50
85.4325229504685097
 51
94.5674770495315045
  0
ARC
  5
FD9D
  8
0
 10
4409.2281361217346785
 20
222.6158062365358035
 30
0.0
 40
0.4838790748533575
 50
264.8674387536624977
 51
275.1325612463375023
  0
LINE
  5
FD9E
  8
0
 10
4407.0810943411343032
 20
199.1857659048824019
 30
0.0
 11
4411.3751779023377821
 21
199.1857659048824019
 31
0.0
  0
LINE
  5
FD9F
  8
0
 10
4407.1367634370972155
 20
199.5556741081823873
 30
0.0
 11
4411.3195088063739604
 21
199.5556741081823873
 31
0.0
  0
LINE
  5
FDA0
  8
0
 10
4408.2596321847358922
 20
200.0492666316824
 30
0.0
 11
4410.1966400587361932
 21
200.0492666316824
 31
0.0
  0
ARC
  5
FDA1
  8
0
 10
4408.7664703591362922
 20
197.2800833529597924
 30
0.0
 40
2.8151840021899188
 50
100.3719334175753062
 51
124.7512378149411063
  0
ARC
  5
FDA2
  8
0
 10
4407.1967717436127714
 20
199.5426901832055933
 30
0.0
 40
0.0613968986086873
 50
124.7512378149411063
 51
167.7911798468493032
  0
LINE
  5
FDA3
  8
0
 10
4407.1367634370972155
 20
199.5556741081823873
 30
0.0
 11
4407.0663682723361489
 21
199.2036983115824
 31
0.0
  0
ARC
  5
FDA4
  8
0
 10
4407.0811045063255733
 20
199.2007869700391893
 30
0.0
 40
0.0150210685963503
 50
168.8243636699772026
 51
269.9612262935223157
  0
LINE
  5
FDA5
  8
0
 10
4408.3029392713360721
 20
200.0492666316824
 30
0.0
 11
4408.3029392713360721
 21
224.826809999382391
 31
0.0
  0
ARC
  5
FDA6
  8
0
 10
4409.6898018843357931
 20
197.2800833529597924
 30
0.0
 40
2.8151840021899188
 50
55.2487621850588724
 51
79.6280665824246938
  0
ARC
  5
FDA7
  8
0
 10
4411.2595004998584045
 20
199.5426901832055933
 30
0.0
 40
0.0613968986086873
 50
12.2088201531506702
 51
55.2487621850588724
  0
LINE
  5
FDA8
  8
0
 10
4411.3195088063739604
 20
199.5556741081823873
 30
0.0
 11
4411.3899039711359364
 21
199.2036983115824
 31
0.0
  0
ARC
  5
FDA9
  8
0
 10
4411.3751677371474216
 20
199.2007869700391893
 30
0.0
 40
0.0150210685963503
 50
270.0387737064776843
 51
11.1756363300227495
  0
LINE
  5
FDAA
  8
0
 10
4410.1533329721360133
 20
200.0492666316824
 30
0.0
 11
4410.1533329721360133
 21
224.826809999382391
 31
0.0
  0
ARC
  5
FDAB
  8
0
 10
4314.5348740334038666
 20
230.4728074710897943
 30
0.0
 40
93.8982681280733971
 50
357.3796619675968032
 51
358.5758220682516821
  0
ARC
  5
FDAC
  8
0
 10
4437.2920085377445503
 20
224.8176073580613092
 30
0.0
 40
28.9890779451144383
 50
177.3062813465220131
 51
179.9422632540317011
  0
ARC
  5
FDAD
  8
0
 10
4408.3230901996903413
 20
224.8468849230135049
 30
0.0
 40
0.0201449946579607
 50
180.1859601808498041
 51
265.2197648777099062
  0
ARC
  5
FDAE
  8
0
 10
4276.1099291384671233
 20
215.1390680008466916
 30
0.0
 40
134.4242892098355924
 50
4.8458920505518268
 51
5.5496695144556796
  0
ARC
  5
FDAF
  8
0
 10
4383.1520131471716013
 20
224.0421860261739084
 30
0.0
 40
27.0132682491619711
 50
1.7069875403781141
 51
5.2089933658510876
  0
ARC
  5
FDB0
  8
0
 10
4410.1309335051473681
 20
224.847767330510294
 30
0.0
 40
0.0223786932325216
 50
290.5304529339060196
 51
357.6794117681000102
  0
ARC
  5
FDB1
  8
0
 10
4409.6602497696821956
 20
226.1711646466762033
 30
0.0
 40
0.0544347428668065
 50
357.6650365096422206
 51
74.6067478536938893
  0
LINE
  5
FDB2
  8
0
 10
4409.714639316445755
 20
226.1689468924323876
 30
0.0
 11
4409.6384240873358067
 21
224.2982325859823902
 31
0.0
  0
ARC
  5
FDB3
  8
0
 10
4429.8416595869221055
 20
223.4938007339214892
 30
0.0
 40
20.2192441811350285
 50
177.7198594761416075
 51
178.9959941982642988
  0
ARC
  5
FDB4
  8
0
 10
4415.5677427617192734
 20
223.7448089744177082
 30
0.0
 40
5.9431206118026418
 50
179.0042630734926092
 51
182.2665364689920011
  0
ARC
  5
FDB5
  8
0
 10
4410.9467057570345787
 20
223.5608850299310006
 30
0.0
 40
1.318425349645916
 50
182.2219347457171068
 51
226.0309282463508112
  0
ARC
  5
FDB6
  8
0
 10
4409.2281361225359433
 20
224.6016639539824098
 30
0.0
 40
1.682333581800022
 50
74.6067480630811843
 51
105.3932519369188014
  0
ARC
  5
FDB7
  8
0
 10
4404.1547749496230608
 20
228.585305712800988
 30
0.0
 40
5.5845786756179763
 50
27.9843445187764104
 51
53.5230038697811423
  0
ARC
  5
FDB8
  8
0
 10
4403.2509009392097141
 20
228.1050241279845068
 30
0.0
 40
6.6081306417700141
 50
13.5608480711761494
 51
27.9843445187764104
  0
ARC
  5
FDB9
  8
0
 10
4397.8091296205539038
 20
227.0837861813772918
 30
0.0
 40
12.1409545940769696
 50
4.9863363698267813
 51
12.2242085652987509
  0
ARC
  5
FDBA
  8
0
 10
4395.5149579661256212
 20
228.574850379784408
 30
0.0
 40
12.8965433211547005
 50
358.063520294666489
 51
2.3469420956647489
  0
ARC
  5
FDBB
  8
0
 10
4403.6716421391956828
 20
228.9435399802297866
 30
0.0
 40
4.731727907950475
 50
1.930869299197113
 51
22.6847180875776111
  0
ARC
  5
FDBC
  8
0
 10
4404.4529232111526653
 20
229.2174976161832944
 30
0.0
 40
3.9055331815137739
 50
23.3969011623125205
 51
42.9589096401525268
  0
ARC
  5
FDBD
  8
0
 10
4404.4270163557894193
 20
229.189246045782312
 30
0.0
 40
3.943746781115292
 50
43.0027975283196824
 51
66.6016933744884341
  0
ARC
  5
FDBF
  8
0
 10
4399.9449481154833848
 20
230.7874892071795045
 30
0.0
 40
0.0512031172984221
 50
163.5371465455476994
 51
255.9863241450092914
  0
ARC
  5
FDC0
  8
0
 10
4402.7926776164822513
 20
229.8527268610243937
 30
0.0
 40
3.0484034182945319
 50
150.8033198494970009
 51
161.8563755742426054
  0
ARC
  5
FDC1
  8
0
 10
4403.9773198282546218
 20
229.1609376659085058
 30
0.0
 40
4.4200748724425143
 50
137.2452311320591889
 51
150.4660512438622106
  0
ARC
  5
FDC2
  8
0
 10
4404.4399989090670715
 20
228.7190750611744079
 30
0.0
 40
5.0597786499711681
 50
122.1264691106582063
 51
137.1280355758566998
  0
ARC
  5
FDC3
  8
0
 10
4404.5996203864915515
 20
228.4469832193520915
 30
0.0
 40
5.37510030122725
 50
90.7620076252150341
 51
122.0250330864486017
  0
ARC
  5
FDC4
  8
0
 10
4404.6031813842419069
 20
229.130100017964395
 30
0.0
 40
4.692108314424658
 50
39.0046178447450131
 51
90.9164238898990931
  0
ARC
  5
FDC5
  8
0
 10
4403.927394748567167
 20
228.5182425961509125
 30
0.0
 40
5.6025759582585
 50
14.4744525610309296
 51
39.5174198451795604
  0
ARC
  5
FDC6
  8
0
 10
4400.049300039046102
 20
227.7252253947507086
 30
0.0
 40
9.5579138420731606
 50
2.4815212500973902
 51
13.2665911651997703
  0
LINE
  5
FDC7
  8
0
 10
4409.5982508282359049
 20
228.1390560824823979
 30
0.0
 11
4409.7151712515360487
 21
226.1689774654824134
 31
0.0
  0
ARC
  5
FDC8
  8
0
 10
4372.824773550862119
 20
223.9796024437706876
 30
0.0
 40
36.955308218164781
 50
1.3450347326792671
 51
3.3964117955405042
  0
ARC
  5
FDC9
  8
0
 10
4409.7404425530730805
 20
224.846367508644903
 30
0.0
 40
0.0294649704009021
 50
318.4131484934683272
 51
1.3450347326808949
  0
ARC
  5
FDCA
  8
0
 10
4580.0829389170012291
 20
226.067085896167697
 30
0.0
 40
171.4993195203144012
 50
179.307763613347106
 51
180.407672094750211
  0
ARC
  5
FDCB
  8
0
 10
4408.6160020434399485
 20
224.8470402735001983
 30
0.0
 40
0.0280421817375398
 50
180.4076720947469141
 51
226.1720890255170104
  0
ARC
  5
FDCC
  8
0
 10
4399.4297399888537257
 20
228.3890665408773089
 30
0.0
 40
9.1698049593668074
 50
358.4376673948792131
 51
8.0795487545419569
  0
ARC
  5
FDCD
  8
0
 10
4404.1563798462511841
 20
229.0600457895681927
 30
0.0
 40
4.3957775721695764
 50
8.0795487545419569
 51
36.211537230938653
  0
ARC
  5
FDCE
  8
0
 10
4404.4346642952186812
 20
229.2472665843559128
 30
0.0
 40
4.0606640097588711
 50
36.3998222795964423
 51
60.5185249183257596
  0
ARC
  5
FDCF
  8
0
 10
4404.5200847058576983
 20
229.3722533565832009
 30
0.0
 40
3.9098432955377298
 50
60.7068099669543884
 51
89.8819974736052245
  0
ARC
  5
FDD0
  8
0
 10
4404.461334340004214
 20
228.808422842515597
 30
0.0
 40
4.4741642546498399
 50
89.1444969215195471
 51
112.1370823042683043
  0
ARC
  5
FDD1
  8
0
 10
4404.2576240910402703
 20
229.3373260283991897
 30
0.0
 40
3.9075007231327819
 50
112.2926512365850016
 51
131.3328991976559053
  0
ARC
  5
FDD2
  8
0
 10
4403.9985998370621019
 20
229.6318259335650964
 30
0.0
 40
3.5152970027378552
 50
131.3328991976559053
 51
147.4643568195423882
  0
ARC
  5
FDD3
  8
0
 10
4403.6555043984553777
 20
229.8507020146954005
 30
0.0
 40
3.1083311333043442
 50
147.4643568195423882
 51
162.7343657695763
  0
ARC
  5
FDD4
  8
0
 10
4400.6371234733742313
 20
230.7888373123620909
 30
0.0
 40
0.0524790865005575
 50
283.5082856982514272
 51
342.7343657695794832
  0
ENDSEC
  0
EOF
