  0
SECTION
  2
HEADER
  9
$ACADVER
  1
AC1009
  9
$INSBASE
 10
4044.7599358193419903
 20
148.071933932958899
 30
0.0
  9
$EXTMIN
 10
4034.3722310931998436
 20
148.0641253518828933
 30
-0.0000000000000058
  9
$EXTMAX
 10
4046.1031037852949339
 20
163.425905934423497
 30
0.0000000000000104
  9
$LIMMIN
 10
0.0
 20
0.0
  9
$LIMMAX
 10
11.6929133858000007
 20
8.2677165353999982
  9
$ORTHOMODE
 70
     0
  9
$REGENMODE
 70
     1
  9
$FILLMODE
 70
     1
  9
$QTEXTMODE
 70
     0
  9
$MIRRTEXT
 70
     0
  9
$DRAGMODE
 70
     2
  9
$LTSCALE
 40
0.6431102362
  9
$OSMODE
 70
  4095
  9
$ATTMODE
 70
     1
  9
$TEXTSIZE
 40
0.2
  9
$TRACEWID
 40
0.05
  9
$TEXTSTYLE
  7
STANDARD
  9
$CLAYER
  8
0
  9
$CELTYPE
  6
BYLAYER
  9
$CECOLOR
 62
   256
  9
$DIMSCALE
 40
1.0
  9
$DIMASZ
 40
0.1875
  9
$DIMEXO
 40
0.0625
  9
$DIMDLI
 40
0.4443307087
  9
$DIMRND
 40
0.0
  9
$DIMDLE
 40
0.0
  9
$DIMEXE
 40
0.125
  9
$DIMTP
 40
0.01
  9
$DIMTM
 40
0.01
  9
$DIMTXT
 40
2.0
  9
$DIMCEN
 40
0.1052362205
  9
$DIMTSZ
 40
0.0
  9
$DIMTOL
 70
     1
  9
$DIMLIM
 70
     0
  9
$DIMTIH
 70
     1
  9
$DIMTOH
 70
     1
  9
$DIMSE1
 70
     0
  9
$DIMSE2
 70
     0
  9
$DIMTAD
 70
     0
  9
$DIMZIN
 70
     0
  9
$DIMBLK
  1

  9
$DIMASO
 70
     1
  9
$DIMSHO
 70
     1
  9
$DIMPOST
  1
\X
  9
$DIMAPOST
  1

  9
$DIMALT
 70
     1
  9
$DIMALTD
 70
     2
  9
$DIMALTF
 40
25.3999999999999986
  9
$DIMLFAC
 40
1.0
  9
$DIMTOFL
 70
     0
  9
$DIMTVP
 40
0.0
  9
$DIMTIX
 70
     0
  9
$DIMSOXD
 70
     0
  9
$DIMSAH
 70
     0
  9
$DIMBLK1
  1

  9
$DIMBLK2
  1

  9
$DIMSTYLE
  2
STANDARD
  9
$DIMCLRD
 70
     0
  9
$DIMCLRE
 70
     0
  9
$DIMCLRT
 70
     0
  9
$DIMTFAC
 40
1.0
  9
$DIMGAP
 40
0.09
  9
$LUNITS
 70
     2
  9
$LUPREC
 70
     4
  9
$SKETCHINC
 40
0.1
  9
$FILLETRAD
 40
0.0
  9
$AUNITS
 70
     0
  9
$AUPREC
 70
     0
  9
$MENU
  1
.
  9
$ELEVATION
 40
0.0
  9
$PELEVATION
 40
0.0
  9
$THICKNESS
 40
0.0
  9
$LIMCHECK
 70
     0
  9
$BLIPMODE
 70
     0
  9
$CHAMFERA
 40
0.0
  9
$CHAMFERB
 40
0.0
  9
$SKPOLY
 70
     0
  9
$TDCREATE
 40
2458060.468368056230247
  9
$TDUPDATE
 40
2460258.5932407411746681
  9
$TDINDWG
 40
0.327796412
  9
$TDUSRTIMER
 40
0.327796412
  9
$USRTIMER
 70
     1
  9
$ANGBASE
 50
0.0
  9
$ANGDIR
 70
     0
  9
$PDMODE
 70
     0
  9
$PDSIZE
 40
0.3125
  9
$PLINEWID
 40
0.0
  9
$COORDS
 70
     1
  9
$SPLFRAME
 70
     0
  9
$SPLINETYPE
 70
     6
  9
$SPLINESEGS
 70
     8
  9
$ATTDIA
 70
     1
  9
$ATTREQ
 70
     1
  9
$HANDLING
 70
     1
  9
$HANDSEED
  5
70D4
  9
$SURFTAB1
 70
     6
  9
$SURFTAB2
 70
     6
  9
$SURFTYPE
 70
     6
  9
$SURFU
 70
     6
  9
$SURFV
 70
     6
  9
$UCSNAME
  2

  9
$UCSORG
 10
0.0
 20
0.0
 30
0.0
  9
$UCSXDIR
 10
1.0
 20
0.0
 30
0.0
  9
$UCSYDIR
 10
0.0
 20
1.0
 30
0.0
  9
$PUCSNAME
  2

  9
$PUCSORG
 10
0.0
 20
0.0
 30
0.0
  9
$PUCSXDIR
 10
1.0
 20
0.0
 30
0.0
  9
$PUCSYDIR
 10
0.0
 20
1.0
 30
0.0
  9
$USERI1
 70
     0
  9
$USERI2
 70
     0
  9
$USERI3
 70
     0
  9
$USERI4
 70
     0
  9
$USERI5
 70
     0
  9
$USERR1
 40
0.0
  9
$USERR2
 40
0.0
  9
$USERR3
 40
0.0
  9
$USERR4
 40
0.0
  9
$USERR5
 40
0.0
  9
$WORLDVIEW
 70
     1
  9
$SHADEDGE
 70
     3
  9
$SHADEDIF
 70
    70
  9
$TILEMODE
 70
     1
  9
$MAXACTVP
 70
    64
  9
$PLIMCHECK
 70
     0
  9
$PEXTMIN
 10
1.0000000000000000E+20
 20
1.0000000000000000E+20
 30
1.0000000000000000E+20
  9
$PEXTMAX
 10
-1.0000000000000000E+20
 20
-1.0000000000000000E+20
 30
-1.0000000000000000E+20
  9
$PLIMMIN
 10
0.0
 20
0.0
  9
$PLIMMAX
 10
12.0
 20
9.0
  9
$UNITMODE
 70
     0
  9
$VISRETAIN
 70
     1
  9
$PLINEGEN
 70
     0
  9
$PSLTSCALE
 70
     1
  0
ENDSEC
  0
SECTION
  2
TABLES
  0
TABLE
  2
VPORT
 70
     1
  0
VPORT
  2
*ACTIVE
 70
     0
 10
0.0
 20
0.0
 11
1.0
 21
1.0
 12
341.9322475173731277
 22
55.0284627254849497
 13
0.0
 23
0.0
 14
1.0
 24
1.0
 15
0.0
 25
0.0
 16
0.0
 26
0.0
 36
11.4069595123346001
 17
3698.305419921875
 27
100.7165529176681957
 37
0.0
 40
15.4828984320744105
 41
2.498684210526315
 42
50.0
 43
0.0
 44
0.0
 50
0.0
 51
0.0
 71
     0
 72
   100
 73
     1
 74
     1
 75
     0
 76
     0
 77
     0
 78
     0
  0
ENDTAB
  0
TABLE
  2
LTYPE
 70
     2
  0
LTYPE
  2
CONTINUOUS
 70
     0
  3
Solid line
 72
    65
 73
     0
 40
0.0
  0
LTYPE
  2
PHANTOM2
 70
     0
  3
___ _ _ ___ _ _ ___ _ _ ___ _ _
 72
    65
 73
     6
 40
1.25
 49
0.625
 49
-0.125
 49
0.125
 49
-0.125
 49
0.125
 49
-0.125
  0
ENDTAB
  0
TABLE
  2
LAYER
 70
     2
  0
LAYER
  2
0
 70
     0
 62
   255
  6
CONTINUOUS
  0
LAYER
  2
DEFPOINTS
 70
     0
 62
     7
  6
CONTINUOUS
  0
ENDTAB
  0
TABLE
  2
STYLE
 70
     1
  0
STYLE
  2
STANDARD
 70
     0
 40
0.0
 41
0.8
 50
0.0
 71
     0
 42
0.2
  3
txt
  4

  0
ENDTAB
  0
TABLE
  2
VIEW
 70
     0
  0
ENDTAB
  0
TABLE
  2
UCS
 70
     0
  0
ENDTAB
  0
TABLE
  2
APPID
 70
     9
  0
APPID
  2
ACAD
 70
     0
  0
APPID
  2
ACAD_MLEADERVER
 70
     0
  0
APPID
  2
ACAD_EXEMPT_FROM_CAD_STANDARDS
 70
     0
  0
APPID
  2
ACAD_NAV_VCDISPLAY
 70
     0
  0
APPID
  2
ACAECLAYERSTANDARD
 70
     0
  0
APPID
  2
ACCMTRANSPARENCY
 70
     0
  0
APPID
  2
ACAD_DSTYLE_DIMJAG
 70
     0
  0
APPID
  2
ACAD_DSTYLE_DIMTALN
 70
     0
  0
APPID
  2
ACDBATTR
 70
     0
  0
ENDTAB
  0
TABLE
  2
DIMSTYLE
 70
     1
  0
DIMSTYLE
  2
STANDARD
 70
     0
  3

  4

  5

  6

  7

 40
1.0
 41
0.1875
 42
0.0625
 43
0.38
 44
0.125
 45
0.0
 46
0.0
 47
0.01
 48
0.01
140
0.15625
141
0.09
142
0.0
143
25.3999999999999986
144
1.0
145
0.0
146
1.0
147
0.09
 71
     1
 72
     0
 73
     1
 74
     1
 75
     0
 76
     0
 77
     0
 78
     4
170
     0
171
     2
172
     0
173
     0
174
     0
175
     0
176
     0
177
     0
178
     0
  0
ENDTAB
  0
ENDSEC
  0
SECTION
  2
BLOCKS
  0
BLOCK
  8
0
  2
$MODEL_SPACE
 70
     0
 10
0.0
 20
0.0
 30
0.0
  3
$MODEL_SPACE
  1

  0
ENDBLK
  5
21
  8
0
  0
BLOCK
 67
     1
  8
0
  2
$PAPER_SPACE
 70
     0
 10
0.0
 20
0.0
 30
0.0
  3
$PAPER_SPACE
  1

  0
ENDBLK
  5
1D
 67
     1
  8
0
  0
BLOCK
  8
0
  2
_FILLED
 70
     0
 10
0.0
 20
0.0
 30
0.0
  3
_FILLED
  1

  0
SOLID
  5
62AE
  8
0
  6
BYBLOCK
 62
     0
 10
0.0
 20
0.0
 30
0.0
 11
-1.0
 21
0.1666666667
 31
0.0
 12
-1.0
 22
-0.1666666667
 32
0.0
 13
-1.0
 23
-0.1666666667
 33
0.0
  0
ENDBLK
  5
62AF
  8
0
  6
BYBLOCK
 62
     0
  0
BLOCK
  8
0
  2
A$CEA260FBC
 70
     0
 10
0.0
 20
0.0
 30
0.0
  3
A$CEA260FBC
  1

  0
LINE
  5
6659
  8
0
 10
0.0250001651904128
 20
18.1427217324050609
 30
0.0
 11
19.9750001651903908
 21
18.1427217324050609
 31
0.0
  0
LINE
  5
665A
  8
0
 10
0.0250001651904128
 20
18.1677217324050595
 30
0.0
 11
19.9750001651903908
 21
18.1677217324050595
 31
0.0
  0
LINE
  5
665B
  8
0
 10
0.0000001651904071
 20
18.1677217324050595
 30
0.0
 11
0.0000001651904071
 21
44.101973700905063
 31
0.0
  0
LINE
  5
665C
  8
0
 10
0.0250001651904128
 20
18.1677217324050595
 30
0.0
 11
0.0250001651904128
 21
44.101973700905063
 31
0.0
  0
LINE
  5
665D
  8
0
 10
0.0000001651904071
 20
18.1677217324050595
 30
0.0
 11
0.0250001651904128
 21
18.1427217324050609
 31
0.0
  0
LINE
  5
665E
  8
0
 10
0.0250001651904128
 20
18.1677217324050595
 30
0.0
 11
0.01250016519041
 21
18.1552217324050709
 31
0.0
  0
LINE
  5
665F
  8
0
 10
0.0250001651904128
 20
44.1269737009050615
 30
0.0
 11
19.9750001651903908
 21
44.1269737009050615
 31
0.0
  0
LINE
  5
6660
  8
0
 10
0.0250001651904128
 20
44.101973700905063
 30
0.0
 11
19.9750001651903908
 21
44.101973700905063
 31
0.0
  0
LINE
  5
6661
  8
0
 10
0.0000001651904071
 20
44.101973700905063
 30
0.0
 11
0.0250001651904128
 21
44.1269737009050615
 31
0.0
  0
LINE
  5
6662
  8
0
 10
0.0250001651904128
 20
44.101973700905063
 30
0.0
 11
0.01250016519041
 21
44.1144737009050516
 31
0.0
  0
LINE
  5
6663
  8
0
 10
20.0000001651904
 20
18.1677217324050595
 30
0.0
 11
20.0000001651904
 21
44.101973700905063
 31
0.0
  0
LINE
  5
6664
  8
0
 10
19.9750001651903908
 20
18.1677217324050595
 30
0.0
 11
19.9750001651903908
 21
44.101973700905063
 31
0.0
  0
LINE
  5
6665
  8
0
 10
20.0000001651904
 20
18.1677217324050595
 30
0.0
 11
19.9750001651903908
 21
18.1427217324050609
 31
0.0
  0
LINE
  5
6666
  8
0
 10
19.9750001651903908
 20
18.1677217324050595
 30
0.0
 11
19.9875001651903901
 21
18.1552217324050709
 31
0.0
  0
LINE
  5
6667
  8
0
 10
20.0000001651904
 20
44.101973700905063
 30
0.0
 11
19.9750001651903908
 21
44.1269737009050615
 31
0.0
  0
LINE
  5
6668
  8
0
 10
19.9750001651903908
 20
44.101973700905063
 30
0.0
 11
19.9875001651903901
 21
44.1144737009050516
 31
0.0
  0
LINE
  5
6669
  8
0
 10
10.0000001651904
 20
31.1348477166550701
 30
0.0
 11
39.7330617707703482
 21
0.0
 31
0.0
  0
ENDBLK
  5
666B
  8
0
  0
ENDSEC
  0
SECTION
  2
ENTITIES
  0
ATTDEF
  5
3930
  8
DEFPOINTS
 10
4044.7526705995178418
 20
148.0698875861450858
 30
0.0
 40
0.001
  1
P25200-00
  3

  2
MODELNUMBER
 70
     0
1001
ACDBATTR
1070
     0
1070
     1
  0
ATTDEF
  5
3931
  8
DEFPOINTS
 10
4044.7526705995178418
 20
148.0682209194785059
 30
0.0
 40
0.001
  1
ONE
  3

  2
TRADENAME
 70
     0
1001
ACDBATTR
1070
     0
1070
     1
  0
ATTDEF
  5
3932
  8
DEFPOINTS
 10
4044.7526705995178418
 20
148.0665542528118124
 30
0.0
 40
0.001
  1
KITCHEN SINK FAUCET
  3

  2
PRODUCT
 70
     0
1001
ACDBATTR
1070
     0
1070
     1
  0
LINE
  5
6F79
  8
0
 10
4043.4649362254431253
 20
148.071933932958899
 30
0.0
 11
4046.0549354132422195
 21
148.071933932958899
 31
0.0
  0
LINE
  5
6F7A
  8
0
 10
4043.4549358193430635
 20
148.0819343422589043
 30
0.0
 11
4043.4549358193430635
 21
148.3198195546812883
 31
0.0
  0
LINE
  5
6F7B
  8
0
 10
4043.4549358193430635
 20
148.4380483112365994
 30
0.0
 11
4043.4549358193430635
 21
148.4499335270089091
 31
0.0
  0
LINE
  5
6F7C
  8
0
 10
4043.4649363230428207
 20
148.3019339329588888
 30
0.0
 11
4046.0549353156420693
 21
148.3019339329588888
 31
0.0
  0
LINE
  5
6F7D
  8
0
 10
4043.4549358193430635
 20
148.2919333821589021
 30
0.0
 11
4043.4649363230428207
 21
148.3019339329588888
 31
0.0
  0
LINE
  5
6F7E
  8
0
 10
4043.4549358193430635
 20
148.0819343422589043
 30
0.0
 11
4043.4649362254431253
 21
148.071933932958899
 31
0.0
  0
LINE
  5
6F7F
  8
0
 10
4043.462435819341863
 20
148.316433932958887
 30
0.0
 11
4046.0574358193421176
 21
148.316433932958887
 31
0.0
  0
LINE
  5
6F80
  8
0
 10
4043.4524358193420994
 20
148.3264339329589063
 30
0.0
 11
4043.4524358193420994
 21
148.4314339329588961
 31
0.0
  0
LINE
  5
6F81
  8
0
 10
4043.462435819341863
 20
148.441433932958887
 30
0.0
 11
4046.0574358193421176
 21
148.441433932958887
 31
0.0
  0
ARC
  5
6F82
  8
0
 10
4043.462435819341863
 20
148.3264339329589063
 30
0.0
 40
0.01
 50
180.0
 51
270.0
  0
ARC
  5
6F83
  8
0
 10
4043.462435819341863
 20
148.4314339329588961
 30
0.0
 40
0.01
 50
90.0
 51
179.9999999999951115
  0
LINE
  5
6F84
  8
0
 10
4043.6310520190418174
 20
148.316433932958887
 30
0.0
 11
4043.6310520190418174
 21
148.3019339329588888
 31
0.0
  0
LINE
  5
6F85
  8
0
 10
4044.4749358193430453
 20
148.8464339329588881
 30
0.0
 11
4045.0449358193418448
 21
148.8464339329588881
 31
0.0
  0
LINE
  5
6F86
  8
0
 10
4044.4599358193418084
 20
148.8614339329589029
 30
0.0
 11
4044.4599358193418084
 21
151.9714339329588881
 31
0.0
  0
ARC
  5
6F87
  8
0
 10
4044.4749358193430453
 20
148.8614339329589029
 30
0.0
 40
0.015
 50
180.0
 51
270.0
  0
LINE
  5
6F88
  8
0
 10
4044.4749358193430453
 20
151.9864339329589029
 30
0.0
 11
4045.0449358193418448
 21
151.9864339329589029
 31
0.0
  0
LINE
  5
6F89
  8
0
 10
4044.5399358193421904
 20
152.0464339329589052
 30
0.0
 11
4044.9799358193417902
 21
152.0464339329589052
 31
0.0
  0
LINE
  5
6F8A
  8
0
 10
4044.5299358193419721
 20
151.9964339329588938
 30
0.0
 11
4044.5299358193419721
 21
152.0364339329589995
 31
0.0
  0
ARC
  5
6F8B
  8
0
 10
4044.4749358193430453
 20
151.9714339329588881
 30
0.0
 40
0.015
 50
90.0
 51
180.0
  0
ARC
  5
6F8C
  8
0
 10
4044.5199358193422086
 20
151.9964339329588938
 30
0.0
 40
0.01
 50
270.0
 51
0.0
  0
ARC
  5
6F8D
  8
0
 10
4044.5399358193421904
 20
152.0364339329589995
 30
0.0
 40
0.01
 50
90.0
 51
180.0
  0
ARC
  5
6F8E
  8
0
 10
4044.7599358193419903
 20
148.5254339329588902
 30
0.0
 40
0.2649999999999999
 50
147.3626038270130891
 51
197.3443131848021039
  0
LINE
  5
6F8F
  8
0
 10
4044.5399358193421904
 20
148.6791381944483987
 30
0.0
 11
4044.5399358193421904
 21
148.8464339329588881
 31
0.0
  0
ARC
  5
6F90
  8
0
 10
4044.5199358174950248
 20
148.6791381947238051
 30
0.0
 40
0.020000001847259
 50
327.3697120519296959
 51
359.999999241249327
  0
LINE
  5
6F91
  8
0
 10
4044.5367791684889198
 20
148.6683538727153859
 30
0.0
 11
4044.9830924701959702
 21
148.6683538727153859
 31
0.0
  0
LINE
  5
6F92
  8
0
 10
4044.4499358193429543
 20
148.441433932958887
 30
0.0
 11
4044.4499358193429543
 21
148.4464339329589961
 31
0.0
  0
LINE
  5
6F93
  8
0
 10
4044.4499358193429543
 20
148.4464339329589961
 30
0.0
 11
4045.0699358193419357
 21
148.4464339329589961
 31
0.0
  0
LINE
  5
6F94
  8
0
 10
4043.4549358193430635
 20
148.2919333821589021
 30
0.0
 11
4046.0649358193418266
 21
148.2919333821589021
 31
0.0
  0
LINE
  5
6F95
  8
0
 10
4043.4549358193430635
 20
148.0819343422589043
 30
0.0
 11
4046.0649358193418266
 21
148.0819343422589043
 31
0.0
  0
LINE
  5
6F96
  8
0
 10
4043.4669362214917783
 20
148.4619339329589138
 30
0.0
 11
4044.5026563021338006
 21
148.4619339329589138
 31
0.0
  0
LINE
  5
6F97
  8
0
 10
4043.4549358193430635
 20
148.4499335270089091
 30
0.0
 11
4043.4669362214917783
 21
148.4619339329589138
 31
0.0
  0
LINE
  5
6F98
  8
0
 10
4043.4549358193430635
 20
148.4499335270089091
 30
0.0
 11
4044.5059187162250964
 21
148.4499335270089091
 31
0.0
  0
LINE
  5
6F99
  8
0
 10
4044.1974406698927851
 20
148.4619339329589138
 30
0.0
 11
4044.1974406698927851
 21
158.4775710915278069
 31
0.0
  0
ARC
  5
6F9A
  8
0
 10
4040.1122555601918975
 20
158.2049359997589022
 30
0.0
 40
4.0942724962779931
 50
3.8181160138666641
 51
169.1804276086012067
  0
LINE
  5
6F9B
  8
0
 10
4046.0649358193418266
 20
148.0819343422589043
 30
0.0
 11
4046.0649358193418266
 21
148.3198195546812883
 31
0.0
  0
LINE
  5
6F9C
  8
0
 10
4046.0649358193418266
 20
148.4380483112365994
 30
0.0
 11
4046.0649358193418266
 21
148.4499335270089091
 31
0.0
  0
LINE
  5
6F9D
  8
0
 10
4046.0649358193418266
 20
148.2919333821589021
 30
0.0
 11
4046.0549353156420693
 21
148.3019339329588888
 31
0.0
  0
LINE
  5
6F9E
  8
0
 10
4046.0649358193418266
 20
148.0819343422589043
 30
0.0
 11
4046.0549354132422195
 21
148.071933932958899
 31
0.0
  0
LINE
  5
6F9F
  8
0
 10
4046.0674358193418811
 20
148.3264339329589063
 30
0.0
 11
4046.0674358193418811
 21
148.4314339329588961
 31
0.0
  0
ARC
  5
6FA0
  8
0
 10
4046.0574358193421176
 20
148.3264339329589063
 30
0.0
 40
0.01
 50
270.0
 51
0.0
  0
ARC
  5
6FA1
  8
0
 10
4046.0574358193421176
 20
148.4314339329588961
 30
0.0
 40
0.01
 50
0.0000000000048853
 51
90.0
  0
LINE
  5
6FA2
  8
0
 10
4045.8888196196421632
 20
148.316433932958887
 30
0.0
 11
4045.8888196196421632
 21
148.3019339329588888
 31
0.0
  0
LINE
  5
6FA3
  8
0
 10
4045.0599358193421722
 20
148.8614339329589029
 30
0.0
 11
4045.0599358193421722
 21
151.9714339329588881
 31
0.0
  0
ARC
  5
6FA4
  8
0
 10
4045.0449358193418448
 20
148.8614339329589029
 30
0.0
 40
0.015
 50
270.0
 51
0.0
  0
LINE
  5
6FA5
  8
0
 10
4044.989935819342918
 20
151.9964339329588938
 30
0.0
 11
4044.989935819342918
 21
152.0364339329589995
 31
0.0
  0
ARC
  5
6FA6
  8
0
 10
4045.0449358193418448
 20
151.9714339329588881
 30
0.0
 40
0.015
 50
0.0
 51
90.0
  0
ARC
  5
6FA7
  8
0
 10
4044.9999358193422268
 20
151.9964339329588938
 30
0.0
 40
0.01
 50
180.0
 51
270.0
  0
ARC
  5
6FA8
  8
0
 10
4044.9799358193417902
 20
152.0364339329589995
 30
0.0
 40
0.01
 50
0.0
 51
90.0
  0
ARC
  5
6FA9
  8
0
 10
4044.7599358193419903
 20
148.5254339329588902
 30
0.0
 40
0.2649999999999999
 50
342.6556868151977824
 51
32.6373961729869322
  0
LINE
  5
6FAA
  8
0
 10
4044.9799358193417902
 20
148.6791381944483987
 30
0.0
 11
4044.9799358193417902
 21
148.8464339329588881
 31
0.0
  0
ARC
  5
6FAB
  8
0
 10
4044.9999358211898652
 20
148.6791381947238051
 30
0.0
 40
0.020000001847259
 50
180.0000007587505877
 51
212.6302879480701904
  0
LINE
  5
6FAC
  8
0
 10
4045.0699358193419357
 20
148.441433932958887
 30
0.0
 11
4045.0699358193419357
 21
148.4464339329589961
 31
0.0
  0
LINE
  5
6FAD
  8
0
 10
4046.0529354171931118
 20
148.4619339329589138
 30
0.0
 11
4045.0172153365488157
 21
148.4619339329589138
 31
0.0
  0
LINE
  5
6FAE
  8
0
 10
4046.0649358193418266
 20
148.4499335270089091
 30
0.0
 11
4046.0529354171931118
 21
148.4619339329589138
 31
0.0
  0
LINE
  5
6FAF
  8
0
 10
4046.0649358193418266
 20
148.4499335270089091
 30
0.0
 11
4045.0139529224588841
 21
148.4499335270089091
 31
0.0
  0
LINE
  5
6FB0
  8
0
 10
4035.7463035657528962
 20
156.1680748353589081
 30
0.0
 11
4035.8495877353070682
 21
157.009257534303913
 31
0.0
  0
LINE
  5
6FB1
  8
0
 10
4035.902600802732195
 20
157.4410146499297127
 30
0.0
 11
4035.968471136242897
 21
157.9774858745356028
 31
0.0
  0
LINE
  5
6FB2
  8
0
 10
4035.9697816449829588
 20
157.9881591198455055
 30
0.0
 11
4036.0907661949481735
 21
158.973499958714001
 31
0.0
  0
LINE
  5
6FB3
  8
0
 10
4035.735158982592111
 20
156.1593677552588986
 30
0.0
 11
4034.6383964855667728
 21
156.2940332568392137
 31
0.0
  0
LINE
  5
6FB4
  8
0
 10
4035.735158982592111
 20
156.1593677552588986
 30
0.0
 11
4035.7463035657528962
 21
156.1680748353589081
 31
0.0
  0
LINE
  5
6FB5
  8
0
 10
4034.6296893846929379
 20
156.3051778506589073
 30
0.0
 11
4034.8518568738759313
 21
158.1145887948042059
 31
0.0
  0
LINE
  5
6FB6
  8
0
 10
4034.8531673949159995
 20
158.1252621436441927
 30
0.0
 11
4034.9805689502768473
 21
159.1628656625819076
 31
0.0
  0
LINE
  5
6FB7
  8
0
 10
4034.6383964855667728
 20
156.2940332568392137
 30
0.0
 11
4034.6296893846929379
 21
156.3051778506589073
 31
0.0
  0
LINE
  5
6FB8
  8
0
 10
4034.6296893846929379
 20
156.3051778506589073
 30
0.0
 11
4035.7463035657528962
 21
156.1680748353589081
 31
0.0
  0
LINE
  5
6FB9
  8
0
 10
4034.8518568738759313
 20
158.1145887948042059
 30
0.0
 11
4035.968471136242897
 21
157.9774858745356028
 31
0.0
  0
LINE
  5
6FBA
  8
0
 10
4035.968471033258993
 20
157.9774858871805066
 30
0.0
 11
4035.9671824437768919
 21
157.9791429756309924
 31
0.0
  0
ARC
  5
6FBB
  8
0
 10
4035.9402705781349141
 20
157.9917839341819956
 30
0.0
 40
0.0297328496018544
 50
334.8397617793074801
 51
352.9974926496412877
  0
LINE
  5
6FBC
  8
0
 10
4034.8518568738759313
 20
158.1145887948042059
 30
0.0
 11
4034.8535081884851934
 21
158.1158850133485885
 31
0.0
  0
ARC
  5
6FBD
  8
0
 10
4034.8826789020117758
 20
158.1216399241033059
 30
0.0
 40
0.0297329703437237
 50
173.0025589306864902
 51
191.1602163731812141
  0
LINE
  5
6FBE
  8
0
 10
4045.322430968792105
 20
148.4619339329589138
 30
0.0
 11
4045.322430968792105
 21
158.5303724957443876
 31
0.0
  0
ARC
  5
6FBF
  8
0
 10
4040.1122555601918975
 20
158.2049359997589022
 30
0.0
 40
5.2203291755692449
 50
3.5741493855992679
 51
169.4263165894437861
  0
ARC
  5
6FC0
  8
0
 10
4036.3909761943082231
 20
157.1619165892209082
 30
0.0
 40
0.5625000005232206
 50
150.252783185053886
 51
195.7472479863259878
  0
LINE
  5
6FC1
  8
0
 10
4035.8921666701030517
 20
157.4219075682007087
 30
0.0
 11
4035.9341435925171027
 21
157.4167534501559089
 31
0.0
  0
ARC
  5
6FC2
  8
0
 10
4035.9315046893780163
 20
157.39526130904909
 30
0.0
 40
0.0216535433388538
 50
13.5539885150689496
 51
82.9999999216879729
  0
ARC
  5
6FC3
  8
0
 10
4035.4354923336090906
 20
157.2756848461544905
 30
0.0
 40
0.5318758356340983
 50
332.446011492040725
 51
13.5539885150689496
  0
ARC
  5
6FC4
  8
0
 10
4035.8878428378311582
 20
157.0396640660659955
 30
0.0
 40
0.0216535435851472
 50
263.0000005112016197
 51
332.4460114920420892
  0
LINE
  5
6FC5
  8
0
 10
4035.8852039348839753
 20
157.0181719246876924
 30
0.0
 11
4035.8459002137219613
 21
157.0229978144762981
 31
0.0
  0
LINE
  5
6FC6
  8
0
 10
4035.9341435925171027
 20
157.4167534501559089
 30
0.0
 11
4035.8852039346779748
 21
157.0181719247129024
 31
0.0
  0
ENDSEC
  0
EOF
