  0
SECTION
  2
HEADER
  9
$ACADVER
  1
AC1009
  9
$INSBASE
 10
5601.9336182379192906
 20
313.5633677975203
 30
0.0
  9
$EXTMIN
 10
5594.9770119226632232
 20
313.5552190718669863
 30
-0.0000000349181948
  9
$EXTMAX
 10
5609.098603068083321
 20
327.3676737415033244
 30
0.0000000814935746
  9
$LIMMIN
 10
0.0
 20
0.0
  9
$LIMMAX
 10
11.6929133858000007
 20
8.2677165353999982
  9
$ORTHOMODE
 70
     1
  9
$REGENMODE
 70
     1
  9
$FILLMODE
 70
     1
  9
$QTEXTMODE
 70
     0
  9
$MIRRTEXT
 70
     0
  9
$DRAGMODE
 70
     2
  9
$LTSCALE
 40
0.6431102362
  9
$OSMODE
 70
  4095
  9
$ATTMODE
 70
     1
  9
$TEXTSIZE
 40
0.2
  9
$TRACEWID
 40
0.05
  9
$TEXTSTYLE
  7
STANDARD
  9
$CLAYER
  8
0
  9
$CELTYPE
  6
BYLAYER
  9
$CECOLOR
 62
   256
  9
$DIMSCALE
 40
1.0
  9
$DIMASZ
 40
0.1875
  9
$DIMEXO
 40
0.0625
  9
$DIMDLI
 40
0.4443307087
  9
$DIMRND
 40
0.0
  9
$DIMDLE
 40
0.0
  9
$DIMEXE
 40
0.125
  9
$DIMTP
 40
0.01
  9
$DIMTM
 40
0.01
  9
$DIMTXT
 40
2.0
  9
$DIMCEN
 40
0.1052362205
  9
$DIMTSZ
 40
0.0
  9
$DIMTOL
 70
     1
  9
$DIMLIM
 70
     0
  9
$DIMTIH
 70
     1
  9
$DIMTOH
 70
     1
  9
$DIMSE1
 70
     0
  9
$DIMSE2
 70
     0
  9
$DIMTAD
 70
     0
  9
$DIMZIN
 70
     0
  9
$DIMBLK
  1

  9
$DIMASO
 70
     1
  9
$DIMSHO
 70
     1
  9
$DIMPOST
  1
\X
  9
$DIMAPOST
  1

  9
$DIMALT
 70
     1
  9
$DIMALTD
 70
     2
  9
$DIMALTF
 40
25.3999999999999986
  9
$DIMLFAC
 40
1.0
  9
$DIMTOFL
 70
     0
  9
$DIMTVP
 40
0.0
  9
$DIMTIX
 70
     0
  9
$DIMSOXD
 70
     0
  9
$DIMSAH
 70
     0
  9
$DIMBLK1
  1

  9
$DIMBLK2
  1

  9
$DIMSTYLE
  2
STANDARD
  9
$DIMCLRD
 70
     0
  9
$DIMCLRE
 70
     0
  9
$DIMCLRT
 70
     0
  9
$DIMTFAC
 40
1.0
  9
$DIMGAP
 40
0.09
  9
$LUNITS
 70
     2
  9
$LUPREC
 70
     4
  9
$SKETCHINC
 40
0.1
  9
$FILLETRAD
 40
0.0
  9
$AUNITS
 70
     0
  9
$AUPREC
 70
     0
  9
$MENU
  1
.
  9
$ELEVATION
 40
0.0
  9
$PELEVATION
 40
0.0
  9
$THICKNESS
 40
0.0
  9
$LIMCHECK
 70
     0
  9
$BLIPMODE
 70
     0
  9
$CHAMFERA
 40
0.0
  9
$CHAMFERB
 40
0.0
  9
$SKPOLY
 70
     0
  9
$TDCREATE
 40
2458060.468368056230247
  9
$TDUPDATE
 40
2460279.5640624999068677
  9
$TDINDWG
 40
0.5991853009
  9
$TDUSRTIMER
 40
0.5991853009
  9
$USRTIMER
 70
     1
  9
$ANGBASE
 50
0.0
  9
$ANGDIR
 70
     0
  9
$PDMODE
 70
     0
  9
$PDSIZE
 40
0.3125
  9
$PLINEWID
 40
0.0
  9
$COORDS
 70
     1
  9
$SPLFRAME
 70
     0
  9
$SPLINETYPE
 70
     6
  9
$SPLINESEGS
 70
     8
  9
$ATTDIA
 70
     1
  9
$ATTREQ
 70
     1
  9
$HANDLING
 70
     1
  9
$HANDSEED
  5
2D6E9
  9
$SURFTAB1
 70
     6
  9
$SURFTAB2
 70
     6
  9
$SURFTYPE
 70
     6
  9
$SURFU
 70
     6
  9
$SURFV
 70
     6
  9
$UCSNAME
  2

  9
$UCSORG
 10
0.0
 20
0.0
 30
0.0
  9
$UCSXDIR
 10
1.0
 20
0.0
 30
0.0
  9
$UCSYDIR
 10
0.0
 20
1.0
 30
0.0
  9
$PUCSNAME
  2

  9
$PUCSORG
 10
0.0
 20
0.0
 30
0.0
  9
$PUCSXDIR
 10
1.0
 20
0.0
 30
0.0
  9
$PUCSYDIR
 10
0.0
 20
1.0
 30
0.0
  9
$USERI1
 70
     0
  9
$USERI2
 70
     0
  9
$USERI3
 70
     0
  9
$USERI4
 70
     0
  9
$USERI5
 70
     0
  9
$USERR1
 40
0.0
  9
$USERR2
 40
0.0
  9
$USERR3
 40
0.0
  9
$USERR4
 40
0.0
  9
$USERR5
 40
0.0
  9
$WORLDVIEW
 70
     1
  9
$SHADEDGE
 70
     3
  9
$SHADEDIF
 70
    70
  9
$TILEMODE
 70
     1
  9
$MAXACTVP
 70
    64
  9
$PLIMCHECK
 70
     0
  9
$PEXTMIN
 10
1.0000000000000000E+20
 20
1.0000000000000000E+20
 30
1.0000000000000000E+20
  9
$PEXTMAX
 10
-1.0000000000000000E+20
 20
-1.0000000000000000E+20
 30
-1.0000000000000000E+20
  9
$PLIMMIN
 10
0.0
 20
0.0
  9
$PLIMMAX
 10
12.0
 20
9.0
  9
$UNITMODE
 70
     0
  9
$VISRETAIN
 70
     1
  9
$PLINEGEN
 70
     0
  9
$PSLTSCALE
 70
     1
  0
ENDSEC
  0
SECTION
  2
TABLES
  0
TABLE
  2
VPORT
 70
     1
  0
VPORT
  2
*ACTIVE
 70
     0
 10
0.0
 20
0.0
 11
1.0
 21
1.0
 12
1690.6724510500609995
 22
187.8818413041460076
 13
0.0
 23
0.0
 14
1.0
 24
1.0
 15
0.0
 25
0.0
 16
0.0
 26
0.0
 36
60.4960186965801583
 17
3911.3653564453120453
 27
132.5796051025390057
 37
0.0
 40
13.9367046366795098
 41
2.8453453453453439
 42
50.0
 43
0.0
 44
0.0
 50
0.0
 51
0.0
 71
     0
 72
   100
 73
     1
 74
     1
 75
     0
 76
     0
 77
     0
 78
     0
  0
ENDTAB
  0
TABLE
  2
LTYPE
 70
     2
  0
LTYPE
  2
CONTINUOUS
 70
     0
  3
Solid line
 72
    65
 73
     0
 40
0.0
  0
LTYPE
  2
PHANTOM2
 70
     0
  3
___ _ _ ___ _ _ ___ _ _ ___ _ _
 72
    65
 73
     6
 40
1.25
 49
0.625
 49
-0.125
 49
0.125
 49
-0.125
 49
0.125
 49
-0.125
  0
ENDTAB
  0
TABLE
  2
LAYER
 70
     2
  0
LAYER
  2
0
 70
     0
 62
   255
  6
CONTINUOUS
  0
LAYER
  2
DEFPOINTS
 70
     0
 62
     7
  6
CONTINUOUS
  0
ENDTAB
  0
TABLE
  2
STYLE
 70
     1
  0
STYLE
  2
STANDARD
 70
     0
 40
0.0
 41
0.8
 50
0.0
 71
     0
 42
0.2
  3
txt
  4

  0
ENDTAB
  0
TABLE
  2
VIEW
 70
     0
  0
ENDTAB
  0
TABLE
  2
UCS
 70
     0
  0
ENDTAB
  0
TABLE
  2
APPID
 70
    11
  0
APPID
  2
ACAD
 70
     0
  0
APPID
  2
ACAD_MLEADERVER
 70
     0
  0
APPID
  2
ACAD_EXEMPT_FROM_CAD_STANDARDS
 70
     0
  0
APPID
  2
ACAD_NAV_VCDISPLAY
 70
     0
  0
APPID
  2
ACAECLAYERSTANDARD
 70
     0
  0
APPID
  2
ACCMTRANSPARENCY
 70
     0
  0
APPID
  2
ACAD_DSTYLE_DIMJAG
 70
     0
  0
APPID
  2
ACAD_DSTYLE_DIMTALN
 70
     0
  0
APPID
  2
ACDBATTR
 70
     0
  0
APPID
  2
ACADANNOTATIVE
 70
     0
  0
APPID
  2
DCO15
 70
     0
  0
ENDTAB
  0
TABLE
  2
DIMSTYLE
 70
     1
  0
DIMSTYLE
  2
STANDARD
 70
     0
  3

  4

  5

  6

  7

 40
1.0
 41
0.1875
 42
0.0625
 43
0.38
 44
0.125
 45
0.0
 46
0.0
 47
0.01
 48
0.01
140
0.15625
141
0.09
142
0.0
143
25.3999999999999986
144
1.0
145
0.0
146
1.0
147
0.09
 71
     1
 72
     0
 73
     1
 74
     1
 75
     0
 76
     0
 77
     0
 78
     4
170
     0
171
     2
172
     0
173
     0
174
     0
175
     0
176
     0
177
     0
178
     0
  0
ENDTAB
  0
ENDSEC
  0
SECTION
  2
BLOCKS
  0
BLOCK
  8
0
  2
$MODEL_SPACE
 70
     0
 10
0.0
 20
0.0
 30
0.0
  3
$MODEL_SPACE
  1

  0
ENDBLK
  5
21
  8
0
  0
BLOCK
 67
     1
  8
0
  2
$PAPER_SPACE
 70
     0
 10
0.0
 20
0.0
 30
0.0
  3
$PAPER_SPACE
  1

  0
ENDBLK
  5
1D
 67
     1
  8
0
  0
BLOCK
  8
0
  2
_FILLED
 70
     0
 10
0.0
 20
0.0
 30
0.0
  3
_FILLED
  1

  0
SOLID
  5
2853B
  8
0
  6
BYBLOCK
 62
     0
 10
0.0
 20
0.0
 30
0.0
 11
-1.0
 21
0.1666666667
 31
0.0
 12
-1.0
 22
-0.1666666667
 32
0.0
 13
-1.0
 23
-0.1666666667
 33
0.0
  0
ENDBLK
  5
2853C
  8
0
  6
BYBLOCK
 62
     0
  0
ENDSEC
  0
SECTION
  2
ENTITIES
  0
ATTDEF
  5
2842F
  8
DEFPOINTS
 10
5601.9227001546487372
 20
313.5610598148933263
 30
0.0
 40
0.001
  1
P25202-LV
  3

  2
MODELNUMBER
 70
     0
1001
ACDBATTR
1070
     0
1070
     1
  0
ATTDEF
  5
28430
  8
DEFPOINTS
 10
5601.9225743449924266
 20
313.5593929745140827
 30
0.0
 40
0.001
  1
ONE
  3

  2
TRADENAME
 70
     0
1001
ACDBATTR
1070
     0
1070
     1
  0
ATTDEF
  5
28431
  8
DEFPOINTS
 10
5601.9227001546487372
 20
313.5577264815598824
 30
0.0
 40
0.001
  1
KITCHEN SINK FAUCET
  3

  2
PRODUCT
 70
     0
1001
ACDBATTR
1070
     0
1070
     1
  0
LINE
  5
2D245
  8
0
 10
5602.4136182381953404
 20
317.2033676362203209
 30
0.0
 11
5601.4536182376450597
 21
317.2033676361616017
 31
0.0
  0
ARC
  5
2D246
  8
0
 10
5601.4636182377880687
 20
317.2316519072865049
 30
0.0
 40
0.0299999998936584
 50
179.9999999354484999
 51
250.5287789014147108
  0
LINE
  5
2D247
  8
0
 10
5601.4336182378938247
 20
317.2316519073203267
 30
0.0
 11
5601.4336182378938247
 21
326.8633676370957915
 31
0.0
  0
LINE
  5
2D248
  8
0
 10
5605.2102105372823644
 20
315.5213677399107155
 30
0.0
 11
5598.6586121899854334
 21
315.5213774155956798
 31
0.0
  0
ARC
  5
2D249
  8
0
 10
5601.4836182378949161
 20
317.1543778424202742
 30
0.0
 40
0.0500000000000003
 50
101.5369597720190029
 51
180.0
  0
LINE
  5
2D24A
  8
0
 10
5601.4336182378938247
 20
317.1543778424202742
 30
0.0
 11
5601.4336182378938247
 21
316.8413676365203173
 31
0.0
  0
ARC
  5
2D24B
  8
0
 10
5601.3036180964936648
 20
316.8413676365203173
 30
0.0
 40
0.1300001414000578
 50
270.0000623641939796
 51
0.0
  0
LINE
  5
2D24C
  8
0
 10
5601.3036182379946695
 20
316.7113674951203279
 30
0.0
 11
5598.658612139494835
 21
316.7113646161348015
 31
0.0
  0
ARC
  5
2D24D
  8
0
 10
5598.6586119979938303
 20
316.841364616134797
 30
0.0
 40
0.13
 50
180.0
 51
270.0000623641939796
  0
LINE
  5
2D24E
  8
0
 10
5597.3386182947951966
 20
318.1833677170203032
 30
0.0
 11
5597.3386182947951966
 21
318.5733677170202895
 31
0.0
  0
LINE
  5
2D24F
  8
0
 10
5597.5786182947949783
 20
318.5833677170203941
 30
0.0
 11
5597.5786182947949783
 21
318.8733677170203009
 31
0.0
  0
LINE
  5
2D250
  8
0
 10
5597.338618237895389
 20
318.1033677170211149
 30
0.0
 11
5597.338618237895389
 21
315.1933676365202928
 31
0.0
  0
ARC
  5
2D251
  8
0
 10
5597.3786182378944432
 20
315.1933676365202928
 30
0.0
 40
0.0400000000000009
 50
180.0
 51
251.8884579391038017
  0
LINE
  5
2D252
  8
0
 10
5597.370118237893621
 20
315.1553495114196153
 30
0.0
 11
5597.370118237893621
 21
315.1333677170202918
 31
0.0
  0
LINE
  5
2D253
  8
0
 10
5597.3511258251583058
 20
315.1333677170202918
 30
0.0
 11
5597.3411182378958983
 21
315.1233679202202893
 31
0.0
  0
LINE
  5
2D254
  8
0
 10
5597.3411182378958983
 20
315.1233679202202893
 30
0.0
 11
5597.3411182378958983
 21
313.9933676389202901
 31
0.0
  0
LINE
  5
2D255
  8
0
 10
5596.8236186199001168
 20
313.9833676389202992
 30
0.0
 11
5596.8136182378948433
 21
313.9733675682202829
 31
0.0
  0
LINE
  5
2D256
  8
0
 10
5596.8136182378948433
 20
313.9733675682202829
 30
0.0
 11
5596.8136182378948433
 21
313.573368016620293
 31
0.0
  0
LINE
  5
2D257
  8
0
 10
5596.8136182378948433
 20
313.573368016620293
 30
0.0
 11
5596.8236184535935536
 21
313.5633677975203
 31
0.0
  0
ARC
  5
2D258
  8
0
 10
5601.4677980841788667
 20
322.3629246643606052
 30
0.0
 40
0.0342000502055926
 50
181.9695339199523119
 51
253.3361965412213124
  0
ARC
  5
2D259
  8
0
 10
5601.5991437079610478
 20
322.9995717658072181
 30
0.0
 40
0.6841308385431528
 50
258.0929791009276073
 51
268.2315527097189261
  0
ARC
  5
2D25A
  8
0
 10
5602.0323125450431689
 20
333.9579714526585121
 30
0.0
 40
11.6510643852561397
 50
267.7654399565739141
 51
269.5146507903905899
  0
ARC
  5
2D25B
  8
0
 10
5601.4515602147866957
 20
322.3404989986934766
 30
0.0
 40
0.0278116656242711
 50
93.2812318476457136
 51
130.1749837657764033
  0
ARC
  5
2D25C
  8
0
 10
5601.6088337066894383
 20
321.3241821629939068
 30
0.0
 40
1.056100050380872
 50
92.3737177131733631
 51
98.6516389393015913
  0
ARC
  5
2D25D
  8
0
 10
5602.0862370797240146
 20
307.8486355335190865
 30
0.0
 40
14.5400828777279401
 50
90.6014117087070474
 51
92.0540296627279844
  0
ARC
  5
2D25E
  8
0
 10
5601.960628465816626
 20
309.8260014439749739
 30
0.0
 40
12.5308280216828098
 50
90.1235012769486445
 51
90.9506923368058153
  0
ARC
  5
2D25F
  8
0
 10
5601.8288680646637658
 20
318.0537895141429203
 30
0.0
 40
4.3019890404627787
 50
91.0142584018713734
 51
93.7462887353725165
  0
ARC
  5
2D260
  8
0
 10
5601.6003658152194475
 20
321.5020053451912077
 30
0.0
 40
0.8462158587035546
 50
93.5626131326865078
 51
97.7636056946424645
  0
ARC
  5
2D261
  8
0
 10
5601.5052243026793803
 20
322.1998517263317012
 30
0.0
 40
0.1419137366854311
 50
97.7636056946424645
 51
106.4490180532092012
  0
ARC
  5
2D262
  8
0
 10
5601.4702858635746452
 20
322.3181884830715944
 30
0.0
 40
0.0185270172915721
 50
106.4490180532092012
 51
127.3074593250886011
  0
ARC
  5
2D263
  8
0
 10
5601.4593841137802883
 20
322.3324952109467176
 30
0.0
 40
0.0005400605990114
 50
127.3074593250827036
 51
235.2033647787820883
  0
ARC
  5
2D264
  8
0
 10
5601.4668589585726295
 20
322.337198439926226
 30
0.0
 40
0.0093308301298695
 50
213.4756087001773892
 51
235.4539362684419928
  0
ARC
  5
2D265
  8
0
 10
5601.6414806098373447
 20
323.0943872001643058
 30
0.0
 40
0.762507309453974
 50
260.0488469135843843
 51
260.3105644616904897
  0
ARC
  5
2D266
  8
0
 10
5601.6608068944005936
 20
323.6673221211062241
 30
0.0
 40
1.3327699451832831
 50
263.6389477903576903
 51
266.4332430331372734
  0
ARC
  5
2D267
  8
0
 10
5601.837966273595157
 20
326.525999312472095
 30
0.0
 40
4.1969313225548417
 50
266.4472531276858263
 51
269.1839064605762815
  0
ARC
  5
2D268
  8
0
 10
5601.9393478834717826
 20
330.8758561750134959
 30
0.0
 40
8.5478818085842665
 50
268.9197021645707082
 51
269.961594633411778
  0
LINE
  5
2D269
  8
0
 10
5595.1936182378949525
 20
319.8233677170193232
 30
0.0
 11
5595.1936182378949525
 21
318.9133677170203214
 31
0.0
  0
LINE
  5
2D26A
  8
0
 10
5597.6146263191785692
 20
319.8237988698373897
 30
0.0
 11
5597.6015393762691019
 21
318.9132916839581071
 31
0.0
  0
LINE
  5
2D26B
  8
0
 10
5598.5286119979946307
 20
316.8413599905896945
 30
0.0
 11
5597.9336182641009145
 21
316.1163675664299717
 31
0.0
  0
LINE
  5
2D26C
  8
0
 10
5597.9336182641009145
 20
316.1163675664299717
 30
0.0
 11
5598.5286119979946307
 21
315.391375282467493
 31
0.0
  0
ARC
  5
2D26D
  8
0
 10
5602.7422009938418341
 20
318.6103899937505162
 30
0.0
 40
2.382395180407574
 50
232.8546676895911958
 51
244.2602602467003976
  0
ARC
  5
2D26E
  8
0
 10
5601.9323380777423154
 20
316.9103127716905988
 30
0.0
 40
0.4993736487892874
 50
243.2492559182288119
 51
270.1468797049458885
  0
ARC
  5
2D26F
  8
0
 10
5601.6296593027263953
 20
322.9769019648846893
 30
0.0
 40
0.6386513571463661
 50
261.3230342876764212
 51
265.7134978280977862
  0
ARC
  5
2D270
  8
0
 10
5601.6029617057101859
 20
322.6207130177700151
 30
0.0
 40
0.2814632726123076
 50
265.7134978280977862
 51
278.1057625947204883
  0
ARC
  5
2D271
  8
0
 10
5601.668664897076269
 20
322.7323158601150226
 30
0.0
 40
0.3911204009444748
 50
259.411685404240302
 51
266.1859689848952826
  0
LINE
  5
2D272
  8
0
 10
5601.6426482534707247
 20
322.3420617092202747
 30
0.0
 11
5601.6426482534707247
 21
322.3517462247415892
 31
0.0
  0
LINE
  5
2D273
  8
0
 10
5601.5967961798705801
 20
322.3478551267202761
 30
0.0
 11
5601.5967961798705801
 21
322.349514405770492
 31
0.0
  0
LINE
  5
2D274
  8
0
 10
5601.5967961798705801
 20
322.3478551267202761
 30
0.0
 11
5601.5611751564883889
 21
322.3474418301988749
 31
0.0
  0
LINE
  5
2D275
  8
0
 10
5601.7095643655711683
 20
322.3333568859202956
 30
0.0
 11
5601.7095643655711683
 21
322.3541239583046263
 31
0.0
  0
LINE
  5
2D276
  8
0
 10
5601.7482499373709288
 20
322.3365349441202738
 30
0.0
 11
5601.7482499373709288
 21
322.355023107173281
 31
0.0
  0
LINE
  5
2D277
  8
0
 10
5601.8589466354696924
 20
322.3564169085303774
 30
0.0
 11
5601.8589466354696924
 21
322.3341352320202873
 31
0.0
  0
LINE
  5
2D278
  8
0
 10
5601.8589466354696924
 20
322.3341352320202873
 30
0.0
 11
5601.8433803861717024
 21
322.330460472562379
 31
0.0
  0
LINE
  5
2D279
  8
0
 10
5601.7095643655711683
 20
322.3333568859202956
 30
0.0
 11
5601.7482499373709288
 21
322.3365349441202738
 31
0.0
  0
ARC
  5
2D27A
  8
0
 10
5601.9146273111882692
 20
327.457010490298785
 30
0.0
 40
5.1231778467597913
 50
268.1389680338569974
 51
269.3772750772084805
  0
ARC
  5
2D27B
  8
0
 10
5601.9067362612950092
 20
328.3501776972192943
 30
0.0
 40
6.0200506170415791
 50
268.1230825208041892
 51
269.3969998767605034
  0
ARC
  5
2D27C
  8
0
 10
5601.8394916573697628
 20
326.44398753960769
 30
0.0
 40
4.1013231202873746
 50
267.2490266157171845
 51
268.1846026352267245
  0
ARC
  5
2D27D
  8
0
 10
5601.9333222994710013
 20
330.37210180578478
 30
0.0
 40
8.0307025702645287
 50
269.4693524594775909
 51
270.0021113996323834
  0
LINE
  5
2D27E
  8
0
 10
5599.0436117822946471
 20
313.5633677975203
 30
0.0
 11
5596.8236184535935536
 21
313.5633677975203
 31
0.0
  0
LINE
  5
2D27F
  8
0
 10
5598.5161044107326234
 20
315.1333677170202918
 30
0.0
 11
5597.3511258251583058
 21
315.1333677170202918
 31
0.0
  0
LINE
  5
2D280
  8
0
 10
5598.5010467140682522
 20
315.1553495114196153
 30
0.0
 11
5597.366183521820858
 21
315.1553495114196153
 31
0.0
  0
LINE
  5
2D281
  8
0
 10
5599.0436116159889934
 20
313.9833676389202992
 30
0.0
 11
5596.8236186199001168
 21
313.9833676389202992
 31
0.0
  0
ARC
  5
2D282
  8
0
 10
5598.5361119979952491
 20
313.9933676389202901
 30
0.0
 40
0.01
 50
180.0
 51
270.0
  0
ARC
  5
2D283
  8
0
 10
5597.3311182378947706
 20
313.9933676389202901
 30
0.0
 40
0.01
 50
270.0
 51
0.0
  0
LINE
  5
2D284
  8
0
 10
5598.5186119410946048
 20
318.1733677170203123
 30
0.0
 11
5597.3486182947954148
 21
318.1733677170203123
 31
0.0
  0
LINE
  5
2D285
  8
0
 10
5598.4786119979962677
 20
318.1533677170211263
 30
0.0
 11
5597.3840096186868323
 21
318.1533677170211263
 31
0.0
  0
ARC
  5
2D286
  8
0
 10
5598.4757381834433545
 20
318.1583677170211217
 30
0.0
 40
0.005
 50
270.0
 51
357.9842899821186961
  0
ARC
  5
2D287
  8
0
 10
5597.3840096186868323
 20
318.1583677170211217
 30
0.0
 40
0.005
 50
181.5000003430702122
 51
270.0
  0
LINE
  5
2D288
  8
0
 10
5598.5186119410946048
 20
318.5833677170203941
 30
0.0
 11
5597.3486182947954148
 21
318.5833677170203941
 31
0.0
  0
LINE
  5
2D289
  8
0
 10
5598.2786119410939136
 20
318.8833677170202918
 30
0.0
 11
5595.2236182378946978
 21
318.8833677170202918
 31
0.0
  0
ARC
  5
2D28A
  8
0
 10
5595.2236182378946978
 20
318.9133677170203214
 30
0.0
 40
0.03
 50
180.0
 51
270.0
  0
ARC
  5
2D28B
  8
0
 10
5597.631036329536073
 20
318.9128677170202764
 30
0.0
 40
0.0295
 50
179.1765304240344108
 51
270.0
  0
LINE
  5
2D28C
  8
0
 10
5598.2586119410952961
 20
319.8533677170192959
 30
0.0
 11
5595.2236182378946978
 21
319.8533677170192959
 31
0.0
  0
ARC
  5
2D28D
  8
0
 10
5597.644623220808171
 20
319.8233677170193232
 30
0.0
 40
0.03
 50
90.0
 51
179.1765304240344108
  0
ARC
  5
2D28E
  8
0
 10
5597.3886182378946614
 20
318.1033677170211149
 30
0.0
 40
0.05
 50
90.0
 51
180.0
  0
ARC
  5
2D28F
  8
0
 10
5597.3486182947954148
 20
318.1833677170203032
 30
0.0
 40
0.01
 50
180.0
 51
270.0
  0
ARC
  5
2D290
  8
0
 10
5597.3486182947954148
 20
318.5733677170202895
 30
0.0
 40
0.01
 50
90.0
 51
180.0000000000032117
  0
ARC
  5
2D291
  8
0
 10
5597.5886182947951966
 20
318.8733677170203009
 30
0.0
 40
0.01
 50
90.0
 51
180.0
  0
ARC
  5
2D292
  8
0
 10
5595.2236182378946978
 20
319.8233677170193232
 30
0.0
 40
0.03
 50
90.0
 51
180.0
  0
LINE
  5
2D293
  8
0
 10
5598.5286119410948231
 20
318.1833677170203032
 30
0.0
 11
5598.5286119410948231
 21
318.5733677170202895
 31
0.0
  0
LINE
  5
2D294
  8
0
 10
5598.2886119410950414
 20
318.5833677170203941
 30
0.0
 11
5598.2886119410950414
 21
318.8733677170203009
 31
0.0
  0
LINE
  5
2D295
  8
0
 10
5598.5286119979946307
 20
318.1033677170211149
 30
0.0
 11
5598.5286119979946307
 21
316.841364616134797
 31
0.0
  0
LINE
  5
2D296
  8
0
 10
5598.5286119979946307
 20
315.3913774155959118
 30
0.0
 11
5598.5286119979946307
 21
315.1933676365202928
 31
0.0
  0
ARC
  5
2D297
  8
0
 10
5598.6586119979938303
 20
315.3913774155959118
 30
0.0
 40
0.13
 50
89.9999153830796388
 51
180.0
  0
ARC
  5
2D298
  8
0
 10
5598.488611997994667
 20
315.1933676365202928
 30
0.0
 40
0.0400000000000009
 50
288.1115420608962268
 51
0.0
  0
LINE
  5
2D299
  8
0
 10
5598.4971119979945797
 20
315.1553495114196153
 30
0.0
 11
5598.4971119979945797
 21
315.1333677170202918
 31
0.0
  0
LINE
  5
2D29A
  8
0
 10
5598.5161044107326234
 20
315.1333677170202918
 30
0.0
 11
5598.5261119979950308
 21
315.1233679202202893
 31
0.0
  0
LINE
  5
2D29B
  8
0
 10
5598.5261119979950308
 20
315.1233679202202893
 30
0.0
 11
5598.5261119979950308
 21
313.9933676389202901
 31
0.0
  0
LINE
  5
2D29C
  8
0
 10
5599.0436116159889934
 20
313.9833676389202992
 30
0.0
 11
5599.0536119979951764
 21
313.9733675682202829
 31
0.0
  0
LINE
  5
2D29D
  8
0
 10
5599.0536119979951764
 20
313.9733675682202829
 30
0.0
 11
5599.0536119979951764
 21
313.573368016620293
 31
0.0
  0
LINE
  5
2D29E
  8
0
 10
5599.0536119979951764
 20
313.573368016620293
 30
0.0
 11
5599.0436117822946471
 21
313.5633677975203
 31
0.0
  0
ARC
  5
2D29F
  8
0
 10
5598.4786119979962677
 20
318.1033677170211149
 30
0.0
 40
0.05
 50
0.0
 51
90.0
  0
ARC
  5
2D2A0
  8
0
 10
5598.5186119410946048
 20
318.1833677170203032
 30
0.0
 40
0.01
 50
270.0
 51
0.0
  0
ARC
  5
2D2A1
  8
0
 10
5598.5186119410946048
 20
318.5733677170202895
 30
0.0
 40
0.01
 50
359.9999999999968168
 51
90.0
  0
ARC
  5
2D2A2
  8
0
 10
5598.2786119410939136
 20
318.8733677170203009
 30
0.0
 40
0.01
 50
0.0
 51
90.0
  0
LINE
  5
2D2A3
  8
0
 10
5598.2886119410950414
 20
319.8233677170193232
 30
0.0
 11
5598.2886119410950414
 21
318.9133677170203214
 31
0.0
  0
ARC
  5
2D2A4
  8
0
 10
5598.2586119410952961
 20
319.8233677170193232
 30
0.0
 40
0.03
 50
0.0
 51
90.0
  0
ARC
  5
2D2A5
  8
0
 10
5598.2586119410952961
 20
318.9133677170203214
 30
0.0
 40
0.03
 50
270.0
 51
0.0
  0
ARC
  5
2D2A6
  8
0
 10
5602.4036182380013997
 20
317.2316519072865049
 30
0.0
 40
0.0299999998936584
 50
289.4712210985852039
 51
0.00000006455152
  0
LINE
  5
2D2A7
  8
0
 10
5602.4336182378947342
 20
317.2316519073203267
 30
0.0
 11
5602.4336182378947342
 21
326.8633676370957915
 31
0.0
  0
ARC
  5
2D2A8
  8
0
 10
5602.3836182378936428
 20
317.1543778424202742
 30
0.0
 40
0.0500000000000003
 50
0.0
 51
78.4630402279809402
  0
LINE
  5
2D2A9
  8
0
 10
5602.4336182378947342
 20
317.1543778424202742
 30
0.0
 11
5602.4336182378947342
 21
316.8413676365203173
 31
0.0
  0
ARC
  5
2D2AA
  8
0
 10
5602.5636183792948941
 20
316.8413676365203173
 30
0.0
 40
0.1300001414000578
 50
180.0
 51
269.9999376358060204
  0
LINE
  5
2D2AB
  8
0
 10
5602.5636182377947989
 20
316.7113674951203279
 30
0.0
 11
5605.2086243363437461
 21
316.7113646161348015
 31
0.0
  0
ARC
  5
2D2AC
  8
0
 10
5602.3994383916096922
 20
322.3629246643606052
 30
0.0
 40
0.0342000502055926
 50
286.6638034587786024
 51
358.0304660800476881
  0
ARC
  5
2D2AD
  8
0
 10
5602.2680927678293301
 20
322.9995717658072181
 30
0.0
 40
0.6841308385431528
 50
271.7684472902810739
 51
281.9070208990723927
  0
ARC
  5
2D2AE
  8
0
 10
5601.8349239307462994
 20
333.9579714526585121
 30
0.0
 40
11.6510643852561397
 50
270.4853492096094101
 51
272.2345600434260859
  0
ARC
  5
2D2AF
  8
0
 10
5602.4156762610018632
 20
322.3404989986934766
 30
0.0
 40
0.0278116656242711
 50
49.8250162342235825
 51
86.7187681523543148
  0
ARC
  5
2D2B0
  8
0
 10
5602.2584027691009396
 20
321.3241821629939068
 30
0.0
 40
1.056100050380872
 50
81.3483610606983945
 51
87.6262822868266369
  0
ARC
  5
2D2B1
  8
0
 10
5601.7809993960663633
 20
307.8486355335190865
 30
0.0
 40
14.5400828777279401
 50
87.9459703372720014
 51
89.3985882912929668
  0
ARC
  5
2D2B2
  8
0
 10
5601.9066080099719329
 20
309.8260014439749739
 30
0.0
 40
12.5308280216828098
 50
89.0493076631942131
 51
89.8764987230513555
  0
ARC
  5
2D2B3
  8
0
 10
5602.0383684111247931
 20
318.0537895141429203
 30
0.0
 40
4.3019890404627787
 50
86.2537112646274693
 51
88.985741598128655
  0
ARC
  5
2D2B4
  8
0
 10
5602.2668706605709303
 20
321.5020053451912077
 30
0.0
 40
0.8462158587035546
 50
82.2363943053575355
 51
86.437386867313478
  0
ARC
  5
2D2B5
  8
0
 10
5602.3620121731109975
 20
322.1998517263317012
 30
0.0
 40
0.1419137366854311
 50
73.5509819467907704
 51
82.2363943053575355
  0
ARC
  5
2D2B6
  8
0
 10
5602.3969506122148232
 20
322.3181884830715944
 30
0.0
 40
0.0185270172915721
 50
52.6925406749113492
 51
73.5509819467907704
  0
ARC
  5
2D2B7
  8
0
 10
5602.4078523620091801
 20
322.3324952109467176
 30
0.0
 40
0.0005400605990114
 50
304.7966352212179117
 51
52.6925406749172609
  0
ARC
  5
2D2B8
  8
0
 10
5602.4003775172159294
 20
322.337198439926226
 30
0.0
 40
0.0093308301298695
 50
304.5460637315580925
 51
326.5243912998225255
  0
ARC
  5
2D2B9
  8
0
 10
5602.2257558659539427
 20
323.0943872001643058
 30
0.0
 40
0.762507309453974
 50
279.6894355383095103
 51
279.9511530864156157
  0
ARC
  5
2D2BA
  8
0
 10
5602.2064295813879653
 20
323.6673221211062241
 30
0.0
 40
1.3327699451832831
 50
273.5667569668627266
 51
276.3610522096424233
  0
ARC
  5
2D2BB
  8
0
 10
5602.0292702021943114
 20
326.525999312472095
 30
0.0
 40
4.1969313225548417
 50
270.8160935394237185
 51
273.5527468723141737
  0
ARC
  5
2D2BC
  8
0
 10
5601.9278885923167763
 20
330.8758561750134959
 30
0.0
 40
8.5478818085842665
 50
270.038405366588222
 51
271.0802978354292918
  0
ARC
  5
2D2BD
  8
0
 10
5601.1250354819476343
 20
318.6103899937505162
 30
0.0
 40
2.382395180407574
 50
295.7397397532996024
 51
307.145332310408719
  0
ARC
  5
2D2BE
  8
0
 10
5601.9348983980480625
 20
316.9103127716905988
 30
0.0
 40
0.4993736487892874
 50
269.8531202950539978
 51
296.7507440817711881
  0
ARC
  5
2D2BF
  8
0
 10
5602.2375771730639826
 20
322.9769019648846893
 30
0.0
 40
0.6386513571463661
 50
274.2865021719022138
 51
278.6769657123235788
  0
ARC
  5
2D2C0
  8
0
 10
5602.264274770080192
 20
322.6207130177700151
 30
0.0
 40
0.2814632726123076
 50
261.8942374052795117
 51
274.2865021719022138
  0
ARC
  5
2D2C1
  8
0
 10
5602.1985715787141089
 20
322.7323158601150226
 30
0.0
 40
0.3911204009444748
 50
273.8140310151047174
 51
280.5883145957595843
  0
LINE
  5
2D2C2
  8
0
 10
5602.2245882223187436
 20
322.3420617092202747
 30
0.0
 11
5602.2245882223187436
 21
322.3517462247415892
 31
0.0
  0
LINE
  5
2D2C3
  8
0
 10
5602.2704402959188883
 20
322.3478551267202761
 30
0.0
 11
5602.2704402959188883
 21
322.349514405770492
 31
0.0
  0
LINE
  5
2D2C4
  8
0
 10
5602.2704402959188883
 20
322.3478551267202761
 30
0.0
 11
5602.3060613193010795
 21
322.3474418301988749
 31
0.0
  0
LINE
  5
2D2C5
  8
0
 10
5602.1576721102192096
 20
322.3333568859202956
 30
0.0
 11
5602.1576721102192096
 21
322.3541239583046263
 31
0.0
  0
LINE
  5
2D2C6
  8
0
 10
5602.1189865384176301
 20
322.3365349441202738
 30
0.0
 11
5602.1189865384176301
 21
322.355023107173281
 31
0.0
  0
LINE
  5
2D2C7
  8
0
 10
5602.0082898403188665
 20
322.3564169085303774
 30
0.0
 11
5602.0082898403188665
 21
322.3341352320202873
 31
0.0
  0
LINE
  5
2D2C8
  8
0
 10
5602.0082898403188665
 20
322.3341352320202873
 30
0.0
 11
5602.023856089615947
 21
322.330460472562379
 31
0.0
  0
LINE
  5
2D2C9
  8
0
 10
5602.1576721102192096
 20
322.3333568859202956
 30
0.0
 11
5602.1189865384176301
 21
322.3365349441202738
 31
0.0
  0
ARC
  5
2D2CA
  8
0
 10
5601.9526091646021086
 20
327.457010490298785
 30
0.0
 40
5.1231778467597913
 50
270.6227249227915195
 51
271.8610319661430026
  0
ARC
  5
2D2CB
  8
0
 10
5601.9605002144953687
 20
328.3501776972192943
 30
0.0
 40
6.0200506170415791
 50
270.6030001232394966
 51
271.8769174791958108
  0
ARC
  5
2D2CC
  8
0
 10
5602.0277448184187961
 20
326.44398753960769
 30
0.0
 40
4.1013231202873746
 50
271.8153973647733892
 51
272.7509733842828155
  0
ARC
  5
2D2CD
  8
0
 10
5601.9339141763175576
 20
330.37210180578478
 30
0.0
 40
8.0307025702645287
 50
269.9978886003153775
 51
270.5306475405224091
  0
LINE
  5
2D2CE
  8
0
 10
5597.3786151158101347
 20
318.1733677170203123
 30
0.0
 11
5597.3790113320628734
 21
318.1582368322497132
 31
0.0
  0
LINE
  5
2D2CF
  8
0
 10
5598.4812692087280084
 20
318.1733677170203123
 30
0.0
 11
5598.4807350895453055
 21
318.158191849421712
 31
0.0
  0
ARC
  5
2D2D0
  8
0
 10
5605.2086244778429318
 20
316.841364616134797
 30
0.0
 40
0.13
 50
269.9999376358060204
 51
0.0
  0
LINE
  5
2D2D1
  8
0
 10
5606.528618181044294
 20
318.1833677170203032
 30
0.0
 11
5606.528618181044294
 21
318.5733677170202895
 31
0.0
  0
LINE
  5
2D2D2
  8
0
 10
5606.2886181810426933
 20
318.5833677170203941
 30
0.0
 11
5606.2886181810426933
 21
318.8733677170203009
 31
0.0
  0
LINE
  5
2D2D3
  8
0
 10
5606.5286182379450111
 20
318.1033677170211149
 30
0.0
 11
5606.5286182379450111
 21
315.1933676365202928
 31
0.0
  0
ARC
  5
2D2D4
  8
0
 10
5606.4886182379441379
 20
315.1933676365202928
 30
0.0
 40
0.0400000000000009
 50
288.1115420608962268
 51
0.0
  0
LINE
  5
2D2D5
  8
0
 10
5606.4971182379440506
 20
315.1553495114196153
 30
0.0
 11
5606.4971182379440506
 21
315.1333677170202918
 31
0.0
  0
LINE
  5
2D2D6
  8
0
 10
5606.5161106506811848
 20
315.1333677170202918
 30
0.0
 11
5606.5261182379435922
 21
315.1233679202202893
 31
0.0
  0
LINE
  5
2D2D7
  8
0
 10
5606.5261182379435922
 20
315.1233679202202893
 30
0.0
 11
5606.5261182379435922
 21
313.9933676389202901
 31
0.0
  0
LINE
  5
2D2D8
  8
0
 10
5607.0436178559375549
 20
313.9833676389202992
 30
0.0
 11
5607.0536182379437378
 21
313.9733675682202829
 31
0.0
  0
LINE
  5
2D2D9
  8
0
 10
5607.0536182379437378
 20
313.9733675682202829
 30
0.0
 11
5607.0536182379437378
 21
313.573368016620293
 31
0.0
  0
LINE
  5
2D2DA
  8
0
 10
5607.0536182379437378
 20
313.573368016620293
 30
0.0
 11
5607.043618022244118
 21
313.5633677975203
 31
0.0
  0
LINE
  5
2D2DB
  8
0
 10
5608.6736182379427191
 20
319.8233677170193232
 30
0.0
 11
5608.6736182379427191
 21
318.9133677170203214
 31
0.0
  0
LINE
  5
2D2DC
  8
0
 10
5606.2526101566581929
 20
319.8237988698373897
 30
0.0
 11
5606.2656970995685697
 21
318.9132916839581071
 31
0.0
  0
LINE
  5
2D2DD
  8
0
 10
5605.3386244778430409
 20
316.8413599905896945
 30
0.0
 11
5605.9336182117376666
 21
316.1163675664299717
 31
0.0
  0
LINE
  5
2D2DE
  8
0
 10
5605.9336182117376666
 20
316.1163675664299717
 30
0.0
 11
5605.3386244778430409
 21
315.391375282467493
 31
0.0
  0
LINE
  5
2D2DF
  8
0
 10
5604.8236246935430245
 20
313.5633677975203
 30
0.0
 11
5607.043618022244118
 21
313.5633677975203
 31
0.0
  0
LINE
  5
2D2E0
  8
0
 10
5605.3511320651059577
 20
315.1333677170202918
 30
0.0
 11
5606.5161106506811848
 21
315.1333677170202918
 31
0.0
  0
LINE
  5
2D2E1
  8
0
 10
5605.3661897617703289
 20
315.1553495114196153
 30
0.0
 11
5606.5010529540159041
 21
315.1553495114196153
 31
0.0
  0
LINE
  5
2D2E2
  8
0
 10
5604.8236248598477687
 20
313.9833676389202992
 30
0.0
 11
5607.0436178559375549
 21
313.9833676389202992
 31
0.0
  0
ARC
  5
2D2E3
  8
0
 10
5605.331124477843332
 20
313.9933676389202901
 30
0.0
 40
0.01
 50
270.0
 51
0.0
  0
ARC
  5
2D2E4
  8
0
 10
5606.5361182379438105
 20
313.9933676389202901
 30
0.0
 40
0.01
 50
180.0
 51
270.0
  0
LINE
  5
2D2E5
  8
0
 10
5605.3486245347430668
 20
318.1733677170203123
 30
0.0
 11
5606.5186181810440758
 21
318.1733677170203123
 31
0.0
  0
LINE
  5
2D2E6
  8
0
 10
5605.3886244778432228
 20
318.1533677170211263
 30
0.0
 11
5606.4832268571517488
 21
318.1533677170211263
 31
0.0
  0
ARC
  5
2D2E7
  8
0
 10
5605.3914982923952266
 20
318.1583677170211217
 30
0.0
 40
0.005
 50
182.0157100178813039
 51
270.0
  0
ARC
  5
2D2E8
  8
0
 10
5606.4832268571517488
 20
318.1583677170211217
 30
0.0
 40
0.005
 50
270.0
 51
358.4999996569297878
  0
LINE
  5
2D2E9
  8
0
 10
5605.3486245347430668
 20
318.5833677170203941
 30
0.0
 11
5606.5186181810440758
 21
318.5833677170203941
 31
0.0
  0
LINE
  5
2D2EA
  8
0
 10
5605.5886245347428485
 20
318.8833677170202918
 30
0.0
 11
5608.6436182379438833
 21
318.8833677170202918
 31
0.0
  0
ARC
  5
2D2EB
  8
0
 10
5608.6436182379438833
 20
318.9133677170203214
 30
0.0
 40
0.03
 50
270.0
 51
0.0
  0
ARC
  5
2D2EC
  8
0
 10
5606.2362001463034176
 20
318.9128677170202764
 30
0.0
 40
0.0295
 50
270.0
 51
0.823469575965618
  0
LINE
  5
2D2ED
  8
0
 10
5605.6086245347441945
 20
319.8533677170192959
 30
0.0
 11
5608.6436182379438833
 21
319.8533677170192959
 31
0.0
  0
ARC
  5
2D2EE
  8
0
 10
5606.2226132550313196
 20
319.8233677170193232
 30
0.0
 40
0.03
 50
0.823469575965618
 51
90.0
  0
ARC
  5
2D2EF
  8
0
 10
5606.4786182379439197
 20
318.1033677170211149
 30
0.0
 40
0.05
 50
0.0
 51
90.0
  0
ARC
  5
2D2F0
  8
0
 10
5606.5186181810440758
 20
318.1833677170203032
 30
0.0
 40
0.01
 50
270.0
 51
0.0
  0
ARC
  5
2D2F1
  8
0
 10
5606.5186181810440758
 20
318.5733677170202895
 30
0.0
 40
0.01
 50
359.9999999999968168
 51
90.0
  0
ARC
  5
2D2F2
  8
0
 10
5606.2786181810433845
 20
318.8733677170203009
 30
0.0
 40
0.01
 50
0.0
 51
90.0
  0
ARC
  5
2D2F3
  8
0
 10
5608.6436182379438833
 20
319.8233677170193232
 30
0.0
 40
0.03
 50
0.0
 51
90.0
  0
LINE
  5
2D2F4
  8
0
 10
5605.338624534743758
 20
318.1833677170203032
 30
0.0
 11
5605.338624534743758
 21
318.5733677170202895
 31
0.0
  0
LINE
  5
2D2F5
  8
0
 10
5605.5786245347426302
 20
318.5833677170203941
 30
0.0
 11
5605.5786245347426302
 21
318.8733677170203009
 31
0.0
  0
LINE
  5
2D2F6
  8
0
 10
5605.3386244778430409
 20
318.1033677170211149
 30
0.0
 11
5605.3386244778430409
 21
316.841364616134797
 31
0.0
  0
LINE
  5
2D2F7
  8
0
 10
5605.3386244778430409
 20
315.3913774155959118
 30
0.0
 11
5605.3386244778430409
 21
315.1933676365202928
 31
0.0
  0
ARC
  5
2D2F8
  8
0
 10
5605.2086244778429318
 20
315.3913774155959118
 30
0.0
 40
0.13
 50
0.0
 51
90.0000846169203754
  0
ARC
  5
2D2F9
  8
0
 10
5605.3786244778430046
 20
315.1933676365202928
 30
0.0
 40
0.0400000000000009
 50
180.0
 51
251.8884579391038017
  0
LINE
  5
2D2FA
  8
0
 10
5605.3701244778430919
 20
315.1553495114196153
 30
0.0
 11
5605.3701244778430919
 21
315.1333677170202918
 31
0.0
  0
LINE
  5
2D2FB
  8
0
 10
5605.3511320651059577
 20
315.1333677170202918
 30
0.0
 11
5605.3411244778435503
 21
315.1233679202202893
 31
0.0
  0
LINE
  5
2D2FC
  8
0
 10
5605.3411244778435503
 20
315.1233679202202893
 30
0.0
 11
5605.3411244778435503
 21
313.9933676389202901
 31
0.0
  0
LINE
  5
2D2FD
  8
0
 10
5604.8236248598477687
 20
313.9833676389202992
 30
0.0
 11
5604.8136244778434047
 21
313.9733675682202829
 31
0.0
  0
LINE
  5
2D2FE
  8
0
 10
5604.8136244778434047
 20
313.9733675682202829
 30
0.0
 11
5604.8136244778434047
 21
313.573368016620293
 31
0.0
  0
LINE
  5
2D2FF
  8
0
 10
5604.8136244778434047
 20
313.573368016620293
 30
0.0
 11
5604.8236246935430245
 21
313.5633677975203
 31
0.0
  0
ARC
  5
2D300
  8
0
 10
5605.3886244778432228
 20
318.1033677170211149
 30
0.0
 40
0.05
 50
90.0
 51
180.0
  0
ARC
  5
2D301
  8
0
 10
5605.3486245347430668
 20
318.1833677170203032
 30
0.0
 40
0.01
 50
180.0
 51
270.0
  0
ARC
  5
2D302
  8
0
 10
5605.3486245347430668
 20
318.5733677170202895
 30
0.0
 40
0.01
 50
90.0
 51
180.0000000000032117
  0
ARC
  5
2D303
  8
0
 10
5605.5886245347428485
 20
318.8733677170203009
 30
0.0
 40
0.01
 50
90.0
 51
180.0
  0
LINE
  5
2D304
  8
0
 10
5605.5786245347426302
 20
319.8233677170193232
 30
0.0
 11
5605.5786245347426302
 21
318.9133677170203214
 31
0.0
  0
ARC
  5
2D305
  8
0
 10
5605.6086245347441945
 20
319.8233677170193232
 30
0.0
 40
0.03
 50
90.0
 51
180.0
  0
ARC
  5
2D306
  8
0
 10
5605.6086245347441945
 20
318.9133677170203214
 30
0.0
 40
0.03
 50
180.0
 51
270.0
  0
LINE
  5
2D307
  8
0
 10
5606.4886213600284464
 20
318.1733677170203123
 30
0.0
 11
5606.4882251437757077
 21
318.1582368322497132
 31
0.0
  0
LINE
  5
2D308
  8
0
 10
5605.3859672671096632
 20
318.1733677170203123
 30
0.0
 11
5605.3865013862932756
 21
318.158191849421712
 31
0.0
  0
ARC
  5
2D309
  8
0
 10
5601.9336182379192906
 20
326.8633676370957915
 30
0.0
 40
0.5000000000245173
 50
0.0
 51
180.0
  0
LINE
  5
2D55B
  8
0
 10
5597.3411182378958983
 20
315.1233679202202893
 30
0.0
 11
5598.5261119979950308
 21
315.1233679202202893
 31
0.0
  0
LINE
  5
2D55C
  8
0
 10
5596.8136182378948433
 20
313.9733675682202829
 30
0.0
 11
5599.0536119979951764
 21
313.9733675682202829
 31
0.0
  0
LINE
  5
2D55D
  8
0
 10
5596.8136182378948433
 20
313.573368016620293
 30
0.0
 11
5599.0536119979951764
 21
313.573368016620293
 31
0.0
  0
LINE
  5
2D55E
  8
0
 10
5604.8136244778434047
 20
313.573368016620293
 30
0.0
 11
5607.0536182379437378
 21
313.573368016620293
 31
0.0
  0
LINE
  5
2D55F
  8
0
 10
5604.8136244778434047
 20
313.9733675682202829
 30
0.0
 11
5607.0536182379437378
 21
313.9733675682202829
 31
0.0
  0
LINE
  5
2D560
  8
0
 10
5605.3411244778435503
 20
315.1233679202202893
 30
0.0
 11
5606.5261182379435922
 21
315.1233679202202893
 31
0.0
  0
ENDSEC
  0
EOF
