  0
SECTION
  2
HEADER
  9
$ACADVER
  1
AC1009
  9
$INSBASE
 10
4378.76995123976576
 20
201.1634675987808976
 30
0.0
  9
$EXTMIN
 10
4377.6499512397649596
 20
201.1634675987808976
 30
0.0
  9
$EXTMAX
 10
4379.8899512397665603
 20
205.6758038676809122
 30
0.0
  9
$LIMMIN
 10
0.0
 20
0.0
  9
$LIMMAX
 10
11.6929133858000007
 20
8.2677165353999982
  9
$ORTHOMODE
 70
     0
  9
$REGENMODE
 70
     1
  9
$FILLMODE
 70
     1
  9
$QTEXTMODE
 70
     0
  9
$MIRRTEXT
 70
     0
  9
$DRAGMODE
 70
     2
  9
$LTSCALE
 40
0.6431102362
  9
$OSMODE
 70
     7
  9
$ATTMODE
 70
     1
  9
$TEXTSIZE
 40
0.2
  9
$TRACEWID
 40
0.05
  9
$TEXTSTYLE
  7
STANDARD
  9
$CLAYER
  8
0
  9
$CELTYPE
  6
BYLAYER
  9
$CECOLOR
 62
   256
  9
$DIMSCALE
 40
1.0
  9
$DIMASZ
 40
0.1875
  9
$DIMEXO
 40
0.0625
  9
$DIMDLI
 40
0.4443307087
  9
$DIMRND
 40
0.0
  9
$DIMDLE
 40
0.0
  9
$DIMEXE
 40
0.125
  9
$DIMTP
 40
0.01
  9
$DIMTM
 40
0.01
  9
$DIMTXT
 40
2.0
  9
$DIMCEN
 40
0.1052362205
  9
$DIMTSZ
 40
0.0
  9
$DIMTOL
 70
     1
  9
$DIMLIM
 70
     0
  9
$DIMTIH
 70
     1
  9
$DIMTOH
 70
     1
  9
$DIMSE1
 70
     0
  9
$DIMSE2
 70
     0
  9
$DIMTAD
 70
     0
  9
$DIMZIN
 70
     0
  9
$DIMBLK
  1

  9
$DIMASO
 70
     1
  9
$DIMSHO
 70
     1
  9
$DIMPOST
  1
\X
  9
$DIMAPOST
  1

  9
$DIMALT
 70
     1
  9
$DIMALTD
 70
     2
  9
$DIMALTF
 40
25.3999999999999986
  9
$DIMLFAC
 40
1.0
  9
$DIMTOFL
 70
     0
  9
$DIMTVP
 40
0.0
  9
$DIMTIX
 70
     0
  9
$DIMSOXD
 70
     0
  9
$DIMSAH
 70
     0
  9
$DIMBLK1
  1

  9
$DIMBLK2
  1

  9
$DIMSTYLE
  2
STANDARD
  9
$DIMCLRD
 70
     0
  9
$DIMCLRE
 70
     0
  9
$DIMCLRT
 70
     0
  9
$DIMTFAC
 40
1.0
  9
$DIMGAP
 40
0.09
  9
$LUNITS
 70
     2
  9
$LUPREC
 70
     4
  9
$SKETCHINC
 40
0.1
  9
$FILLETRAD
 40
0.0
  9
$AUNITS
 70
     0
  9
$AUPREC
 70
     0
  9
$MENU
  1
.
  9
$ELEVATION
 40
0.0
  9
$PELEVATION
 40
0.0
  9
$THICKNESS
 40
0.0
  9
$LIMCHECK
 70
     0
  9
$BLIPMODE
 70
     0
  9
$CHAMFERA
 40
0.0
  9
$CHAMFERB
 40
0.0
  9
$SKPOLY
 70
     0
  9
$TDCREATE
 40
2458060.468368056230247
  9
$TDUPDATE
 40
2459579.6213425928726792
  9
$TDINDWG
 40
0.4733519676
  9
$TDUSRTIMER
 40
0.4733519676
  9
$USRTIMER
 70
     1
  9
$ANGBASE
 50
0.0
  9
$ANGDIR
 70
     0
  9
$PDMODE
 70
     0
  9
$PDSIZE
 40
0.3125
  9
$PLINEWID
 40
0.0
  9
$COORDS
 70
     1
  9
$SPLFRAME
 70
     0
  9
$SPLINETYPE
 70
     6
  9
$SPLINESEGS
 70
     8
  9
$ATTDIA
 70
     1
  9
$ATTREQ
 70
     1
  9
$HANDLING
 70
     1
  9
$HANDSEED
  5
FCA3
  9
$SURFTAB1
 70
     6
  9
$SURFTAB2
 70
     6
  9
$SURFTYPE
 70
     6
  9
$SURFU
 70
     6
  9
$SURFV
 70
     6
  9
$UCSNAME
  2

  9
$UCSORG
 10
0.0
 20
0.0
 30
0.0
  9
$UCSXDIR
 10
1.0
 20
0.0
 30
0.0
  9
$UCSYDIR
 10
0.0
 20
1.0
 30
0.0
  9
$PUCSNAME
  2

  9
$PUCSORG
 10
0.0
 20
0.0
 30
0.0
  9
$PUCSXDIR
 10
1.0
 20
0.0
 30
0.0
  9
$PUCSYDIR
 10
0.0
 20
1.0
 30
0.0
  9
$USERI1
 70
     0
  9
$USERI2
 70
     0
  9
$USERI3
 70
     0
  9
$USERI4
 70
     0
  9
$USERI5
 70
     0
  9
$USERR1
 40
0.0
  9
$USERR2
 40
0.0
  9
$USERR3
 40
0.0
  9
$USERR4
 40
0.0
  9
$USERR5
 40
0.0
  9
$WORLDVIEW
 70
     1
  9
$SHADEDGE
 70
     3
  9
$SHADEDIF
 70
    70
  9
$TILEMODE
 70
     1
  9
$MAXACTVP
 70
    64
  9
$PLIMCHECK
 70
     0
  9
$PEXTMIN
 10
1.0000000000000000E+20
 20
1.0000000000000000E+20
 30
1.0000000000000000E+20
  9
$PEXTMAX
 10
-1.0000000000000000E+20
 20
-1.0000000000000000E+20
 30
-1.0000000000000000E+20
  9
$PLIMMIN
 10
0.0
 20
0.0
  9
$PLIMMAX
 10
12.0
 20
9.0
  9
$UNITMODE
 70
     0
  9
$VISRETAIN
 70
     1
  9
$PLINEGEN
 70
     0
  9
$PSLTSCALE
 70
     1
  0
ENDSEC
  0
SECTION
  2
TABLES
  0
TABLE
  2
VPORT
 70
     1
  0
VPORT
  2
*ACTIVE
 70
     0
 10
0.0
 20
0.0
 11
1.0
 21
1.0
 12
575.2258838569537147
 22
77.4243735364809567
 13
0.0
 23
0.0
 14
1.0
 24
1.0
 15
0.0
 25
0.0
 16
0.0
 26
0.0
 36
17.1152628219792007
 17
3803.5440673828129547
 27
125.9952621967499056
 37
0.0
 40
4.5446441658133656
 41
2.2831541218637992
 42
50.0
 43
0.0
 44
0.0
 50
0.0
 51
0.0
 71
     0
 72
   100
 73
     1
 74
     1
 75
     0
 76
     0
 77
     0
 78
     0
  0
ENDTAB
  0
TABLE
  2
LTYPE
 70
     2
  0
LTYPE
  2
CONTINUOUS
 70
     0
  3
Solid line
 72
    65
 73
     0
 40
0.0
  0
LTYPE
  2
PHANTOM2
 70
     0
  3
___ _ _ ___ _ _ ___ _ _ ___ _ _
 72
    65
 73
     6
 40
1.25
 49
0.625
 49
-0.125
 49
0.125
 49
-0.125
 49
0.125
 49
-0.125
  0
ENDTAB
  0
TABLE
  2
LAYER
 70
     2
  0
LAYER
  2
0
 70
     0
 62
   255
  6
CONTINUOUS
  0
LAYER
  2
DEFPOINTS
 70
     0
 62
     7
  6
CONTINUOUS
  0
ENDTAB
  0
TABLE
  2
STYLE
 70
     1
  0
STYLE
  2
STANDARD
 70
     0
 40
0.0
 41
0.8
 50
0.0
 71
     0
 42
0.2
  3
txt
  4

  0
ENDTAB
  0
TABLE
  2
VIEW
 70
     0
  0
ENDTAB
  0
TABLE
  2
UCS
 70
     0
  0
ENDTAB
  0
TABLE
  2
APPID
 70
     9
  0
APPID
  2
ACAD
 70
     0
  0
APPID
  2
ACAD_MLEADERVER
 70
     0
  0
APPID
  2
ACAD_EXEMPT_FROM_CAD_STANDARDS
 70
     0
  0
APPID
  2
ACAD_NAV_VCDISPLAY
 70
     0
  0
APPID
  2
ACAECLAYERSTANDARD
 70
     0
  0
APPID
  2
ACCMTRANSPARENCY
 70
     0
  0
APPID
  2
ACAD_DSTYLE_DIMJAG
 70
     0
  0
APPID
  2
ACAD_DSTYLE_DIMTALN
 70
     0
  0
APPID
  2
ACDBATTR
 70
     0
  0
ENDTAB
  0
TABLE
  2
DIMSTYLE
 70
     1
  0
DIMSTYLE
  2
STANDARD
 70
     0
  3

  4

  5

  6

  7

 40
1.0
 41
0.1875
 42
0.0625
 43
0.38
 44
0.125
 45
0.0
 46
0.0
 47
0.01
 48
0.01
140
0.15625
141
0.09
142
0.0
143
25.3999999999999986
144
1.0
145
0.0
146
1.0
147
0.09
 71
     1
 72
     0
 73
     1
 74
     1
 75
     0
 76
     0
 77
     0
 78
     4
170
     0
171
     2
172
     0
173
     0
174
     0
175
     0
176
     0
177
     0
178
     0
  0
ENDTAB
  0
ENDSEC
  0
SECTION
  2
BLOCKS
  0
BLOCK
  8
0
  2
$MODEL_SPACE
 70
     0
 10
0.0
 20
0.0
 30
0.0
  3
$MODEL_SPACE
  1

  0
ENDBLK
  5
21
  8
0
  0
BLOCK
 67
     1
  8
0
  2
$PAPER_SPACE
 70
     0
 10
0.0
 20
0.0
 30
0.0
  3
$PAPER_SPACE
  1

  0
ENDBLK
  5
1D
 67
     1
  8
0
  0
ENDSEC
  0
SECTION
  2
ENTITIES
  0
ATTDEF
  5
3930
  8
DEFPOINTS
 10
4378.7699761846788533
 20
201.166834677472707
 30
0.0
 40
0.001
  1
P25215-00
  3

  2
MODELNUMBER
 70
     0
1001
ACDBATTR
1070
     0
1070
     1
  0
ATTDEF
  5
3931
  8
DEFPOINTS
 10
4378.7699761846788533
 20
201.1651680108060987
 30
0.0
 40
0.001
  1
ONE
  3

  2
TRADENAME
 70
     0
1001
ACDBATTR
1070
     0
1070
     1
  0
ATTDEF
  5
3932
  8
DEFPOINTS
 10
4378.7699761846788533
 20
201.1635013441394051
 30
0.0
 40
0.001
  1
SOAP DISPENSER
  3

  2
PRODUCT
 70
     0
1001
ACDBATTR
1070
     0
1070
     1
  0
LINE
  5
FB63
  8
0
 10
4377.6599512397660874
 20
201.1634675987808976
 30
0.0
 11
4379.879951239766342
 21
201.1634675987808976
 31
0.0
  0
LINE
  5
FB64
  8
0
 10
4377.679951239764705
 20
201.5754675987809037
 30
0.0
 11
4379.859951239764996
 21
201.5754675987809037
 31
0.0
  0
LINE
  5
FB66
  8
0
 10
4378.258723603566068
 20
205.6758038676809122
 30
0.0
 11
4379.2811788759663614
 21
205.6758038676809122
 31
0.0
  0
LINE
  5
FB67
  8
0
 10
4378.1648283663662369
 20
205.6151106337808869
 30
0.0
 11
4379.3750741131652831
 21
205.6151106337808869
 31
0.0
  0
LINE
  5
FB68
  8
0
 10
4378.1648283662898393
 20
201.914465467480909
 30
0.0
 11
4379.3750741132425901
 21
201.914465467480909
 31
0.0
  0
LINE
  5
FB69
  8
0
 10
4377.6499512397649596
 20
201.5454675987809026
 30
0.0
 11
4377.6499512397649596
 21
201.1734675987808032
 31
0.0
  0
LINE
  5
FB6A
  8
0
 10
4378.2724512397662693
 20
201.6154675987808957
 30
0.0
 11
4378.2724512397662693
 21
201.914465467480909
 31
0.0
  0
ARC
  5
FB6B
  8
0
 10
4378.2324512397672152
 20
201.6154675987808957
 30
0.0
 40
0.0400000000000045
 50
270.0
 51
359.9999999999984084
  0
LINE
  5
FB6C
  8
0
 10
4378.1448283663648908
 20
205.5951106337809051
 30
0.0
 11
4378.1448283663648908
 21
201.9344654673492983
 31
0.0
  0
LINE
  5
FB6D
  8
0
 10
4378.2387236035656315
 20
205.6351106337808972
 30
0.0
 11
4378.2387236035656315
 21
205.6558038676809019
 31
0.0
  0
ARC
  5
FB6E
  8
0
 10
4378.258723603566068
 20
205.6558038676809019
 30
0.0
 40
0.019999999999996
 50
89.9999999993746798
 51
180.0000000000098055
  0
ARC
  5
FB6F
  8
0
 10
4378.2187236035651949
 20
205.6351106337808972
 30
0.0
 40
0.019999999999996
 50
270.0001045272928195
 51
0.0000000000097707
  0
ARC
  5
FB70
  8
0
 10
4378.1648283663662369
 20
205.5951106337809051
 30
0.0
 40
0.0200000000000014
 50
89.9999999996352216
 51
179.9999999999951115
  0
LINE
  5
FB71
  8
0
 10
4378.5887869634661911
 20
205.2387470182871994
 30
0.0
 11
4378.5887869634661911
 21
204.9293145261727034
 31
0.0
  0
ARC
  5
FB72
  8
0
 10
4378.7656638533526348
 20
204.9391535659900967
 30
0.0
 40
0.1771503341244185
 50
183.1838816109236063
 51
232.8971294885830048
  0
ARC
  5
FB73
  8
0
 10
4378.7693802318372036
 20
205.2387470182871994
 30
0.0
 40
0.1805932683710315
 50
150.6627635644018142
 51
209.3372364355996069
  0
ARC
  5
FB74
  8
0
 10
4378.7691807173723646
 20
205.2383684770188097
 30
0.0
 40
0.1806053139221787
 50
125.8615927209895062
 51
150.5270640968774103
  0
ARC
  5
FB75
  8
0
 10
4378.7691152160541606
 20
205.2391323976314936
 30
0.0
 40
0.1805516577021514
 50
209.4850520351450029
 51
234.1517459485438906
  0
ARC
  5
FB76
  8
0
 10
4378.7747574899558458
 20
205.2899705466323894
 30
0.0
 40
0.241696150176046
 50
249.9805777883738074
 51
258.4261337775669745
  0
ARC
  5
FB77
  8
0
 10
4378.6313124420576059
 20
204.8962738089803963
 30
0.0
 40
0.1773188889391786
 50
69.9805777883737932
 51
75.9004015667510288
  0
ARC
  5
FB78
  8
0
 10
4378.6946094596978583
 20
205.080421543737998
 30
0.0
 40
0.0234982082828054
 50
211.1945762527437012
 51
233.1658334171065974
  0
ARC
  5
FB79
  8
0
 10
4378.7613873681493715
 20
205.1695745300471003
 30
0.0
 40
0.1348873640614933
 50
233.1658334171065974
 51
253.0647786883907884
  0
ARC
  5
FB7A
  8
0
 10
4378.7696857678056404
 20
205.1622592856197969
 30
0.0
 40
0.1182845777590809
 50
246.0069517976004931
 51
293.7065201018949097
  0
LINE
  5
FB7B
  8
0
 10
4378.9511155160653288
 20
205.2387470182871994
 30
0.0
 11
4378.9511155160653288
 21
204.9293145261727034
 31
0.0
  0
ARC
  5
FB7C
  8
0
 10
4378.7742386261797947
 20
204.9391535659900967
 30
0.0
 40
0.1771503341244185
 50
307.1028705114171089
 51
356.8161183933606253
  0
ARC
  5
FB7D
  8
0
 10
4378.7705222476952258
 20
205.2387470182871994
 30
0.0
 40
0.1805932683710315
 50
330.6627635644003931
 51
29.337236435598161
  0
ARC
  5
FB7E
  8
0
 10
4378.7707217621591553
 20
205.2383684770188097
 30
0.0
 40
0.1806053139221787
 50
29.4729359031226394
 51
54.138407279010508
  0
ARC
  5
FB7F
  8
0
 10
4378.7707872634773594
 20
205.2391323976314936
 30
0.0
 40
0.1805516577021514
 50
305.848254051456081
 51
330.5149479648550255
  0
ARC
  5
FB80
  8
0
 10
4378.7651449895738551
 20
205.2899705466323894
 30
0.0
 40
0.241696150176046
 50
281.5738662224330255
 51
290.0194222116261926
  0
ARC
  5
FB81
  8
0
 10
4378.908590037473914
 20
204.8962738089803963
 30
0.0
 40
0.1773188889391786
 50
104.0995984332489002
 51
110.0194222116262068
  0
ARC
  5
FB82
  8
0
 10
4378.8452930198336617
 20
205.080421543737998
 30
0.0
 40
0.0234982082828054
 50
306.8341665828933742
 51
328.8054237472563273
  0
ARC
  5
FB83
  8
0
 10
4378.778515111381239
 20
205.1695745300471003
 30
0.0
 40
0.1348873640614933
 50
286.9352213116092116
 51
306.8341665828933742
  0
ARC
  5
FB84
  8
0
 10
4378.76995123976576
 20
205.2408621690283042
 30
0.0
 40
0.1824436776474059
 50
234.257067048543604
 51
305.742932951456396
  0
ARC
  5
FB85
  8
0
 10
4378.76995123976576
 20
205.2681142485915871
 30
0.0
 40
0.2193202145252043
 50
258.5106382134659952
 51
281.4893617865344027
  0
ARC
  5
FB86
  8
0
 10
4378.76995123976576
 20
205.191718040235088
 30
0.0
 40
0.1585747590921777
 50
252.4352407643852985
 51
287.5647592356145879
  0
ARC
  5
FB87
  8
0
 10
4378.76995123976576
 20
205.2367415803659014
 30
0.0
 40
0.1823754977522707
 50
54.2416496212034787
 51
125.7583503787964929
  0
ARC
  5
FB88
  8
0
 10
4378.76995123976576
 20
204.9453939350252085
 30
0.0
 40
0.1847140429457293
 50
233.0041652140166093
 51
306.9958347859833907
  0
ARC
  5
FB89
  8
0
 10
4378.1648283662898393
 20
201.9344654673492983
 30
0.0
 40
0.0199999999236411
 50
179.9999999093950009
 51
270.0
  0
ARC
  5
FB8A
  8
0
 10
4377.679951239764705
 20
201.5454675987809026
 30
0.0
 40
0.0300000000000011
 50
90.0
 51
179.9999999999984084
  0
ARC
  5
FB8B
  8
0
 10
4377.6599512397660874
 20
201.1734675987808032
 30
0.0
 40
0.0099999999999989
 50
180.0
 51
270.0
  0
LINE
  5
FB8C
  8
0
 10
4379.8899512397656508
 20
201.5454675987809026
 30
0.0
 11
4379.8899512397656508
 21
201.1734675987808032
 31
0.0
  0
LINE
  5
FB8D
  8
0
 10
4379.2674512397661601
 20
201.6154675987808957
 30
0.0
 11
4379.2674512397661601
 21
201.914465467480909
 31
0.0
  0
ARC
  5
FB8E
  8
0
 10
4379.3074512397661238
 20
201.6154675987808957
 30
0.0
 40
0.0400000000000045
 50
180.0000000000015916
 51
270.0
  0
LINE
  5
FB8F
  8
0
 10
4379.3950741131648101
 20
205.5951106337809051
 30
0.0
 11
4379.3950741131648101
 21
201.9344654673492983
 31
0.0
  0
LINE
  5
FB90
  8
0
 10
4379.3011788759649789
 20
205.6351106337808972
 30
0.0
 11
4379.3011788759649789
 21
205.6558038676809019
 31
0.0
  0
ARC
  5
FB91
  8
0
 10
4379.2811788759663614
 20
205.6558038676809019
 30
0.0
 40
0.019999999999996
 50
359.9999999999902229
 51
90.0000000006253345
  0
ARC
  5
FB92
  8
0
 10
4379.321178875966325
 20
205.6351106337808972
 30
0.0
 40
0.019999999999996
 50
179.9999999999901945
 51
269.9998954727071805
  0
ARC
  5
FB93
  8
0
 10
4379.3750741131652831
 20
205.5951106337809051
 30
0.0
 40
0.0200000000000014
 50
0.0000000000048853
 51
90.0000000003647642
  0
ARC
  5
FB94
  8
0
 10
4379.3750741132425901
 20
201.9344654673492983
 30
0.0
 40
0.0199999999236411
 50
270.0
 51
0.0000000906049955
  0
ARC
  5
FB95
  8
0
 10
4379.859951239764996
 20
201.5454675987809026
 30
0.0
 40
0.0300000000000011
 50
0.0000000000016284
 51
90.0
  0
ARC
  5
FB96
  8
0
 10
4379.879951239766342
 20
201.1734675987808032
 30
0.0
 40
0.0099999999999989
 50
270.0
 51
0.0
  0
ENDSEC
  0
EOF
