  0
SECTION
  2
HEADER
  9
$ACADVER
  1
AC1009
  9
$INSBASE
 10
4811.8946052066148695
 20
219.5280080346676925
 30
0.0
  9
$EXTMIN
 10
4809.5878099310148173
 20
215.0750000346677098
 30
0.0
  9
$EXTMAX
 10
4811.9071343565037751
 20
220.6688741595380066
 30
0.0
  9
$LIMMIN
 10
0.0
 20
0.0
  9
$LIMMAX
 10
11.6929133858000007
 20
8.2677165353999982
  9
$ORTHOMODE
 70
     0
  9
$REGENMODE
 70
     1
  9
$FILLMODE
 70
     1
  9
$QTEXTMODE
 70
     0
  9
$MIRRTEXT
 70
     0
  9
$DRAGMODE
 70
     2
  9
$LTSCALE
 40
0.6431102362
  9
$OSMODE
 70
  4095
  9
$ATTMODE
 70
     1
  9
$TEXTSIZE
 40
0.2
  9
$TRACEWID
 40
0.05
  9
$TEXTSTYLE
  7
STANDARD
  9
$CLAYER
  8
0
  9
$CELTYPE
  6
BYLAYER
  9
$CECOLOR
 62
   256
  9
$DIMSCALE
 40
1.0
  9
$DIMASZ
 40
0.1875
  9
$DIMEXO
 40
0.0625
  9
$DIMDLI
 40
0.4443307087
  9
$DIMRND
 40
0.0
  9
$DIMDLE
 40
0.0
  9
$DIMEXE
 40
0.125
  9
$DIMTP
 40
0.01
  9
$DIMTM
 40
0.01
  9
$DIMTXT
 40
2.0
  9
$DIMCEN
 40
0.1052362205
  9
$DIMTSZ
 40
0.0
  9
$DIMTOL
 70
     1
  9
$DIMLIM
 70
     0
  9
$DIMTIH
 70
     1
  9
$DIMTOH
 70
     1
  9
$DIMSE1
 70
     0
  9
$DIMSE2
 70
     0
  9
$DIMTAD
 70
     0
  9
$DIMZIN
 70
     0
  9
$DIMBLK
  1

  9
$DIMASO
 70
     1
  9
$DIMSHO
 70
     1
  9
$DIMPOST
  1
\X
  9
$DIMAPOST
  1

  9
$DIMALT
 70
     1
  9
$DIMALTD
 70
     2
  9
$DIMALTF
 40
25.3999999999999986
  9
$DIMLFAC
 40
1.0
  9
$DIMTOFL
 70
     0
  9
$DIMTVP
 40
0.0
  9
$DIMTIX
 70
     0
  9
$DIMSOXD
 70
     0
  9
$DIMSAH
 70
     0
  9
$DIMBLK1
  1

  9
$DIMBLK2
  1

  9
$DIMSTYLE
  2
STANDARD
  9
$DIMCLRD
 70
     0
  9
$DIMCLRE
 70
     0
  9
$DIMCLRT
 70
     0
  9
$DIMTFAC
 40
1.0
  9
$DIMGAP
 40
0.09
  9
$LUNITS
 70
     2
  9
$LUPREC
 70
     4
  9
$SKETCHINC
 40
0.1
  9
$FILLETRAD
 40
0.0
  9
$AUNITS
 70
     0
  9
$AUPREC
 70
     0
  9
$MENU
  1
.
  9
$ELEVATION
 40
0.0
  9
$PELEVATION
 40
0.0
  9
$THICKNESS
 40
0.0
  9
$LIMCHECK
 70
     0
  9
$BLIPMODE
 70
     0
  9
$CHAMFERA
 40
0.0
  9
$CHAMFERB
 40
0.0
  9
$SKPOLY
 70
     0
  9
$TDCREATE
 40
2458060.468368056230247
  9
$TDUPDATE
 40
2459683.6876736111007631
  9
$TDINDWG
 40
0.4269515046
  9
$TDUSRTIMER
 40
0.4269515046
  9
$USRTIMER
 70
     1
  9
$ANGBASE
 50
0.0
  9
$ANGDIR
 70
     0
  9
$PDMODE
 70
     0
  9
$PDSIZE
 40
0.3125
  9
$PLINEWID
 40
0.0
  9
$COORDS
 70
     1
  9
$SPLFRAME
 70
     0
  9
$SPLINETYPE
 70
     6
  9
$SPLINESEGS
 70
     8
  9
$ATTDIA
 70
     1
  9
$ATTREQ
 70
     1
  9
$HANDLING
 70
     1
  9
$HANDSEED
  5
C360
  9
$SURFTAB1
 70
     6
  9
$SURFTAB2
 70
     6
  9
$SURFTYPE
 70
     6
  9
$SURFU
 70
     6
  9
$SURFV
 70
     6
  9
$UCSNAME
  2

  9
$UCSORG
 10
0.0
 20
0.0
 30
0.0
  9
$UCSXDIR
 10
1.0
 20
0.0
 30
0.0
  9
$UCSYDIR
 10
0.0
 20
1.0
 30
0.0
  9
$PUCSNAME
  2

  9
$PUCSORG
 10
0.0
 20
0.0
 30
0.0
  9
$PUCSXDIR
 10
1.0
 20
0.0
 30
0.0
  9
$PUCSYDIR
 10
0.0
 20
1.0
 30
0.0
  9
$USERI1
 70
     0
  9
$USERI2
 70
     0
  9
$USERI3
 70
     0
  9
$USERI4
 70
     0
  9
$USERI5
 70
     0
  9
$USERR1
 40
0.0
  9
$USERR2
 40
0.0
  9
$USERR3
 40
0.0
  9
$USERR4
 40
0.0
  9
$USERR5
 40
0.0
  9
$WORLDVIEW
 70
     1
  9
$SHADEDGE
 70
     3
  9
$SHADEDIF
 70
    70
  9
$TILEMODE
 70
     1
  9
$MAXACTVP
 70
    64
  9
$PLIMCHECK
 70
     0
  9
$PEXTMIN
 10
1.0000000000000000E+20
 20
1.0000000000000000E+20
 30
1.0000000000000000E+20
  9
$PEXTMAX
 10
-1.0000000000000000E+20
 20
-1.0000000000000000E+20
 30
-1.0000000000000000E+20
  9
$PLIMMIN
 10
0.0
 20
0.0
  9
$PLIMMAX
 10
12.0
 20
9.0
  9
$UNITMODE
 70
     0
  9
$VISRETAIN
 70
     1
  9
$PLINEGEN
 70
     0
  9
$PSLTSCALE
 70
     1
  0
ENDSEC
  0
SECTION
  2
TABLES
  0
TABLE
  2
VPORT
 70
     1
  0
VPORT
  2
*ACTIVE
 70
     0
 10
0.0
 20
0.0
 11
1.0
 21
1.0
 12
1007.2034047609470235
 22
91.8766749003529242
 13
0.0
 23
0.0
 14
1.0
 24
1.0
 15
0.0
 25
0.0
 16
0.0
 26
0.0
 36
17.1152628219792007
 17
3803.5440673828129547
 27
125.9952621967499056
 37
0.0
 40
5.6331782986924557
 41
2.005224660397074
 42
50.0
 43
0.0
 44
0.0
 50
0.0
 51
0.0
 71
     0
 72
   100
 73
     1
 74
     1
 75
     0
 76
     0
 77
     0
 78
     0
  0
ENDTAB
  0
TABLE
  2
LTYPE
 70
     2
  0
LTYPE
  2
CONTINUOUS
 70
     0
  3
Solid line
 72
    65
 73
     0
 40
0.0
  0
LTYPE
  2
PHANTOM2
 70
     0
  3
___ _ _ ___ _ _ ___ _ _ ___ _ _
 72
    65
 73
     6
 40
1.25
 49
0.625
 49
-0.125
 49
0.125
 49
-0.125
 49
0.125
 49
-0.125
  0
ENDTAB
  0
TABLE
  2
LAYER
 70
     2
  0
LAYER
  2
0
 70
     0
 62
   255
  6
CONTINUOUS
  0
LAYER
  2
DEFPOINTS
 70
     0
 62
     7
  6
CONTINUOUS
  0
ENDTAB
  0
TABLE
  2
STYLE
 70
     1
  0
STYLE
  2
STANDARD
 70
     0
 40
0.0
 41
0.8
 50
0.0
 71
     0
 42
0.2
  3
txt
  4

  0
ENDTAB
  0
TABLE
  2
VIEW
 70
     0
  0
ENDTAB
  0
TABLE
  2
UCS
 70
     0
  0
ENDTAB
  0
TABLE
  2
APPID
 70
     9
  0
APPID
  2
ACAD
 70
     0
  0
APPID
  2
ACAD_MLEADERVER
 70
     0
  0
APPID
  2
ACAD_EXEMPT_FROM_CAD_STANDARDS
 70
     0
  0
APPID
  2
ACAD_NAV_VCDISPLAY
 70
     0
  0
APPID
  2
ACAECLAYERSTANDARD
 70
     0
  0
APPID
  2
ACCMTRANSPARENCY
 70
     0
  0
APPID
  2
ACAD_DSTYLE_DIMJAG
 70
     0
  0
APPID
  2
ACAD_DSTYLE_DIMTALN
 70
     0
  0
APPID
  2
ACDBATTR
 70
     0
  0
ENDTAB
  0
TABLE
  2
DIMSTYLE
 70
     1
  0
DIMSTYLE
  2
STANDARD
 70
     0
  3

  4

  5

  6

  7

 40
1.0
 41
0.1875
 42
0.0625
 43
0.38
 44
0.125
 45
0.0
 46
0.0
 47
0.01
 48
0.01
140
0.15625
141
0.09
142
0.0
143
25.3999999999999986
144
1.0
145
0.0
146
1.0
147
0.09
 71
     1
 72
     0
 73
     1
 74
     1
 75
     0
 76
     0
 77
     0
 78
     4
170
     0
171
     2
172
     0
173
     0
174
     0
175
     0
176
     0
177
     0
178
     0
  0
ENDTAB
  0
ENDSEC
  0
SECTION
  2
BLOCKS
  0
BLOCK
  8
0
  2
$MODEL_SPACE
 70
     0
 10
0.0
 20
0.0
 30
0.0
  3
$MODEL_SPACE
  1

  0
ENDBLK
  5
21
  8
0
  0
BLOCK
 67
     1
  8
0
  2
$PAPER_SPACE
 70
     0
 10
0.0
 20
0.0
 30
0.0
  3
$PAPER_SPACE
  1

  0
ENDBLK
  5
1D
 67
     1
  8
0
  0
ENDSEC
  0
SECTION
  2
ENTITIES
  0
ATTDEF
  5
3930
  8
DEFPOINTS
 10
4811.8964676898349353
 20
219.5276608298763108
 30
0.0
 40
0.001
  1
P25337-00
  3

  2
MODELNUMBER
 70
     0
1001
ACDBATTR
1070
     0
1070
     1
  0
ATTDEF
  5
3931
  8
DEFPOINTS
 10
4811.8964676898349353
 20
219.5259941632095888
 30
0.0
 40
0.001
  1
PURE PALETTA
  3

  2
TRADENAME
 70
     0
1001
ACDBATTR
1070
     0
1070
     1
  0
ATTDEF
  5
3932
  8
DEFPOINTS
 10
4811.8964676898349353
 20
219.5243274965430089
 30
0.0
 40
0.001
  1
TOWEL RING
  3

  2
PRODUCT
 70
     0
1001
ACDBATTR
1070
     0
1070
     1
  0
LINE
  5
C192
  8
0
 10
4811.6148778021388352
 20
220.6688741595378929
 30
0.0
 11
4811.8746052066153425
 21
220.6688741595378929
 31
0.0
  0
LINE
  5
C193
  8
0
 10
4811.3973934155637835
 20
220.4025080173693141
 30
0.0
 11
4811.4876052066147167
 21
220.4025080173693141
 31
0.0
  0
LINE
  5
C194
  8
0
 10
4810.5178099310151083
 20
219.9315513241618021
 30
0.0
 11
4810.4593210963594174
 21
219.9315513241618021
 31
0.0
  0
LINE
  5
C195
  8
0
 10
4810.542809931013835
 20
219.9315513241618021
 30
0.0
 11
4811.3003689862152896
 21
219.9315513241618021
 31
0.0
  0
LINE
  5
C196
  8
0
 10
4811.8946052066148695
 20
220.6488741595379111
 30
0.0
 11
4811.8946052066148695
 21
218.4071419097975024
 31
0.0
  0
LINE
  5
C197
  8
0
 10
4811.512806405144147
 20
220.5663277602891981
 30
0.0
 11
4811.6000790006655734
 21
220.6623276154140001
 31
0.0
  0
LINE
  5
C198
  8
0
 10
4811.5076052066151533
 20
218.5031417649223897
 30
0.0
 11
4811.5076052066151533
 21
220.552874304413109
 31
0.0
  0
LINE
  5
C199
  8
0
 10
4811.3162268506021064
 20
220.3296257237545035
 30
0.0
 11
4811.383251279950855
 21
220.3966501530036055
 31
0.0
  0
LINE
  5
C19A
  8
0
 10
4811.3103689862164174
 20
220.3154835881202018
 30
0.0
 11
4811.3103689862164174
 21
218.7405324812152116
 31
0.0
  0
LINE
  5
C19B
  8
0
 10
4810.5328099310154357
 20
219.9215513241618112
 30
0.0
 11
4810.5328099310154357
 21
219.1344647451736876
 31
0.0
  0
LINE
  5
C19C
  8
0
 10
4810.4496792822146745
 20
219.9280419908101862
 30
0.0
 11
4810.3995962655581025
 21
219.8860173500193014
 31
0.0
  0
LINE
  5
C19D
  8
0
 10
4809.7553019310162199
 20
219.922008034667698
 30
0.0
 11
4809.7553019310162199
 21
215.2620080346677014
 31
0.0
  0
LINE
  5
C19E
  8
0
 10
4810.1293179310150663
 20
219.922008034667698
 30
0.0
 11
4810.1293179310150663
 21
215.2620080346677014
 31
0.0
  0
ARC
  5
C19F
  8
0
 10
4809.9423099310151883
 20
219.922008034667698
 30
0.0
 40
0.1870080000000005
 50
0.0
 51
180.0
  0
ARC
  5
C1A0
  8
0
 10
4811.330368986215035
 20
220.3154835881202018
 30
0.0
 40
0.02
 50
134.9999999572696083
 51
179.9999999999901945
  0
ARC
  5
C1A1
  8
0
 10
4811.3973934155637835
 20
220.3825080173693038
 30
0.0
 40
0.02
 50
90.0
 51
134.999999957265004
  0
ARC
  5
C1A2
  8
0
 10
4811.4876052066147167
 20
220.4225080173692959
 30
0.0
 40
0.02
 50
270.0
 51
0.0
  0
ARC
  5
C1A3
  8
0
 10
4811.5276052066146804
 20
220.552874304413109
 30
0.0
 40
0.02
 50
137.7263110087586995
 51
179.9999999999984084
  0
ARC
  5
C1A4
  8
0
 10
4811.6148778021388352
 20
220.6488741595379111
 30
0.0
 40
0.02
 50
90.0
 51
137.7263110087635027
  0
ARC
  5
C1A5
  8
0
 10
4811.8746052066153425
 20
220.6488741595379111
 30
0.0
 40
0.02
 50
359.9999999999984084
 51
90.0
  0
ARC
  5
C1A6
  8
0
 10
4811.3003689862152896
 20
219.9215513241618112
 30
0.0
 40
0.01
 50
0.000000000014656
 51
90.0
  0
ARC
  5
C1A7
  8
0
 10
4810.542809931013835
 20
219.9215513241618112
 30
0.0
 40
0.01
 50
90.0
 51
179.9999999999901945
  0
ARC
  5
C1A8
  8
0
 10
4810.5178099310151083
 20
219.916551324161702
 30
0.0
 40
0.015
 50
0.0000000000065138
 51
90.0
  0
ARC
  5
C1A9
  8
0
 10
4810.4593210963594174
 20
219.916551324161702
 30
0.0
 40
0.015
 50
90.0
 51
129.9999999899553131
  0
ARC
  5
C1AA
  8
0
 10
4810.389954451414269
 20
219.8975080166677003
 30
0.0
 40
0.015
 50
270.0
 51
309.9999999899511067
  0
LINE
  5
C1AB
  8
0
 10
4811.6148778021388352
 20
218.3871419097974922
 30
0.0
 11
4811.8746052066153425
 21
218.3871419097974922
 31
0.0
  0
LINE
  5
C1AC
  8
0
 10
4811.3973934155637835
 20
218.6535080519662131
 30
0.0
 11
4811.4876052066147167
 21
218.6535080519662131
 31
0.0
  0
LINE
  5
C1AD
  8
0
 10
4810.5178099310151083
 20
219.1244647451736967
 30
0.0
 11
4810.4593210963594174
 21
219.1244647451736967
 31
0.0
  0
LINE
  5
C1AE
  8
0
 10
4810.542809931013835
 20
219.1244647451736967
 30
0.0
 11
4811.3003689862152896
 21
219.1244647451736967
 31
0.0
  0
LINE
  5
C1AF
  8
0
 10
4811.512806405144147
 20
218.4896883090463007
 30
0.0
 11
4811.6000790006655734
 21
218.3936884539212997
 31
0.0
  0
LINE
  5
C1B0
  8
0
 10
4811.3162268506021064
 20
218.72639034558091
 30
0.0
 11
4811.383251279950855
 21
218.6593659163318932
 31
0.0
  0
LINE
  5
C1B1
  8
0
 10
4810.4496792822146745
 20
219.1279740785251988
 30
0.0
 11
4810.3995962655581025
 21
219.1699987193161974
 31
0.0
  0
ARC
  5
C1B2
  8
0
 10
4811.330368986215035
 20
218.7405324812152116
 30
0.0
 40
0.02
 50
180.0000000000098055
 51
225.0000000427303917
  0
ARC
  5
C1B3
  8
0
 10
4811.3973934155637835
 20
218.6735080519661096
 30
0.0
 40
0.02
 50
225.000000042734996
 51
270.0
  0
ARC
  5
C1B4
  8
0
 10
4811.4876052066147167
 20
218.6335080519660892
 30
0.0
 40
0.02
 50
0.0
 51
90.0
  0
ARC
  5
C1B5
  8
0
 10
4811.5276052066146804
 20
218.5031417649223897
 30
0.0
 40
0.02
 50
180.0000000000015916
 51
222.2736889912413005
  0
ARC
  5
C1B6
  8
0
 10
4811.6148778021388352
 20
218.4071419097973887
 30
0.0
 40
0.02
 50
222.2736889912364973
 51
270.0
  0
ARC
  5
C1B7
  8
0
 10
4811.8746052066153425
 20
218.4071419097975024
 30
0.0
 40
0.02
 50
270.0
 51
0.0000000000016284
  0
ARC
  5
C1B8
  8
0
 10
4811.3003689862152896
 20
219.1344647451736876
 30
0.0
 40
0.01
 50
270.0
 51
359.9999999999836859
  0
ARC
  5
C1B9
  8
0
 10
4810.542809931013835
 20
219.1344647451736876
 30
0.0
 40
0.01
 50
180.0000000000098055
 51
270.0
  0
ARC
  5
C1BA
  8
0
 10
4810.5178099310151083
 20
219.1394647451735977
 30
0.0
 40
0.015
 50
270.0
 51
359.9999999999935199
  0
ARC
  5
C1BB
  8
0
 10
4810.4593210963594174
 20
219.1394647451735977
 30
0.0
 40
0.015
 50
230.0000000100446869
 51
270.0
  0
ARC
  5
C1BC
  8
0
 10
4810.389954451414269
 20
219.1585080526677132
 30
0.0
 40
0.015
 50
50.0000000100488791
 51
90.0
  0
ARC
  5
C1BD
  8
0
 10
4809.9423099310151883
 20
215.2620080346677014
 30
0.0
 40
0.1870080000000005
 50
180.0
 51
0.0
  0
LINE
  5
C1BE
  8
0
 10
4810.3899545388821934
 20
219.1735079979036982
 30
0.0
 11
4810.1293179310150663
 21
219.1735079335954026
 31
0.0
  0
LINE
  5
C1BF
  8
0
 10
4809.7553019310162199
 20
219.1735078413123858
 30
0.0
 11
4809.6668099505059217
 21
219.1735078194782886
 31
0.0
  0
ARC
  5
C1C0
  8
0
 10
4809.6668099310163598
 20
219.2525078194782964
 30
0.0
 40
0.079
 50
180.0
 51
270.0000141368740856
  0
LINE
  5
C1C1
  8
0
 10
4811.6000790006655734
 20
218.3936884539214134
 30
0.0
 11
4811.6000790006655734
 21
220.6623276154140001
 31
0.0
  0
LINE
  5
C1C2
  8
0
 10
4811.383251279950855
 20
218.6593659163318932
 30
0.0
 11
4811.383251279950855
 21
220.3966501530036055
 31
0.0
  0
LINE
  5
C1C3
  8
0
 10
4810.4496792822146745
 20
219.1279740785251988
 30
0.0
 11
4810.4496792822146745
 21
219.9280419908101862
 31
0.0
  0
LINE
  5
C1C4
  8
0
 10
4810.3995962655581025
 20
219.1699987193161974
 30
0.0
 11
4810.3995962655581025
 21
219.8860173500193014
 31
0.0
  0
LINE
  5
C1C5
  8
0
 10
4809.6730231343508422
 20
220.2760080346677114
 30
0.0
 11
4810.2115966916790057
 21
220.2760080346677114
 31
0.0
  0
LINE
  5
C1C6
  8
0
 10
4809.5922033291899425
 20
220.2014014328424025
 30
0.0
 11
4809.6624165326256843
 21
220.2716146363779899
 31
0.0
  0
ARC
  5
C1C7
  8
0
 10
4809.6730231343508422
 20
220.2610080346676966
 30
0.0
 40
0.015
 50
90.0
 51
135.0000000408224139
  0
LINE
  5
C1C8
  8
0
 10
4809.5878099310148173
 20
219.2525078194782964
 30
0.0
 11
4809.5878099310148173
 21
220.1907948312320968
 31
0.0
  0
ARC
  5
C1C9
  8
0
 10
4809.6028099310151447
 20
220.1907948312320968
 30
0.0
 40
0.015
 50
135.0000000407740117
 51
180.0000000000065086
  0
LINE
  5
C1CA
  8
0
 10
4810.2924164968408149
 20
220.2014014328424025
 30
0.0
 11
4810.2222032934050731
 21
220.2716146363779899
 31
0.0
  0
ARC
  5
C1CB
  8
0
 10
4810.2115966916790057
 20
220.2610080346676966
 30
0.0
 40
0.015
 50
44.9999999591776003
 51
90.0
  0
LINE
  5
C1CC
  8
0
 10
4810.2968098950150306
 20
219.9615080166676933
 30
0.0
 11
4810.2968098950150306
 21
220.1907948312320968
 31
0.0
  0
ARC
  5
C1CD
  8
0
 10
4810.2818098950137937
 20
220.1907948312320968
 30
0.0
 40
0.015
 50
359.9999999999935199
 51
44.9999999592259528
  0
LINE
  5
C1CE
  8
0
 10
4810.2924164967407705
 20
220.2014014329423901
 30
0.0
 11
4809.5922033292899869
 21
220.2014014329423901
 31
0.0
  0
LINE
  5
C1CF
  8
0
 10
4810.389954451414269
 20
219.8825080166677139
 30
0.0
 11
4810.3758098950147541
 21
219.8825080166677139
 31
0.0
  0
ARC
  5
C1D0
  8
0
 10
4810.3758098950147541
 20
219.9615080166676933
 30
0.0
 40
0.079
 50
180.0
 51
270.0
  0
LINE
  5
C1D1
  8
0
 10
4809.6109485021934233
 20
219.1966463768731046
 30
0.0
 11
4809.7553019310162199
 21
219.3409998523067941
 31
0.0
  0
LINE
  5
C1D2
  8
0
 10
4810.1293179310150663
 20
219.7150159730759071
 30
0.0
 11
4810.3199484683200353
 21
219.9056465719351934
 31
0.0
  0
ARC
  5
C1D3
  8
0
 10
4809.9423099310151883
 20
219.922008034667698
 30
0.0
 40
0.2265000000000002
 50
325.6536733532192898
 51
214.3463266467807102
  0
ENDSEC
  0
EOF
