  0
SECTION
  2
HEADER
  9
$ACADVER
  1
AC1009
  9
$INSBASE
 10
13.8670572375860406
 20
33.5108228843023213
 30
0.0
  9
$EXTMIN
 10
12.4913206359457796
 20
33.5102639260385331
 30
-0.0000000000000058
  9
$EXTMAX
 10
17.6769900133865399
 20
50.4663741909275529
 30
0.0000000000000104
  9
$LIMMIN
 10
0.0
 20
0.0
  9
$LIMMAX
 10
46.8110236219999933
 20
33.1102362204999991
  9
$ORTHOMODE
 70
     1
  9
$REGENMODE
 70
     1
  9
$FILLMODE
 70
     1
  9
$QTEXTMODE
 70
     0
  9
$MIRRTEXT
 70
     0
  9
$DRAGMODE
 70
     2
  9
$LTSCALE
 40
2.5746062992000001
  9
$OSMODE
 70
     7
  9
$ATTMODE
 70
     1
  9
$TEXTSIZE
 40
0.001
  9
$TRACEWID
 40
0.05
  9
$TEXTSTYLE
  7
STANDARD
  9
$CLAYER
  8
0
  9
$CELTYPE
  6
BYLAYER
  9
$CECOLOR
 62
   256
  9
$DIMSCALE
 40
1.0
  9
$DIMASZ
 40
0.1875
  9
$DIMEXO
 40
0.0625
  9
$DIMDLI
 40
1.778818897599999
  9
$DIMRND
 40
0.0
  9
$DIMDLE
 40
0.0
  9
$DIMEXE
 40
0.125
  9
$DIMTP
 40
0.0
  9
$DIMTM
 40
0.0
  9
$DIMTXT
 40
0.15625
  9
$DIMCEN
 40
0.4212992126
  9
$DIMTSZ
 40
0.0
  9
$DIMTOL
 70
     0
  9
$DIMLIM
 70
     0
  9
$DIMTIH
 70
     1
  9
$DIMTOH
 70
     1
  9
$DIMSE1
 70
     0
  9
$DIMSE2
 70
     0
  9
$DIMTAD
 70
     0
  9
$DIMZIN
 70
     0
  9
$DIMBLK
  1
CLOSED
  9
$DIMASO
 70
     1
  9
$DIMSHO
 70
     1
  9
$DIMPOST
  1

  9
$DIMAPOST
  1

  9
$DIMALT
 70
     0
  9
$DIMALTD
 70
     2
  9
$DIMALTF
 40
25.3999999999999986
  9
$DIMLFAC
 40
1.0
  9
$DIMTOFL
 70
     0
  9
$DIMTVP
 40
0.0
  9
$DIMTIX
 70
     0
  9
$DIMSOXD
 70
     0
  9
$DIMSAH
 70
     0
  9
$DIMBLK1
  1

  9
$DIMBLK2
  1

  9
$DIMSTYLE
  2
STANDARD
  9
$DIMCLRD
 70
     0
  9
$DIMCLRE
 70
     0
  9
$DIMCLRT
 70
     0
  9
$DIMTFAC
 40
1.0
  9
$DIMGAP
 40
0.09
  9
$LUNITS
 70
     2
  9
$LUPREC
 70
     4
  9
$SKETCHINC
 40
0.1
  9
$FILLETRAD
 40
0.0
  9
$AUNITS
 70
     0
  9
$AUPREC
 70
     0
  9
$MENU
  1
.
  9
$ELEVATION
 40
0.0
  9
$PELEVATION
 40
0.0
  9
$THICKNESS
 40
0.0
  9
$LIMCHECK
 70
     0
  9
$BLIPMODE
 70
     0
  9
$CHAMFERA
 40
0.0
  9
$CHAMFERB
 40
0.0
  9
$SKPOLY
 70
     0
  9
$TDCREATE
 40
2457200.4849421298131347
  9
$TDUPDATE
 40
2459609.5301157408393919
  9
$TDINDWG
 40
0.2267413194
  9
$TDUSRTIMER
 40
0.2267413194
  9
$USRTIMER
 70
     1
  9
$ANGBASE
 50
0.0
  9
$ANGDIR
 70
     0
  9
$PDMODE
 70
     0
  9
$PDSIZE
 40
0.3125
  9
$PLINEWID
 40
0.0
  9
$COORDS
 70
     1
  9
$SPLFRAME
 70
     0
  9
$SPLINETYPE
 70
     6
  9
$SPLINESEGS
 70
     8
  9
$ATTDIA
 70
     1
  9
$ATTREQ
 70
     1
  9
$HANDLING
 70
     1
  9
$HANDSEED
  5
2672
  9
$SURFTAB1
 70
     6
  9
$SURFTAB2
 70
     6
  9
$SURFTYPE
 70
     6
  9
$SURFU
 70
     6
  9
$SURFV
 70
     6
  9
$UCSNAME
  2

  9
$UCSORG
 10
0.0
 20
0.0
 30
0.0
  9
$UCSXDIR
 10
1.0
 20
0.0
 30
0.0
  9
$UCSYDIR
 10
0.0
 20
1.0
 30
0.0
  9
$PUCSNAME
  2

  9
$PUCSORG
 10
0.0
 20
0.0
 30
0.0
  9
$PUCSXDIR
 10
1.0
 20
0.0
 30
0.0
  9
$PUCSYDIR
 10
0.0
 20
1.0
 30
0.0
  9
$USERI1
 70
     0
  9
$USERI2
 70
     0
  9
$USERI3
 70
     0
  9
$USERI4
 70
     0
  9
$USERI5
 70
     0
  9
$USERR1
 40
0.0
  9
$USERR2
 40
0.0
  9
$USERR3
 40
0.0
  9
$USERR4
 40
0.0
  9
$USERR5
 40
0.0
  9
$WORLDVIEW
 70
     1
  9
$SHADEDGE
 70
     3
  9
$SHADEDIF
 70
    70
  9
$TILEMODE
 70
     1
  9
$MAXACTVP
 70
    64
  9
$PLIMCHECK
 70
     0
  9
$PEXTMIN
 10
1.0000000000000000E+20
 20
1.0000000000000000E+20
 30
1.0000000000000000E+20
  9
$PEXTMAX
 10
-1.0000000000000000E+20
 20
-1.0000000000000000E+20
 30
-1.0000000000000000E+20
  9
$PLIMMIN
 10
0.0
 20
0.0
  9
$PLIMMAX
 10
12.0
 20
9.0
  9
$UNITMODE
 70
     0
  9
$VISRETAIN
 70
     1
  9
$PLINEGEN
 70
     0
  9
$PSLTSCALE
 70
     1
  0
ENDSEC
  0
SECTION
  2
TABLES
  0
TABLE
  2
VPORT
 70
     1
  0
VPORT
  2
*ACTIVE
 70
     0
 10
0.0
 20
0.0
 11
1.0
 21
1.0
 12
15.0841553246661597
 22
41.988319058483043
 13
0.0
 23
0.0
 14
1.0
 24
1.0
 15
0.0
 25
0.0
 16
0.0
 26
0.0
 36
1.0
 17
0.0
 27
0.0
 37
0.0
 40
17.0775143956638793
 41
2.2831541218637992
 42
50.0
 43
0.0
 44
0.0
 50
0.0
 51
0.0
 71
     0
 72
   100
 73
     1
 74
     1
 75
     0
 76
     0
 77
     0
 78
     0
  0
ENDTAB
  0
TABLE
  2
LTYPE
 70
     1
  0
LTYPE
  2
CONTINUOUS
 70
     0
  3
Solid line
 72
    65
 73
     0
 40
0.0
  0
ENDTAB
  0
TABLE
  2
LAYER
 70
     2
  0
LAYER
  2
0
 70
     0
 62
     7
  6
CONTINUOUS
  0
LAYER
  2
DEFPOINTS
 70
     0
 62
     7
  6
CONTINUOUS
  0
ENDTAB
  0
TABLE
  2
STYLE
 70
     1
  0
STYLE
  2
STANDARD
 70
     0
 40
0.0
 41
0.8
 50
0.0
 71
     0
 42
0.001
  3
txt
  4

  0
ENDTAB
  0
TABLE
  2
VIEW
 70
     0
  0
ENDTAB
  0
TABLE
  2
UCS
 70
     0
  0
ENDTAB
  0
TABLE
  2
APPID
 70
     6
  0
APPID
  2
ACAD
 70
     0
  0
APPID
  2
ACAD_MLEADERVER
 70
     0
  0
APPID
  2
ACAD_NAV_VCDISPLAY
 70
     0
  0
APPID
  2
ACAD_EXEMPT_FROM_CAD_STANDARDS
 70
     0
  0
APPID
  2
ACAD_DSTYLE_DIMRADIAL_EXTENSION
 70
     0
  0
APPID
  2
ACDBATTR
 70
     0
  0
ENDTAB
  0
TABLE
  2
DIMSTYLE
 70
     1
  0
DIMSTYLE
  2
STANDARD
 70
     0
  3

  4

  5
CLOSED
  6
CLOSED
  7
CLOSED
 40
1.0
 41
0.1875
 42
0.0625
 43
0.38
 44
0.125
 45
0.0
 46
0.0
 47
1.5
 48
1.5
140
0.15625
141
0.09
142
0.0
143
25.3999999999999986
144
1.0
145
0.0
146
1.0
147
0.09
 71
     0
 72
     0
 73
     1
 74
     1
 75
     0
 76
     0
 77
     0
 78
     4
170
     0
171
     2
172
     0
173
     0
174
     0
175
     0
176
     0
177
     0
178
     0
  0
ENDTAB
  0
ENDSEC
  0
SECTION
  2
BLOCKS
  0
BLOCK
  8
0
  2
$MODEL_SPACE
 70
     2
 10
0.0
 20
0.0
 30
0.0
  3
$MODEL_SPACE
  1

  0
ENDBLK
  5
21
  8
0
  0
BLOCK
 67
     1
  8
0
  2
$PAPER_SPACE
 70
     0
 10
0.0
 20
0.0
 30
0.0
  3
$PAPER_SPACE
  1

  0
ENDBLK
  5
1D
 67
     1
  8
0
  0
BLOCK
  8
0
  2
_CLOSED
 70
     0
 10
0.0
 20
0.0
 30
0.0
  3
_CLOSED
  1

  0
LINE
  5
233
  8
0
  6
BYBLOCK
 62
     0
 10
0.0
 20
0.0
 30
0.0
 11
-1.0
 21
0.1666666667
 31
0.0
  0
LINE
  5
234
  8
0
  6
BYBLOCK
 62
     0
 10
-1.0
 20
0.1666666667
 30
0.0
 11
-1.0
 21
-0.1666666667
 31
0.0
  0
LINE
  5
235
  8
0
  6
BYBLOCK
 62
     0
 10
-1.0
 20
-0.1666666667
 30
0.0
 11
0.0
 21
0.0
 31
0.0
  0
LINE
  5
236
  8
0
  6
BYBLOCK
 62
     0
 10
-1.0
 20
0.0
 30
0.0
 11
0.0
 21
0.0
 31
0.0
  0
ENDBLK
  5
237
  8
0
  6
BYBLOCK
 62
     0
  0
ENDSEC
  0
SECTION
  2
ENTITIES
  0
ATTDEF
  5
A78
  8
DEFPOINTS
 10
13.8671127007155892
 20
33.5142113940161366
 30
0.0
 40
0.001
  1
P25517-00
  3

  2
MODELNUMBER
 70
     0
1001
ACDBATTR
1070
     0
1070
     1
  0
ATTDEF
  5
A79
  8
DEFPOINTS
 10
13.8671127007155892
 20
33.5125447273494714
 30
0.0
 40
0.001
  1
VIR STIL
  3

  2
TRADENAME
 70
     0
1001
ACDBATTR
1070
     0
1070
     1
  0
ATTDEF
  5
A7A
  8
DEFPOINTS
 10
13.8671127007155892
 20
33.5108780606828134
 30
0.0
 40
0.001
  1
KITCHEN SINK FAUCET
  3

  2
PRODUCT
 70
     0
1001
ACDBATTR
1070
     0
1070
     1
  0
LINE
  5
2243
  8
0
 10
12.4920572375860406
 20
33.8108228843023184
 30
0.0
 11
15.2420572375860406
 21
33.8108228843023184
 31
0.0
  0
LINE
  5
2244
  8
0
 10
12.5820572375860404
 20
33.8908228843023167
 30
0.0
 11
15.1520572375860301
 21
33.8908228843023167
 31
0.0
  0
LINE
  5
2245
  8
0
 10
12.6620572375860494
 20
33.9708228843023221
 30
0.0
 11
15.0720572375860495
 21
33.9708228843023221
 31
0.0
  0
LINE
  5
2246
  8
0
 10
12.4920572375860406
 20
33.5108228843023213
 30
0.0
 11
15.2420572375860406
 21
33.5108228843023213
 31
0.0
  0
LINE
  5
2247
  8
0
 10
12.4920572375860406
 20
33.5108228843023213
 30
0.0
 11
12.4920572375860406
 21
33.8108228843023184
 31
0.0
  0
LINE
  5
2248
  8
0
 10
12.5820572375860404
 20
33.8108228843023184
 30
0.0
 11
12.5820572375860404
 21
33.8908228843023167
 31
0.0
  0
LINE
  5
2249
  8
0
 10
12.6620572375860494
 20
33.8908228843023167
 30
0.0
 11
12.6620572375860494
 21
33.9708228843023221
 31
0.0
  0
LINE
  5
224B
  8
0
 10
12.8045572375860406
 20
33.9708228843023221
 30
0.0
 11
12.8045572375860406
 21
38.8108228843023113
 31
0.0
  0
LINE
  5
224C
  8
0
 10
12.8045572375860406
 20
38.8108228843023113
 30
0.0
 11
14.9295572375860406
 21
38.8108228843023113
 31
0.0
  0
LINE
  5
224D
  8
0
 10
12.9420572375860505
 20
38.8908228843023167
 30
0.0
 11
14.7920572375860502
 21
38.8908228843023167
 31
0.0
  0
LINE
  5
224E
  8
0
 10
12.9420572375860505
 20
38.8108228843023113
 30
0.0
 11
12.9420572375860505
 21
38.8908228843023167
 31
0.0
  0
LINE
  5
224F
  8
0
 10
13.0220572375860399
 20
38.9708228843023221
 30
0.0
 11
14.7120572375860394
 21
38.9708228843023221
 31
0.0
  0
LINE
  5
2250
  8
0
 10
13.0220572375860399
 20
38.8908228843023167
 30
0.0
 11
13.0220572375860399
 21
38.9708228843023221
 31
0.0
  0
LINE
  5
2251
  8
0
 10
13.3045572375860406
 20
39.0308228843050813
 30
0.0
 11
13.3045572375860406
 21
42.6620845322275102
 31
0.0
  0
LINE
  5
2252
  8
0
 10
13.3045572375860406
 20
45.7110844653162403
 30
0.0
 11
13.3045572375860406
 21
49.9007598312023219
 31
0.0
  0
LINE
  5
2253
  8
0
 10
13.3344843662881605
 20
39.0008229728023181
 30
0.0
 11
14.39963010888391
 21
39.0008229728023181
 31
0.0
  0
LINE
  5
2254
  8
0
 10
13.3145572375860297
 20
38.9708228843023221
 30
0.0
 11
13.3145572375860297
 21
38.980822884302313
 31
0.0
  0
ARC
  5
2255
  8
0
 10
13.3345573886714099
 20
38.9808228217196415
 30
0.0
 40
0.0200001510854618
 50
89.9990445581656218
 51
179.9998207151814995
  0
ARC
  5
2256
  8
0
 10
13.3345572375927208
 20
39.0308228843050813
 30
0.0
 40
0.0300000000066811
 50
180.0000000052839084
 51
269.8608259232020146
  0
ARC
  5
2257
  8
0
 10
13.3544907798018606
 20
45.7613701026946273
 30
0.0
 40
0.0499373135816084
 50
180.7041693279223864
 51
219.0204952354204124
  0
LINE
  5
2258
  8
0
 10
17.6745033467860502
 20
40.0658228843023068
 30
0.0
 11
17.6745033467860502
 21
37.2758228843023218
 31
0.0
  0
LINE
  5
2259
  8
0
 10
17.6395033467860287
 20
40.1458228843022766
 30
0.0
 11
17.6395033467860287
 21
40.0658228843023068
 31
0.0
  0
LINE
  5
225A
  8
0
 10
14.4295572375860406
 20
39.0308228843050813
 30
0.0
 11
14.4295572375860406
 21
42.6620845322275102
 31
0.0
  0
LINE
  5
225B
  8
0
 10
14.4295572375860406
 20
45.7110844653162403
 30
0.0
 11
14.4295572375860406
 21
49.9007598312023219
 31
0.0
  0
LINE
  5
225C
  8
0
 10
14.2487775904860392
 20
38.9708228843023221
 30
0.0
 11
14.2486446404860505
 21
38.9810820454023172
 31
0.0
  0
ARC
  5
225D
  8
0
 10
14.2286461667709698
 20
38.980822819175927
 30
0.0
 40
0.020000153728627
 50
0.7426435215725324
 51
90.0057934543659854
  0
LINE
  5
225E
  8
0
 10
14.2586536187513406
 20
39.0008229728023181
 30
0.0
 11
14.2587641677999102
 21
38.9708228843023221
 31
0.0
  0
LINE
  5
225F
  8
0
 10
14.3458706930860505
 20
38.9708228843023221
 30
0.0
 11
14.3459620695860508
 21
38.980822884302313
 31
0.0
  0
ARC
  5
2260
  8
0
 10
14.3242401863916999
 20
38.9810213712682909
 30
0.0
 40
0.0217227900276309
 50
359.4764657911268841
 51
65.7216700375474403
  0
LINE
  5
2261
  8
0
 10
14.4195572375860497
 20
38.9708228843023221
 30
0.0
 11
14.4195572375860497
 21
38.980822884302313
 31
0.0
  0
ARC
  5
2262
  8
0
 10
14.3995570865006908
 20
38.9808228217196415
 30
0.0
 40
0.0200001510854618
 50
0.0001792848185401
 51
90.000955441834364
  0
ARC
  5
2263
  8
0
 10
14.3995572375793603
 20
39.0308228843050813
 30
0.0
 40
0.0300000000066811
 50
270.1391740767979854
 51
359.99999999471612
  0
LINE
  5
2264
  8
0
 10
17.6745033467860502
 20
40.0658228843023068
 30
0.0
 11
16.9245033467860502
 21
40.0658228843023068
 31
0.0
  0
LINE
  5
2265
  8
0
 10
17.6195033467859616
 20
40.1658228843023082
 30
0.0
 11
16.9795033467860605
 21
40.1658228843023082
 31
0.0
  0
ARC
  5
2266
  8
0
 10
17.6195033467860398
 20
40.145822884302298
 30
0.0
 40
0.0200000000000085
 50
0.0000000000179129
 51
90.0000000002214477
  0
LINE
  5
2267
  8
0
 10
17.6745033467860502
 20
37.2758228843023218
 30
0.0
 11
16.9245033467860502
 21
37.2758228843023218
 31
0.0
  0
LINE
  5
2268
  8
0
 10
17.6345033467860297
 20
37.2758228843023218
 30
0.0
 11
17.6345033467860297
 21
36.5498228729000232
 31
0.0
  0
LINE
  5
2269
  8
0
 10
16.9245033467860502
 20
40.0658228843023068
 30
0.0
 11
16.9245033467860502
 21
37.2758228843023218
 31
0.0
  0
LINE
  5
226A
  8
0
 10
16.9595033467860503
 20
40.1458228843022766
 30
0.0
 11
16.9595033467860503
 21
40.0658228843023068
 31
0.0
  0
ARC
  5
226B
  8
0
 10
16.9795033467860605
 20
40.145822884302298
 30
0.0
 40
0.0200000000000085
 50
89.999999999778538
 51
179.9999999999820943
  0
LINE
  5
226C
  8
0
 10
16.9645033467860387
 20
37.2758228843023218
 30
0.0
 11
16.9645033467860387
 21
37.2198228843023102
 31
0.0
  0
ARC
  5
226D
  8
0
 10
17.5954869261339617
 20
36.5498393049442427
 30
0.0
 40
0.0390164241123166
 50
270.0241659278278803
 51
359.9758694780439896
  0
LINE
  5
226F
  8
0
 10
15.2420572375860406
 20
33.5108228843023213
 30
0.0
 11
15.2420572375860406
 21
33.8108228843023184
 31
0.0
  0
LINE
  5
2270
  8
0
 10
15.1520572375860301
 20
33.8108228843023184
 30
0.0
 11
15.1520572375860301
 21
33.8908228843023167
 31
0.0
  0
LINE
  5
2271
  8
0
 10
15.0720572375860495
 20
33.8908228843023167
 30
0.0
 11
15.0720572375860495
 21
33.9708228843023221
 31
0.0
  0
LINE
  5
2273
  8
0
 10
14.9295572375860406
 20
33.9708228843023221
 30
0.0
 11
14.9295572375860406
 21
35.733473495125331
 31
0.0
  0
LINE
  5
2274
  8
0
 10
14.9295572375860406
 20
37.9581722734793132
 30
0.0
 11
14.9295572375860406
 21
38.8108228843023113
 31
0.0
  0
LINE
  5
2275
  8
0
 10
14.7920572375860502
 20
38.8108228843023113
 30
0.0
 11
14.7920572375860502
 21
38.8908228843023167
 31
0.0
  0
LINE
  5
2276
  8
0
 10
14.7120572375860394
 20
38.8908228843023167
 30
0.0
 11
14.7120572375860394
 21
38.9708228843023221
 31
0.0
  0
LINE
  5
2277
  8
0
 10
14.4195572375860497
 20
38.9708228843023221
 30
0.0
 11
14.4195572375860497
 21
38.980822884302313
 31
0.0
  0
ARC
  5
2278
  8
0
 10
14.3995570865006908
 20
38.9808228217196415
 30
0.0
 40
0.0200001510854618
 50
0.0001792848185401
 51
90.000955441834364
  0
ARC
  5
2279
  8
0
 10
14.3995572375793603
 20
39.0308228843050813
 30
0.0
 40
0.0300000000066811
 50
270.1391740767979854
 51
359.99999999471612
  0
ARC
  5
227A
  8
0
 10
13.8670572375860406
 20
49.9007598312023219
 30
0.0
 40
0.5624999999999999
 50
0.0
 51
180.0
  0
ARC
  5
227B
  8
0
 10
13.2981726432880407
 20
42.7612890903696226
 30
0.0
 40
0.0190063558561304
 50
148.9846123465499943
 51
211.0153876534500057
  0
ARC
  5
227C
  8
0
 10
13.3177422245788097
 20
42.773054835448491
 30
0.0
 40
0.0418405685458117
 50
211.0153876534496078
 51
221.6393724928981896
  0
ARC
  5
227D
  8
0
 10
13.3333953208618006
 20
42.7898174788562287
 30
0.0
 40
0.0647115109827569
 50
223.5228579760436105
 51
238.4006989101401928
  0
ARC
  5
227E
  8
0
 10
13.3177422245788097
 20
42.7495233452907399
 30
0.0
 40
0.0418405685458117
 50
138.3606275071018104
 51
148.9846123465503069
  0
ARC
  5
227F
  8
0
 10
13.3345700589516394
 20
42.7313176387213502
 30
0.0
 40
0.066557493212497
 50
122.0224361999671032
 51
136.2727866091445037
  0
ARC
  5
2280
  8
0
 10
13.8664047685968193
 20
39.6493092296253025
 30
0.0
 40
3.2139525124846018
 50
85.3824121189862666
 51
94.6175878810137192
  0
ARC
  5
2281
  8
0
 10
13.7707585429602108
 20
40.882868715257608
 30
0.0
 40
1.976700898685257
 50
94.7327128705368438
 51
98.5276993679031534
  0
ARC
  5
2282
  8
0
 10
13.4031607390437806
 20
42.6150577225366973
 30
0.0
 40
0.2015279329357845
 50
109.1807815170535036
 51
121.0292983958721038
  0
ARC
  5
2283
  8
0
 10
13.5281692006556895
 20
42.2502244925018928
 30
0.0
 40
0.5871823025470267
 50
102.6401975147243064
 51
109.0054260546239959
  0
ARC
  5
2284
  8
0
 10
13.6498865799484008
 20
41.6978910379004333
 30
0.0
 40
1.152766179805605
 50
98.5934069886389608
 51
102.5358920053342047
  0
LINE
  5
2285
  8
0
 10
13.2864042278860399
 20
42.7772463166235681
 30
0.0
 11
13.2864042278860399
 21
42.7675334088481094
 31
0.0
  0
ARC
  5
2286
  8
0
 10
13.3076331712310303
 20
42.7675334088481094
 30
0.0
 40
0.0212289433449977
 50
148.3596306582230966
 51
211.640369341780513
  0
ARC
  5
2287
  8
0
 10
13.3177553760142207
 20
42.7614525346556675
 30
0.0
 40
0.0330367669971634
 50
138.7880229983358902
 51
148.5902376006347936
  0
ARC
  5
2288
  8
0
 10
13.3227086256938207
 20
42.7749473111141967
 30
0.0
 40
0.0379863369850102
 50
209.2316339335901887
 51
231.0556071345135933
  0
LINE
  5
2289
  8
0
 10
13.2981085023860395
 20
42.7571958709023221
 30
0.0
 11
13.3021030537860501
 21
42.6920605530023067
 31
0.0
  0
ARC
  5
228A
  8
0
 10
13.2931707188325507
 20
42.7568612549468625
 30
0.0
 40
0.004949108430681
 50
3.8768031212601062
 51
90.6089026389777246
  0
ARC
  5
228B
  8
0
 10
13.2956920482251597
 20
42.7617465619386223
 30
0.0
 40
0.0025747080501221
 50
132.7861833342136038
 51
178.5862825305910064
  0
ARC
  5
228C
  8
0
 10
13.3012686143544006
 20
42.7557215045466492
 30
0.0
 40
0.010784422196811
 50
109.2256449072481956
 51
132.7861833342155933
  0
ARC
  5
228D
  8
0
 10
13.32534951995234
 20
42.6866700930992522
 30
0.0
 40
0.0839143574989554
 50
95.9792511688979175
 51
109.2256449072481956
  0
ARC
  5
228E
  8
0
 10
13.3141809397925499
 20
42.595766677640917
 30
0.0
 40
0.0970483681599134
 50
57.4436646046734012
 51
97.1491239667212909
  0
ARC
  5
228F
  8
0
 10
13.3565881294737991
 20
42.7838870174055188
 30
0.0
 40
0.1067741683999111
 50
239.3172975200247095
 51
275.2754910513692721
  0
LINE
  5
2290
  8
0
 10
13.3664054425860304
 20
42.6775651316023072
 30
0.0
 11
13.3786765921836892
 21
42.6997436610979477
 31
0.0
  0
ARC
  5
2291
  8
0
 10
13.3459494005346606
 20
42.7376828351395304
 30
0.0
 40
0.0568665690181541
 50
239.0969203582218938
 51
275.9769337566028184
  0
ARC
  5
2292
  8
0
 10
13.3232693276197001
 20
42.6350666999775925
 30
0.0
 40
0.0542166796832726
 50
58.1605920138950694
 51
96.9132621009292023
  0
LINE
  5
2293
  8
0
 10
13.3155157980860395
 20
42.7799714495023125
 30
0.0
 11
13.3230957075860506
 21
42.711676152402319
 31
0.0
  0
LINE
  5
2294
  8
0
 10
13.3880635539860293
 20
42.7003974167023088
 30
0.0
 11
13.3994645766509297
 21
42.7237414092279693
 31
0.0
  0
ARC
  5
2295
  8
0
 10
13.3377196867427905
 20
42.603159819245441
 30
0.0
 40
0.1094972845699431
 50
62.6275557875766893
 51
97.6751074382681139
  0
ARC
  5
2296
  8
0
 10
13.3751168197971406
 20
42.8185750271818435
 30
0.0
 40
0.1188846732964812
 50
244.0506602419262947
 51
276.2520029839178051
  0
ARC
  5
2297
  8
0
 10
13.3453832472859197
 20
42.6474837117424599
 30
0.0
 40
0.0622986776399276
 50
63.3304276071772634
 51
96.9130154266324979
  0
ARC
  5
2298
  8
0
 10
13.3658472506847605
 20
42.765000193354183
 30
0.0
 40
0.0622986776321726
 50
243.3304276050251076
 51
276.9130154287847176
  0
ARC
  5
2299
  8
0
 10
13.3103251955723199
 20
42.7789186473954288
 30
0.0
 40
0.0052962955668736
 50
11.4656752080075393
 51
87.3393864762876575
  0
ARC
  5
229A
  8
0
 10
13.3142588271921003
 20
42.7838828680561818
 30
0.0
 40
0.0037021921369249
 50
123.3856296086958935
 51
174.9425432111189025
  0
ARC
  5
229B
  8
0
 10
13.3276743514241502
 20
42.7598546029592725
 30
0.0
 40
0.0312130843197224
 50
105.6854411735703962
 51
119.674520093414003
  0
ARC
  5
229C
  8
0
 10
13.36467084679213
 20
42.588496698989637
 30
0.0
 40
0.2064698205576364
 50
89.3681738359519926
 51
102.7123823225779944
  0
ARC
  5
229D
  8
0
 10
13.3403278386758704
 20
42.5842020059367812
 30
0.0
 40
0.0859643280363711
 50
56.000941647263069
 51
101.077197073397798
  0
ARC
  5
229E
  8
0
 10
13.3738583855110793
 20
42.7495870763466499
 30
0.0
 40
0.095232971981397
 50
238.2966287437934056
 51
278.7815099768664027
  0
ARC
  5
229F
  8
0
 10
13.3470499929813098
 20
42.6172721604908205
 30
0.0
 40
0.0493909313195953
 50
57.1892230226621265
 51
99.9314887601910726
  0
ARC
  5
22A0
  8
0
 10
13.3653030240870105
 20
42.7074749430687106
 30
0.0
 40
0.0494295611513029
 50
237.2067440188532998
 51
279.9139677639989259
  0
LINE
  5
22A1
  8
0
 10
13.3238113910860498
 20
42.6685647504023109
 30
0.0
 11
13.3226179842307602
 21
42.6826607744165614
 31
0.0
  0
LINE
  5
22A2
  8
0
 10
13.3883973095860505
 20
42.6554704538023088
 30
0.0
 11
13.4229391275122794
 21
42.7210927007882688
 31
0.0
  0
ARC
  5
22A3
  8
0
 10
13.3945266582049705
 20
42.6068110514427119
 30
0.0
 40
0.1248021729921828
 50
67.4154955552837833
 51
98.0583519261951864
  0
ARC
  5
22A4
  8
0
 10
13.4261906935603008
 20
42.855257769512562
 30
0.0
 40
0.1342044647079835
 50
248.5124360984154919
 51
276.9614113830638189
  0
ARC
  5
22A5
  8
0
 10
13.4183545346122592
 20
42.7938405365480392
 30
0.0
 40
0.0703568490916442
 50
247.9208102539240031
 51
277.5675036628193766
  0
ARC
  5
22A6
  8
0
 10
13.4011356942087296
 20
42.6585995613521973
 30
0.0
 40
0.0706489187221674
 50
67.9834872704988555
 51
97.5048266462457036
  0
LINE
  5
22A7
  8
0
 10
13.3770316960860498
 20
42.7303809049023116
 30
0.0
 11
13.3659629774860491
 21
42.8012592027023118
 31
0.0
  0
LINE
  5
22A8
  8
0
 10
13.4424563870860503
 20
42.7220426594023124
 30
0.0
 11
13.4582345284810305
 21
42.7585001879907125
 31
0.0
  0
ARC
  5
22A9
  8
0
 10
13.3590015762967997
 20
42.799915386236222
 30
0.0
 40
0.0070899188438254
 50
10.9258847803044095
 51
71.4911554395445847
  0
ARC
  5
22AA
  8
0
 10
13.3657593141677999
 20
42.8037892188464326
 30
0.0
 40
0.0053321863262133
 50
119.6008097702265047
 51
147.698836828182408
  0
ARC
  5
22AB
  8
0
 10
13.3796415727002493
 20
42.7773867764592026
 30
0.0
 40
0.0351594055844296
 50
101.5479183734943973
 51
118.0180389871241005
  0
ARC
  5
22AC
  8
0
 10
13.4151771719062598
 20
42.5967118676771719
 30
0.0
 40
0.2192949756379191
 50
92.0428687851126739
 51
101.1945272368735971
  0
ARC
  5
22AD
  8
0
 10
13.4216594285299795
 20
42.4796001934247016
 30
0.0
 40
0.3365711745806608
 50
85.672812728117151
 51
92.4349933562067037
  0
ARC
  5
22AE
  8
0
 10
13.4814130724814092
 20
42.6052748421936869
 30
0.0
 40
0.1429370223203673
 50
71.7049428148102237
 51
98.3871397816414941
  0
ARC
  5
22AF
  8
0
 10
13.5062652638068492
 20
42.8919901031862167
 30
0.0
 40
0.152324320438157
 50
252.5408869606733901
 51
277.5511956357782992
  0
ARC
  5
22B0
  8
0
 10
13.5001443516792694
 20
42.821319399594401
 30
0.0
 40
0.0797122688649891
 50
251.9920393781299026
 51
278.093054626124399
  0
ARC
  5
22B1
  8
0
 10
13.4866567552142804
 20
42.665825652585049
 30
0.0
 40
0.0804633366602352
 50
72.1159769015306864
 51
97.9691171027222936
  0
LINE
  5
22B2
  8
0
 10
13.4605641383860508
 20
42.746683166902308
 30
0.0
 11
13.4461791391860306
 21
42.8196515375023097
 31
0.0
  0
LINE
  5
22B3
  8
0
 10
13.5262825116860501
 20
42.7409867642023187
 30
0.0
 11
13.5550977561811994
 21
42.8158178996897121
 31
0.0
  0
ARC
  5
22B4
  8
0
 10
13.4378522019398705
 20
42.8173262718963912
 30
0.0
 40
0.0086455042675238
 50
15.6021891010792597
 51
64.2629650884429537
  0
ARC
  5
22B5
  8
0
 10
13.4499192382203603
 20
42.8175048585796034
 30
0.0
 40
0.0112695778430174
 50
106.9409670189183998
 51
137.5300785870495872
  0
ARC
  5
22B6
  8
0
 10
13.4814091968982499
 20
42.7141250072849132
 30
0.0
 40
0.1193390515682433
 50
94.5441470619006594
 51
106.9409670189183998
  0
ARC
  5
22B7
  8
0
 10
13.5001091885308995
 20
42.548211603863308
 30
0.0
 40
0.286265238761603
 50
79.5919648001318478
 51
95.6443059114126868
  0
LINE
  5
22B8
  8
0
 10
13.5683718478860502
 20
42.7592420159023092
 30
0.0
 11
13.55085484218605
 21
42.8339017441023131
 31
0.0
  0
ARC
  5
22B9
  8
0
 10
13.5420779679840493
 20
42.8318424738754899
 30
0.0
 40
0.0090152157281306
 50
13.2041640118602395
 51
59.8628219211633876
  0
ARC
  5
22BA
  8
0
 10
13.56181213191973
 20
42.8185228672686904
 30
0.0
 40
0.0260225540797574
 50
103.3648937005182944
 51
125.7614167863365964
  0
ARC
  5
22BB
  8
0
 10
13.5986892387877596
 20
42.6485993752401811
 30
0.0
 40
0.1998972486252805
 50
90.1740855418729836
 51
102.3903938135124037
  0
ARC
  5
22BC
  8
0
 10
13.6077526781065803
 20
42.5876553208347417
 30
0.0
 40
0.2610195938540905
 50
80.3043040944918971
 51
92.1232997381712835
  0
ARC
  5
22BD
  8
0
 10
13.6439520776523295
 20
42.7995263617406678
 30
0.0
 40
0.0460783588570913
 50
66.2024580483040097
 51
80.3043040944918971
  0
ARC
  5
22BE
  8
0
 10
13.6590784037758208
 20
42.833826319371461
 30
0.0
 40
0.0085911232232289
 50
40.4723833086908016
 51
66.2024580483039244
  0
ARC
  5
22BF
  8
0
 10
13.6693350352921303
 20
42.8317082546939716
 30
0.0
 40
0.0085469986372816
 50
115.8095458275477938
 51
162.5597329753325937
  0
LINE
  5
22C0
  8
0
 10
13.6611809427860393
 20
42.8342698872023178
 30
0.0
 11
13.6342607057860299
 21
42.7559274506023073
 31
0.0
  0
ARC
  5
22C1
  8
0
 10
13.5934122814105898
 20
42.6004645125613877
 30
0.0
 40
0.1607399106577903
 50
75.2781110911984115
 51
98.9621700902897459
  0
ARC
  5
22C2
  8
0
 10
13.6096990878524995
 20
42.9242231289015308
 30
0.0
 40
0.1700785360053035
 50
255.9369698011009859
 51
278.3033113803875267
  0
ARC
  5
22C3
  8
0
 10
13.59687662811967
 20
42.6694283124987095
 30
0.0
 40
0.0901790072707385
 50
75.6043100225825526
 51
98.6296186879020667
  0
ARC
  5
22C4
  8
0
 10
13.6057678393768509
 20
42.8459779361593505
 30
0.0
 40
0.0902221603624173
 50
255.6098917719695862
 51
278.6240369385147915
  0
LINE
  5
22C5
  8
0
 10
13.6935127094860398
 20
42.7669954615023187
 30
0.0
 11
13.6730000560860407
 21
42.8430462219023127
 31
0.0
  0
ARC
  5
22C6
  8
0
 10
13.66089848957904
 20
42.8374814223860909
 30
0.0
 40
0.0133197186749276
 50
24.6949227730794298
 51
54.9826576207895599
  0
ARC
  5
22C7
  8
0
 10
13.6768193429249401
 20
42.8405643983957773
 30
0.0
 40
0.0113912109539867
 50
107.9309965660226993
 51
136.6081194303966129
  0
ARC
  5
22C8
  8
0
 10
13.6974868909617005
 20
42.7825571665027624
 30
0.0
 40
0.0729661882725544
 50
98.911937497694737
 51
109.3484296341860045
  0
ARC
  5
22C9
  8
0
 10
13.7263071076934295
 20
42.5855916896869005
 30
0.0
 40
0.2720261961034152
 50
90.1666104166856144
 51
98.4820753869092869
  0
ARC
  5
22CA
  8
0
 10
13.7292979697464794
 20
42.5689153652452177
 30
0.0
 40
0.2887261400579222
 50
83.0886667719644407
 51
90.7505115517981835
  0
ARC
  5
22CB
  8
0
 10
13.7497858454335908
 20
42.7408597774154018
 30
0.0
 40
0.1155663149360326
 50
74.471010373724539
 51
82.9143390822223552
  0
ARC
  5
22CC
  8
0
 10
13.7735104697821402
 20
42.828127249342522
 30
0.0
 40
0.0251379124801069
 50
62.2226187488153499
 51
73.3194446846367924
  0
ARC
  5
22CD
  8
0
 10
13.7902222440166593
 20
42.840777569134957
 30
0.0
 40
0.0074344053655867
 50
108.2021639077533024
 51
161.1952605167739137
  0
ARC
  5
22CE
  8
0
 10
13.7827260738395694
 20
42.8450461335487773
 30
0.0
 40
0.0058800071191255
 50
28.3684505105536893
 51
64.8428753862230138
  0
LINE
  5
22CF
  8
0
 10
13.7831846678860508
 20
42.8431740051023127
 30
0.0
 11
13.7594794408860501
 21
42.7658707853023117
 31
0.0
  0
ARC
  5
22D0
  8
0
 10
13.7235802838739307
 20
42.5954103683147309
 30
0.0
 40
0.1741996074443388
 50
78.1072372210032455
 51
99.9392642285602903
  0
ARC
  5
22D1
  8
0
 10
13.7295698507122896
 20
42.94672228087245
 30
0.0
 40
0.1833080659281411
 50
258.6558082459961838
 51
279.390693203568901
  0
ARC
  5
22D2
  8
0
 10
13.7248701774411703
 20
42.6706348447593484
 30
0.0
 40
0.0975688094931018
 50
78.3972449837144012
 51
99.6580750852933051
  0
ARC
  5
22D3
  8
0
 10
13.7281253245696693
 20
42.8624281412379915
 30
0.0
 40
0.0976005910538014
 50
258.4007468070735172
 51
279.6545732619337059
  0
LINE
  5
22D4
  8
0
 10
13.8257062566860291
 20
42.7764203242023129
 30
0.0
 11
13.8044205160860507
 21
42.8464695443023231
 31
0.0
  0
ARC
  5
22D5
  8
0
 10
13.7966930612254206
 20
42.8441214153805774
 30
0.0
 40
0.0080763400161192
 50
16.9023664410668992
 51
66.9569673938760559
  0
ARC
  5
22D6
  8
0
 10
13.8067150960937397
 20
42.8459245057040192
 30
0.0
 40
0.0088743537981098
 50
114.0293413265210063
 51
140.6332079949849003
  0
ARC
  5
22D7
  8
0
 10
13.8253623136222608
 20
42.8003656028063091
 30
0.0
 40
0.0580981195121952
 50
98.4024081319996213
 51
112.529577583282105
  0
ARC
  5
22D8
  8
0
 10
13.8589411660871598
 20
42.5730361740901699
 30
0.0
 40
0.2878941344760494
 50
90.013133917357365
 51
98.4024081319996213
  0
ARC
  5
22D9
  8
0
 10
13.8589424070513907
 20
42.5676225560576
 30
0.0
 40
0.2933077526508454
 50
80.9806086541935457
 51
90.013133917357365
  0
ARC
  5
22DA
  8
0
 10
13.8981913826240504
 20
42.8148891812854018
 30
0.0
 40
0.0429454830592602
 50
66.3002216619099585
 51
80.9806086541935457
  0
ARC
  5
22DB
  8
0
 10
13.9107547436911094
 20
42.8435096174881593
 30
0.0
 40
0.0116890051748683
 50
45.1775656979198104
 51
66.3002216619081821
  0
ARC
  5
22DC
  8
0
 10
13.9231978137025596
 20
42.8439056429845024
 30
0.0
 40
0.0089441595934849
 50
118.0313580349348968
 51
164.0782744143320997
  0
LINE
  5
22DD
  8
0
 10
13.91459677568605
 20
42.8463592395023127
 30
0.0
 11
13.8958290811860294
 21
42.7774416712023111
 31
0.0
  0
ARC
  5
22DE
  8
0
 10
13.8356094284708604
 20
42.7794406382651218
 30
0.0
 40
0.0103535070598151
 50
196.9608942685918009
 51
239.0107242218340957
  0
ARC
  5
22DF
  8
0
 10
13.8376142013376295
 20
42.7827785556418689
 30
0.0
 40
0.0142471951137479
 50
239.010724221836
 51
260.618759011892223
  0
ARC
  5
22E0
  8
0
 10
13.8495591111555107
 20
42.8550788059841068
 30
0.0
 40
0.0875275271961529
 50
260.618759011892223
 51
269.1090363094181726
  0
ARC
  5
22E1
  8
0
 10
13.8569580938072896
 20
43.0428403418419521
 30
0.0
 40
0.2754178273205876
 50
268.1773298658976046
 51
272.6488868144940056
  0
ARC
  5
22E2
  8
0
 10
13.8632935694468191
 20
42.9253975982242508
 30
0.0
 40
0.1578103474758654
 50
272.3217428133140174
 51
276.8002805421916719
  0
ARC
  5
22E3
  8
0
 10
13.8759601619738095
 20
42.8150147428669925
 30
0.0
 40
0.046706807070478
 50
277.4048429845331043
 51
285.3305540823670867
  0
ARC
  5
22E4
  8
0
 10
13.8854615713954601
 20
42.7803560666468883
 30
0.0
 40
0.0107693528155109
 50
285.3305540823636761
 51
344.2988738743488284
  0
ARC
  5
22E5
  8
0
 10
13.8622894089613098
 20
42.6723315821373319
 30
0.0
 40
0.0991274944893862
 50
80.3716608264784611
 51
101.2951887480763986
  0
ARC
  5
22E6
  8
0
 10
13.8594435150364994
 20
42.8679655648320335
 30
0.0
 40
0.0998114370952567
 50
260.4441474731971198
 51
281.2227021013575268
  0
ARC
  5
22E7
  8
0
 10
13.8627349402555602
 20
42.6320338856223628
 30
0.0
 40
0.1400902761145697
 50
80.3048101752994512
 51
101.2473369385322997
  0
ARC
  5
22E8
  8
0
 10
13.85896362506878
 20
42.9104446454121415
 30
0.0
 40
0.1429644274398604
 50
260.5176269891005063
 51
281.0345201247308182
  0
ARC
  5
22E9
  8
0
 10
13.4027488800959098
 20
42.5714049423377716
 30
0.0
 40
0.0773262661993577
 50
55.8182953022092221
 51
106.2400531918574984
  0
ARC
  5
22EA
  8
0
 10
13.4261203098067998
 20
42.7194542028620319
 30
0.0
 40
0.0864429621894426
 50
238.6317873819820079
 51
283.4265611120846984
  0
ARC
  5
22EB
  8
0
 10
13.4201080271215307
 20
42.6813509898307473
 30
0.0
 40
0.0447034920871654
 50
237.2815969960940095
 51
284.7690432014105113
  0
ARC
  5
22EC
  8
0
 10
13.4073562977202094
 20
42.6006088195955002
 30
0.0
 40
0.044615392071712
 50
57.2318197410681506
 51
104.8188204564355033
  0
LINE
  5
22ED
  8
0
 10
13.3811236354860306
 20
42.6456457683023089
 30
0.0
 11
13.3799663506774795
 21
42.6545501797541391
 31
0.0
  0
LINE
  5
22EE
  8
0
 10
13.4461922650860402
 20
42.6353738703023168
 30
0.0
 11
13.4552781251723808
 21
42.6545546447854989
 31
0.0
  0
ARC
  5
22EF
  8
0
 10
13.4928877457493606
 20
42.559572060786472
 30
0.0
 40
0.0712533891494012
 50
55.7688641251179007
 51
110.812121015264097
  0
ARC
  5
22F0
  8
0
 10
13.5088556072587398
 20
42.6952603832298578
 30
0.0
 40
0.0804757110412463
 50
239.1358664304636079
 51
287.4365501548539896
  0
LINE
  5
22F1
  8
0
 10
13.4675710803860493
 20
42.6261762042023165
 30
0.0
 11
13.4636869168202793
 21
42.6488080242438272
 31
0.0
  0
LINE
  5
22F2
  8
0
 10
13.5329701106860494
 20
42.6184825818023185
 30
0.0
 11
13.53513570409166
 21
42.6235456658471108
 31
0.0
  0
ARC
  5
22F3
  8
0
 10
13.5046131230706106
 20
42.6591943936183497
 30
0.0
 40
0.0407966112829098
 50
237.1013346452853057
 51
289.4619833137226124
  0
ARC
  5
22F4
  8
0
 10
13.4959689656074904
 20
42.5858129181346712
 30
0.0
 40
0.0413955843532851
 50
57.5082128910247619
 51
109.0551050679807048
  0
ARC
  5
22F5
  8
0
 10
13.6160239597083699
 20
42.6774164941191572
 30
0.0
 40
0.0765024657430465
 50
239.871044860168297
 51
290.835096479316519
  0
ARC
  5
22F6
  8
0
 10
13.6048340690637097
 20
42.5397498597854806
 30
0.0
 40
0.0765024657430465
 50
59.871044860168297
 51
60.3554868388368604
  0
ARC
  5
22F7
  8
0
 10
13.6048340690637097
 20
42.5397498597854806
 30
0.0
 40
0.0765024657430465
 50
104.1707110036775958
 51
110.8350964793165048
  0
LINE
  5
22F8
  8
0
 10
13.9627824821860393
 20
42.7656960535023103
 30
0.0
 11
13.9362761712860408
 21
42.8439463542023091
 31
0.0
  0
ARC
  5
22F9
  8
0
 10
13.92417460477904
 20
42.8383815546860802
 30
0.0
 40
0.0133197186749276
 50
24.6949227730794298
 51
54.9826576207895599
  0
ARC
  5
22FA
  8
0
 10
13.9400954581249401
 20
42.8414645306957809
 30
0.0
 40
0.0113912109539867
 50
107.9309965660226993
 51
136.6081194303966129
  0
ARC
  5
22FB
  8
0
 10
13.9607630061617005
 20
42.7834572988027588
 30
0.0
 40
0.0729661882725544
 50
98.911937497694737
 51
109.3484296341860045
  0
ARC
  5
22FC
  8
0
 10
13.9895832228934296
 20
42.5864918219868969
 30
0.0
 40
0.2720261961034152
 50
90.1666104166856144
 51
98.4820753869092869
  0
ARC
  5
22FD
  8
0
 10
13.9925740849464795
 20
42.569815497545207
 30
0.0
 40
0.2887261400579222
 50
83.0886667719644407
 51
90.7505115517981835
  0
ARC
  5
22FE
  8
0
 10
14.0130619606335909
 20
42.7417599097153911
 30
0.0
 40
0.1155663149360326
 50
74.471010373724539
 51
82.9143390822223552
  0
ARC
  5
22FF
  8
0
 10
14.0367865849821403
 20
42.8290273816425184
 30
0.0
 40
0.0251379124801069
 50
62.2226187488153499
 51
73.3194446846367924
  0
ARC
  5
2300
  8
0
 10
14.0534983592166594
 20
42.8416777014349606
 30
0.0
 40
0.0074344053655867
 50
108.2021639077533024
 51
161.1952605167739137
  0
ARC
  5
2301
  8
0
 10
14.0460021890395694
 20
42.8459462658487809
 30
0.0
 40
0.0058800071191255
 50
28.3684505105536893
 51
64.8428753862230138
  0
LINE
  5
2302
  8
0
 10
14.0464607830860402
 20
42.8440741374023233
 30
0.0
 11
14.0286883343860307
 21
42.7687353288023075
 31
0.0
  0
ARC
  5
2303
  8
0
 10
14.0036148623549401
 20
42.596351888429048
 30
0.0
 40
0.1741973866469282
 50
81.7242643614950453
 51
103.5564309565281036
  0
ARC
  5
2304
  8
0
 10
13.9874290273520803
 20
42.9473372859779516
 30
0.0
 40
0.183305726926059
 50
262.272838854490999
 51
283.007856463531084
  0
ARC
  5
2305
  8
0
 10
14.0001482489699605
 20
42.6713844486580598
 30
0.0
 40
0.0976888742312272
 50
82.0193744790930168
 51
103.2536237951468934
  0
ARC
  5
2306
  8
0
 10
13.9913186615663108
 20
42.8631315146181819
 30
0.0
 40
0.0976075972499833
 50
262.0104309630268062
 51
283.2625673112145819
  0
LINE
  5
2307
  8
0
 10
14.1552219199860403
 20
42.7617132990023165
 30
0.0
 11
14.1700090509860406
 21
42.8352885735023179
 31
0.0
  0
ARC
  5
2308
  8
0
 10
14.1787859251880306
 20
42.8332293032755018
 30
0.0
 40
0.0090152157281306
 50
120.1371780788365982
 51
166.7958359881397996
  0
ARC
  5
2309
  8
0
 10
14.1590517612523499
 20
42.8199096966686881
 30
0.0
 40
0.0260225540797574
 50
54.2385832136634178
 51
76.635106299481663
  0
ARC
  5
230A
  8
0
 10
14.1221746543843096
 20
42.649986204640193
 30
0.0
 40
0.1998972486252805
 50
77.6096061864875537
 51
89.8259144581270164
  0
ARC
  5
230B
  8
0
 10
14.1131112150654907
 20
42.5890421502347394
 30
0.0
 40
0.2610195938540905
 50
87.8767002618287307
 51
99.6956959055081029
  0
ARC
  5
230C
  8
0
 10
14.0769118155197592
 20
42.8009131911406726
 30
0.0
 40
0.0460783588570913
 50
99.6956959055081029
 51
113.7975419516960045
  0
ARC
  5
230D
  8
0
 10
14.0617854893962697
 20
42.8352131487714729
 30
0.0
 40
0.0085911232232289
 50
113.797541951696104
 51
139.5276166913091913
  0
ARC
  5
230E
  8
0
 10
14.0515288578799602
 20
42.8330950840939835
 30
0.0
 40
0.0085469986372816
 50
17.4402670246674205
 51
64.190454172452192
  0
LINE
  5
230F
  8
0
 10
14.0596829503860405
 20
42.8356567166023083
 30
0.0
 11
14.0894565450860494
 21
42.7565056612023184
 31
0.0
  0
ARC
  5
2310
  8
0
 10
14.1341102548567505
 20
42.6104574951508965
 30
0.0
 40
0.1527220370584013
 50
82.05422295886396
 51
107.0008267653620067
  0
ARC
  5
2311
  8
0
 10
14.1097988744845892
 20
42.9174771278356531
 30
0.0
 40
0.1622517286054173
 50
262.7975811972838756
 51
286.2574685269432848
  0
ARC
  5
2312
  8
0
 10
14.1289649327265998
 20
42.6755117533063384
 30
0.0
 40
0.0858671248704327
 50
82.4322743505541808
 51
106.6309467288250943
  0
ARC
  5
2313
  8
0
 10
14.1156977828202308
 20
42.8429061029698914
 30
0.0
 40
0.0858671202325757
 50
262.4322736871532129
 51
286.630947392224698
  0
ARC
  5
2314
  8
0
 10
14.2478464940642198
 20
42.612822296030437
 30
0.0
 40
0.1380796600420986
 50
82.7559888636360625
 51
110.3944123871774963
  0
ARC
  5
2315
  8
0
 10
14.2160250006330706
 20
42.8888939427027935
 30
0.0
 40
0.1475500986043034
 50
263.6588657642495264
 51
289.4915354865636914
  0
ARC
  5
2316
  8
0
 10
14.2237992503046602
 20
42.8214358273406006
 30
0.0
 40
0.0778927674968234
 50
263.2153512018280139
 51
289.9370527048347981
  0
ARC
  5
2317
  8
0
 10
14.2411576251671992
 20
42.670864044265798
 30
0.0
 40
0.0778927674950828
 50
83.2153512015245838
 51
109.9370527051397062
  0
LINE
  5
2318
  8
0
 10
14.2652576872860397
 20
42.7497998229023182
 30
0.0
 11
14.2772808708860399
 21
42.8213715744023133
 31
0.0
  0
LINE
  5
2319
  8
0
 10
14.1997284057860291
 20
42.7422465677023169
 30
0.0
 11
14.1670665995759695
 21
42.8206480275980326
 31
0.0
  0
ARC
  5
231A
  8
0
 10
14.2856078081322302
 20
42.8190463087964019
 30
0.0
 40
0.0086455042675238
 50
115.7370349115570036
 51
164.3978108989207101
  0
ARC
  5
231B
  8
0
 10
14.2735407718517102
 20
42.8192248954796071
 30
0.0
 40
0.0112695778430174
 50
42.4699214129503204
 51
73.0590329810815717
  0
ARC
  5
231C
  8
0
 10
14.2420508131738206
 20
42.7158450441849027
 30
0.0
 40
0.1193390515682433
 50
73.0590329810815717
 51
85.4558529380993264
  0
ARC
  5
231D
  8
0
 10
14.2233508215411693
 20
42.5499316407633117
 30
0.0
 40
0.286265238761603
 50
84.355694088587299
 51
100.9139408870057935
  0
ARC
  5
231E
  8
0
 10
14.3370861093739492
 20
42.6134651950856522
 30
0.0
 40
0.1214388733989785
 50
83.0916558971131138
 51
114.6036536967649937
  0
ARC
  5
231F
  8
0
 10
14.2996341849088502
 20
42.8540660898432932
 30
0.0
 40
0.1308457176420694
 50
264.2506125333625278
 51
293.4446970605168872
  0
ARC
  5
2320
  8
0
 10
14.3088758681703307
 20
42.7947453259009905
 30
0.0
 40
0.0688136332847332
 50
263.6774609892786998
 51
294.0045242855463243
  0
ARC
  5
2321
  8
0
 10
14.3292917358039897
 20
42.6634880651893127
 30
0.0
 40
0.0688136332987209
 50
83.6774609924342343
 51
114.0045242823892977
  0
LINE
  5
2322
  8
0
 10
14.3516929488860399
 20
42.7340224023023225
 30
0.0
 11
14.3605793133860402
 21
42.8034002573023074
 31
0.0
  0
LINE
  5
2323
  8
0
 10
14.2865263978860302
 20
42.723878579902312
 30
0.0
 11
14.2676905913103198
 21
42.764282443150222
 31
0.0
  0
ARC
  5
2324
  8
0
 10
14.3675407145752807
 20
42.8020564408362105
 30
0.0
 40
0.0070899188438254
 50
108.5088445604554011
 51
169.0741152196956136
  0
ARC
  5
2325
  8
0
 10
14.3607829767042805
 20
42.8059302734464282
 30
0.0
 40
0.0053321863262133
 50
32.301163171817592
 51
60.3991902297735166
  0
ARC
  5
2326
  8
0
 10
14.34690071817184
 20
42.7795278310591982
 30
0.0
 40
0.0351594055844296
 50
61.9819610128758711
 51
78.4520816265055174
  0
ARC
  5
2327
  8
0
 10
14.3113651189658206
 20
42.5988529222771675
 30
0.0
 40
0.2192949756379191
 50
78.8054727631263461
 51
87.9571312148873261
  0
ARC
  5
2328
  8
0
 10
14.3048828623421098
 20
42.4817412480246972
 30
0.0
 40
0.3365711745806608
 50
87.5650066437932963
 51
94.8261031304302691
  0
LINE
  5
2329
  8
0
 10
14.43470268228603
 20
42.7598360147023087
 30
0.0
 11
14.4307069314860392
 21
42.6947591362023076
 31
0.0
  0
ARC
  5
232A
  8
0
 10
14.4396404658395205
 20
42.7595013987468633
 30
0.0
 40
0.004949108430681
 50
89.3910973610223039
 51
176.1231968787398898
  0
ARC
  5
232B
  8
0
 10
14.43711913644694
 20
42.7643867057386089
 30
0.0
 40
0.0025747080501221
 50
1.41371746940896
 51
47.213816665786382
  0
ARC
  5
232C
  8
0
 10
14.4315425703176707
 20
42.7583616483466429
 30
0.0
 40
0.010784422196811
 50
47.213816665784357
 51
70.7743550927517759
  0
ARC
  5
232D
  8
0
 10
14.4066751422158408
 20
42.6856982431981393
 30
0.0
 40
0.0875850397378844
 50
71.0665973968021518
 51
85.3229614750979977
  0
ARC
  5
232E
  8
0
 10
14.4179151498355793
 20
42.601863016854459
 30
0.0
 40
0.0937726968135352
 50
82.1596857316458653
 51
123.3142174335968946
  0
ARC
  5
232F
  8
0
 10
14.3770236535726195
 20
42.7827688136403523
 30
0.0
 40
0.1030902403250544
 50
264.0919577561203937
 51
301.3819454091238867
  0
LINE
  5
2330
  8
0
 10
14.3664123528860408
 20
42.6802261496023192
 30
0.0
 11
14.3542349570174395
 21
42.7022060791003213
 31
0.0
  0
ARC
  5
2331
  8
0
 10
14.3875554859199006
 20
42.737129419140679
 30
0.0
 40
0.0536627859895677
 50
262.9057806824685031
 51
302.0914208538810044
  0
ARC
  5
2332
  8
0
 10
14.4094375800806596
 20
42.6384142623866182
 30
0.0
 40
0.0536627856782059
 50
82.9057805641388086
 51
122.091420972210102
  0
LINE
  5
2333
  8
0
 10
14.4146067136860498
 20
42.78238630090231
 30
0.0
 11
14.4089987152860299
 21
42.7156932710023085
 31
0.0
  0
LINE
  5
2334
  8
0
 10
14.3443607897860392
 20
42.702675446402317
 30
0.0
 11
14.3315631159642596
 21
42.7271758018503718
 31
0.0
  0
ARC
  5
2335
  8
0
 10
14.3966360556328006
 20
42.6100945282229517
 30
0.0
 40
0.1063199408873158
 50
83.3226620454810813
 51
119.4509871021411982
  0
ARC
  5
2336
  8
0
 10
14.3547859531456297
 20
42.8178945170730572
 30
0.0
 40
0.115689750096129
 50
264.8298856514957151
 51
297.9437634961249728
  0
ARC
  5
2337
  8
0
 10
14.3880740062616308
 20
42.6527543842669417
 30
0.0
 40
0.0605277163174842
 50
84.1175348126689642
 51
118.713415957311696
  0
ARC
  5
2338
  8
0
 10
14.3651981152523796
 20
42.7660482224251481
 30
0.0
 40
0.0605277165974954
 50
264.1175348952145896
 51
298.7134158747654737
  0
ARC
  5
2339
  8
0
 10
14.4197973161997499
 20
42.7813334987954192
 30
0.0
 40
0.0052962955668736
 50
92.6606135237123567
 51
168.5343247919925034
  0
ARC
  5
233A
  8
0
 10
14.4158636845799606
 20
42.7862977194561793
 30
0.0
 40
0.0037021921369249
 50
5.0574567888811277
 51
56.6143703913040781
  0
ARC
  5
233B
  8
0
 10
14.4024481603479408
 20
42.7622694543592701
 30
0.0
 40
0.0312130843197224
 50
60.3254799065859615
 51
74.3145588264295895
  0
ARC
  5
233C
  8
0
 10
14.3654516649799593
 20
42.5909115503896416
 30
0.0
 40
0.2064698205576364
 50
77.2876176774219772
 51
91.5689713641983332
  0
ARC
  5
233D
  8
0
 10
14.3904297788123703
 20
42.5887615601241691
 30
0.0
 40
0.0831825860637043
 50
76.5986714081369797
 51
123.264716709743297
  0
ARC
  5
233E
  8
0
 10
14.3623461479002703
 20
42.7491496253956029
 30
0.0
 40
0.0925138057587432
 50
259.0692547905688912
 51
300.794133327312295
  0
ARC
  5
233F
  8
0
 10
14.3848360143599905
 20
42.6205766576578284
 30
0.0
 40
0.0479482395235997
 50
77.8559274161380444
 51
121.9490345984934976
  0
ARC
  5
2340
  8
0
 10
14.3695503995014597
 20
42.7081368954348619
 30
0.0
 40
0.0479482390419172
 50
257.8559271830405919
 51
301.9490348315907795
  0
LINE
  5
2341
  8
0
 10
14.4097090450860303
 20
42.669679126302313
 30
0.0
 11
14.4114930915478094
 21
42.6856119533784408
 31
0.0
  0
LINE
  5
2342
  8
0
 10
14.3448034635860306
 20
42.6583142882023196
 30
0.0
 11
14.3124802469217194
 21
42.7238524941014077
 31
0.0
  0
ARC
  5
2343
  8
0
 10
14.3309779504775392
 20
42.581492843475047
 30
0.0
 40
0.0696371611711135
 50
69.1499314086698575
 51
125.6005289186250025
  0
ARC
  5
2344
  8
0
 10
14.3130902854002997
 20
42.7196879708227613
 30
0.0
 40
0.0846597025438133
 50
254.4817899304956086
 51
300.2686703967981998
  0
ARC
  5
2345
  8
0
 10
14.3179354592927499
 20
42.6822106494178328
 30
0.0
 40
0.0436391582635179
 50
253.0233617608624002
 51
301.7436959042776721
  0
ARC
  5
2346
  8
0
 10
14.3281530707672804
 20
42.6033619343797909
 30
0.0
 40
0.0436391581780996
 50
73.023361710082952
 51
121.7436959550567934
  0
LINE
  5
2347
  8
0
 10
14.3557634689860496
 20
42.6465698155023105
 30
0.0
 11
14.3573822577493999
 21
42.6567690860459194
 31
0.0
  0
LINE
  5
2348
  8
0
 10
14.29044003668605
 20
42.6381144980023166
 30
0.0
 11
14.2819069737625703
 21
42.6574899280755204
 31
0.0
  0
ARC
  5
2349
  8
0
 10
14.2448962251413001
 20
42.5620305124755731
 30
0.0
 40
0.0702613379904948
 50
67.1190116262483656
 51
123.0024594845201023
  0
ARC
  5
234A
  8
0
 10
14.2331209714003499
 20
42.6949396481326175
 30
0.0
 40
0.0785854976588939
 50
250.2972551627879909
 51
299.8328023365016861
  0
LINE
  5
234B
  8
0
 10
14.2722151166860503
 20
42.6267633000023096
 30
0.0
 11
14.2766885016589509
 21
42.6528283309848888
 31
0.0
  0
LINE
  5
234C
  8
0
 10
14.2066266283860294
 20
42.6209549860023102
 30
0.0
 11
14.2050299413766901
 21
42.6250036483294465
 31
0.0
  0
ARC
  5
234D
  8
0
 10
14.2361903733396407
 20
42.6603284793138187
 30
0.0
 40
0.0403274169855293
 50
248.5531069552359895
 51
301.5711709039309198
  0
ARC
  5
234E
  8
0
 10
14.2425588229342797
 20
42.5884348834699225
 30
0.0
 40
0.0403274170042922
 50
68.5531069685310968
 51
121.5711708906337947
  0
ARC
  5
234F
  8
0
 10
13.6132910625238708
 20
42.6439013634217829
 30
0.0
 40
0.0392287591358338
 50
238.0589344619737062
 51
292.6798967948831205
  0
ARC
  5
2350
  8
0
 10
13.6076631340482095
 20
42.5744167899828483
 30
0.0
 40
0.0392287591358338
 50
58.058934461973692
 51
58.8763925143097211
  0
ARC
  5
2351
  8
0
 10
13.6076631340482095
 20
42.5744167899828483
 30
0.0
 40
0.0392287591358338
 50
105.4908223878665012
 51
112.6798967948831063
  0
ARC
  5
2352
  8
0
 10
13.7411476450895709
 20
42.6762725933651907
 30
0.0
 40
0.0839687243601033
 50
244.2980015506664984
 51
289.1065846709456082
  0
ARC
  5
2353
  8
0
 10
13.7395704094951405
 20
42.6499682543943024
 30
0.0
 40
0.0538329117482677
 50
249.6403061119115137
 51
283.7608297421510883
  0
ARC
  5
2354
  8
0
 10
13.8724511825569099
 20
42.6790897030012175
 30
0.0
 40
0.0894543223989111
 50
249.9916116243535953
 51
290.2741854111778821
  0
ARC
  5
2355
  8
0
 10
13.8725714809989107
 20
42.6528462182306924
 30
0.0
 40
0.0593816930852448
 50
257.3125837909349798
 51
282.9561088928246022
  0
ARC
  5
2356
  8
0
 10
14.00340926651125
 20
42.670063981520947
 30
0.0
 40
0.0775625698822869
 50
249.5011980041506092
 51
297.6646031900046978
  0
ARC
  5
2357
  8
0
 10
14.0048701114412193
 20
42.6456768759028506
 30
0.0
 40
0.0490806224737617
 50
255.1493497223553959
 51
292.0127555459042128
  0
ARC
  5
2358
  8
0
 10
14.12731659276076
 20
42.6800952144116295
 30
0.0
 40
0.0780768648944526
 50
249.0676091026035124
 51
298.345851633215716
  0
ARC
  5
2359
  8
0
 10
14.1360659770113202
 20
42.5386206090930017
 30
0.0
 40
0.0780768648944526
 50
68.7319577104333064
 51
77.2493439631372638
  0
LINE
  5
235A
  8
0
 10
14.1643869158860394
 20
42.6113799470023125
 30
0.0
 11
14.1657060024112091
 21
42.61684806645885
 31
0.0
  0
ARC
  5
235B
  8
0
 10
14.1294538076715792
 20
42.6455924542251523
 30
0.0
 40
0.0397944637641982
 50
246.9198616776677113
 51
300.1846475839478785
  0
ARC
  5
235C
  8
0
 10
14.1335560968005005
 20
42.5747163275794804
 30
0.0
 40
0.0397944637641982
 50
66.4404861675892136
 51
75.4248696467677036
  0
ARC
  5
235D
  8
0
 10
26.1466731037547007
 20
42.8120132256669024
 30
0.0
 40
13.0827959716886895
 50
178.9299731096596986
 51
180.0871713074708964
  0
ARC
  5
235E
  8
0
 10
20.7279806890525116
 20
42.9009329773047483
 30
0.0
 40
7.6633978049539211
 50
175.8849806008855126
 51
178.8381115329532918
  0
ARC
  5
235F
  8
0
 10
20.8326771061916212
 20
42.7897664338662409
 30
0.0
 40
7.7764885261779826
 50
172.2659683251127944
 51
175.1233681516123113
  0
ARC
  5
2360
  8
0
 10
-54.0162546253463205
 20
53.339671679447882
 30
0.0
 40
67.8123978439630832
 50
351.9439188025472731
 51
352.3874728480759018
  0
ARC
  5
2361
  8
0
 10
-1.027231998217331
 20
46.1815781783111987
 30
0.0
 40
14.3423319076861109
 50
352.688631339756796
 51
354.9269363960370924
  0
ARC
  5
2362
  8
0
 10
1.3864328539424799
 20
45.9472844022424667
 30
0.0
 40
11.9174210154985705
 50
355.0228277010314741
 51
358.7767828278151114
  0
ARC
  5
2363
  8
0
 10
13.3580395052542205
 20
45.6916163124572776
 30
0.0
 40
0.0569153927393161
 50
155.2312891390135974
 51
178.7310686758331997
  0
ARC
  5
2364
  8
0
 10
13.3754096813890992
 20
45.6812219048388712
 30
0.0
 40
0.0770727234589461
 50
127.1113220400340964
 51
153.6247093329311895
  0
ARC
  5
2365
  8
0
 10
13.4528061394161398
 20
45.5635183995020014
 30
0.0
 40
0.2178339728537379
 50
106.4052281634179025
 51
124.6651567340284004
  0
ARC
  5
2366
  8
0
 10
13.6761259250022
 20
44.7834152913008268
 30
0.0
 40
1.0292677175179969
 50
97.5963331155971474
 51
106.0658997456078936
  0
ARC
  5
2367
  8
0
 10
13.8241308133102905
 20
43.6244692896182471
 30
0.0
 40
2.1976176235143998
 50
92.9702148367747725
 51
97.426905567052458
  0
ARC
  5
2368
  8
0
 10
13.1337500906045292
 20
42.7936990010474787
 30
0.0
 40
0.0698759155114372
 50
181.3040842662680916
 51
214.9744753204643928
  0
ARC
  5
2369
  8
0
 10
13.1785996174875208
 20
42.83265647878126
 30
0.0
 40
0.1291064449647101
 50
217.7331394751655012
 51
239.3058248766539862
  0
ARC
  5
236A
  8
0
 10
13.3357086704089909
 20
43.1451338595617031
 30
0.0
 40
0.478626939280698
 50
242.2288294963651936
 51
255.40517766895519
  0
ARC
  5
236B
  8
0
 10
13.5451361699753594
 20
43.9566631016697471
 30
0.0
 40
1.316742911569561
 50
255.4844155689970933
 51
260.3606879513308741
  0
ARC
  5
236C
  8
0
 10
13.6859516208491208
 20
44.787683655595643
 30
0.0
 40
2.1596095016093502
 50
260.3692597650372136
 51
261.8712545578123922
  0
ARC
  5
236D
  8
0
 10
13.6859516208491208
 20
44.787683655595643
 30
0.0
 40
2.1596095016093502
 50
263.698579363869726
 51
264.1358968276035171
  0
LINE
  5
236E
  8
0
 10
13.4435415926860404
 20
42.6764961182023086
 30
0.0
 11
13.4433308388869595
 21
42.7240631984970491
 31
0.0
  0
ARC
  5
236F
  8
0
 10
13.4673891934456798
 20
42.6767072074889526
 30
0.0
 40
0.0238485349797066
 50
180.5071457497957965
 51
211.1491389944548018
  0
ARC
  5
2370
  8
0
 10
13.4818998172868305
 20
42.685477557700267
 30
0.0
 40
0.0408036889774866
 50
211.1491389944544892
 51
238.4012015878643069
  0
ARC
  5
2371
  8
0
 10
13.5446212574601592
 20
42.786194980108597
 30
0.0
 40
0.1594538903150498
 50
238.1678127079692899
 51
252.5384911227243947
  0
ARC
  5
2372
  8
0
 10
13.6558000268541697
 20
43.1376338405934092
 30
0.0
 40
0.5280592108861596
 50
252.4732809375979912
 51
259.9954569579044801
  0
ARC
  5
2373
  8
0
 10
13.7903531540677893
 20
43.9052545915148471
 30
0.0
 40
1.3073831937757741
 50
260.0326543397835053
 51
265.7257778697903063
  0
ARC
  5
2374
  8
0
 10
13.8571080257828996
 20
44.6887929570794284
 30
0.0
 40
2.0937335498359171
 50
265.5021465640762131
 51
268.1888833655222015
  0
LINE
  5
2375
  8
0
 10
13.5776237085860298
 20
42.6112496748023091
 30
0.0
 11
13.5767433438854006
 21
42.6154400062503029
 31
0.0
  0
LINE
  5
2376
  8
0
 10
13.6432343201860498
 20
42.6059166791023074
 30
0.0
 11
13.6433321328192694
 21
42.6061642810751309
 31
0.0
  0
ARC
  5
2377
  8
0
 10
13.8516433722494696
 20
41.0983948037203035
 30
0.0
 40
1.6278984415207429
 50
92.6778595368821243
 51
94.8674735562462246
  0
ARC
  5
2378
  8
0
 10
13.8128539315775605
 20
41.5379899015107412
 30
0.0
 40
1.18659812103874
 50
94.8023196464359756
 51
98.1598852168878864
  0
ARC
  5
2379
  8
0
 10
13.7418991649115299
 20
42.0272902518653169
 30
0.0
 40
0.6921809392119429
 50
98.0947313070769837
 51
101.880166725909902
  0
ARC
  5
237A
  8
0
 10
13.6780769155977797
 20
42.3306689600863066
 30
0.0
 40
0.3821617138253533
 50
101.880166725909902
 51
108.8044793160151045
  0
ARC
  5
237B
  8
0
 10
13.5894913560237001
 20
42.5908206626341723
 30
0.0
 40
0.1073412093072228
 50
108.8044793160151045
 51
120.6074419737181955
  0
ARC
  5
237C
  8
0
 10
13.5334376830297405
 20
42.6667475698107665
 30
0.0
 40
0.011881329945923
 50
137.854440720766604
 51
222.145559279233396
  0
ARC
  5
237D
  8
0
 10
13.5550041060438105
 20
42.6485608445188333
 30
0.0
 40
0.0400873363522615
 50
120.2018878736527938
 51
139.2652939548636084
  0
ARC
  5
237E
  8
0
 10
13.8516433722494696
 20
44.2351003359012296
 30
0.0
 40
1.6278984415207429
 50
265.1325264437538181
 51
267.3221404631178189
  0
ARC
  5
237F
  8
0
 10
13.8128539315775605
 20
43.7955052381107919
 30
0.0
 40
1.18659812103874
 50
261.8401147831120852
 51
265.1976803535640101
  0
ARC
  5
2380
  8
0
 10
13.7418991649115299
 20
43.3062048877562091
 30
0.0
 40
0.6921809392119429
 50
258.1198332740901265
 51
261.9052686929230163
  0
ARC
  5
2381
  8
0
 10
13.6780769155977797
 20
43.0028261795352265
 30
0.0
 40
0.3821617138253533
 50
251.1955206839849097
 51
258.1198332740901265
  0
ARC
  5
2382
  8
0
 10
13.5894913560237001
 20
42.7426744769873608
 30
0.0
 40
0.1073412093072228
 50
239.3925580262817903
 51
251.1955206839849097
  0
ARC
  5
2383
  8
0
 10
13.5550041060438105
 20
42.6849342951027069
 30
0.0
 40
0.0400873363522615
 50
220.7347060451363916
 51
239.7981121263470925
  0
LINE
  5
2384
  8
0
 10
13.5495224239860494
 20
42.6734017760023079
 30
0.0
 11
13.5473951960843806
 21
42.6895629966854671
 31
0.0
  0
LINE
  5
2385
  8
0
 10
13.5495224239860494
 20
42.6734017760023079
 30
0.0
 11
13.5703135151860295
 21
42.6734542970023085
 31
0.0
  0
ARC
  5
2386
  8
0
 10
13.6213409863812007
 20
42.8050137785409888
 30
0.0
 40
0.1499320683401257
 50
241.3794096180463953
 51
254.7651481770924988
  0
LINE
  5
2387
  8
0
 10
13.5819424177860508
 20
42.6603507981023071
 30
0.0
 11
13.5964300703860506
 21
42.6629408285023075
 31
0.0
  0
ARC
  5
2388
  8
0
 10
13.5661301181431995
 20
42.6893982160922505
 30
0.0
 40
0.0097258491594252
 50
156.9661792903999071
 51
203.1310062578644136
  0
ARC
  5
2389
  8
0
 10
13.5721421927358392
 20
42.6919664295291881
 30
0.0
 40
0.0162634910251963
 50
203.1310062578635041
 51
229.6561482759022965
  0
ARC
  5
238A
  8
0
 10
13.5937000162805894
 20
42.7159635567024196
 30
0.0
 40
0.0485176833092439
 50
228.598340935131688
 51
241.1825753368279095
  0
ARC
  5
238B
  8
0
 10
13.7197057379152891
 20
43.0844232472009381
 30
0.0
 40
0.4391404325233913
 50
253.6967962797452003
 51
260.9212309179810063
  0
ARC
  5
238C
  8
0
 10
13.8069783513456308
 20
43.604791401996259
 30
0.0
 40
0.9667690934979104
 50
260.6800639542988733
 51
264.9548890341894207
  0
LINE
  5
238D
  8
0
 10
13.70747297198605
 20
42.639177765302307
 30
0.0
 11
13.7070984074222508
 21
42.6431956049252534
 31
0.0
  0
LINE
  5
238E
  8
0
 10
13.70747297198605
 20
42.639177765302307
 30
0.0
 11
13.7219606245860408
 21
42.6417677957023074
 31
0.0
  0
ARC
  5
238F
  8
0
 10
13.8507520999259803
 20
44.1621577698056811
 30
0.0
 40
1.5297048743533139
 50
264.6255382235216871
 51
267.4817978621463794
  0
LINE
  5
2390
  8
0
 10
13.7835418086516501
 20
42.6339301102709101
 30
0.0
 11
13.7832393521184997
 21
42.6375404452599085
 31
0.0
  0
ARC
  5
2391
  8
0
 10
13.6003674459393196
 20
42.689396741995651
 30
0.0
 40
0.008941058192035
 50
151.8536713672079941
 51
208.1463286327820015
  0
ARC
  5
2392
  8
0
 10
13.6096580063724293
 20
42.6839320650747069
 30
0.0
 40
0.0197156134367674
 50
123.9076403181330051
 51
150.5868932110959122
  0
ARC
  5
2393
  8
0
 10
13.6365394722550892
 20
42.6461438429564481
 30
0.0
 40
0.0660849121273368
 50
113.1956557917817037
 51
124.9737412435914052
  0
ARC
  5
2394
  8
0
 10
13.6130601975965799
 20
42.6977406778218622
 30
0.0
 40
0.0241078248000292
 50
211.4034739408348003
 51
241.0619294125660019
  0
ARC
  5
2395
  8
0
 10
13.6547804190112192
 20
42.7687239938813235
 30
0.0
 40
0.1064373236269289
 50
239.8964726555583979
 51
253.4960226317118952
  0
ARC
  5
2396
  8
0
 10
13.7504694621976
 20
43.099529293225622
 30
0.0
 40
0.4508024871121087
 50
253.7793418366281912
 51
261.7012836783400758
  0
ARC
  5
2397
  8
0
 10
13.8363671658380305
 20
43.6977656807420516
 30
0.0
 40
1.0551735775679421
 50
261.7744581197740104
 51
266.2042708891227107
  0
ARC
  5
2398
  8
0
 10
13.8619822049951704
 20
44.0706107558315026
 30
0.0
 40
1.42889675412078
 50
266.1691176862310044
 51
268.2030357489294943
  0
ARC
  5
2399
  8
0
 10
13.1676726466725693
 20
42.7645022908708583
 30
0.0
 40
0.0241150594074432
 50
143.4363096885637958
 51
216.5636903114325946
  0
ARC
  5
239A
  8
0
 10
13.1812715395778302
 20
42.7569831937768825
 30
0.0
 40
0.0395706202582304
 50
142.600980032926401
 51
146.422984021941005
  0
ARC
  5
239B
  8
0
 10
13.2125455648275594
 20
42.6993606367268796
 30
0.0
 40
0.102957651474874
 50
122.1791159288610942
 51
127.523339930260903
  0
ARC
  5
239C
  8
0
 10
13.2745777101041806
 20
42.5934852841092066
 30
0.0
 40
0.2256389395992859
 50
112.3215742153395951
 51
121.1931755927785019
  0
ARC
  5
239D
  8
0
 10
13.3987198615422702
 20
42.2688264715724813
 30
0.0
 40
0.5731823103867991
 50
103.8533122898600993
 51
111.4751648264737014
  0
ARC
  5
239E
  8
0
 10
13.64994864382078
 20
41.1466746018243512
 30
0.0
 40
1.723024347114493
 50
96.393009260071068
 51
103.0298183152143991
  0
ARC
  5
239F
  8
0
 10
13.8199392265732897
 20
39.6549298764324334
 30
0.0
 40
3.2244219762210631
 50
92.925400081163815
 51
96.4433174678241869
  0
ARC
  5
23A0
  8
0
 10
13.2012632523718594
 20
42.788819412749298
 30
0.0
 40
0.0655827192964744
 50
216.1451542868510955
 51
235.1766273211368059
  0
ARC
  5
23A1
  8
0
 10
13.2534946251406005
 20
42.8637313943530671
 30
0.0
 40
0.1569058662796874
 50
235.1403987844315964
 51
245.3011255884188984
  0
ARC
  5
23A2
  8
0
 10
13.3352668189396599
 20
43.0415260949810374
 30
0.0
 40
0.3526037130999789
 50
245.3011255884188984
 51
250.8755340141092063
  0
ARC
  5
23A3
  8
0
 10
13.4573863963142006
 20
43.4208828680592731
 30
0.0
 40
0.7510852279333827
 50
251.5549122133816127
 51
257.9585601448990815
  0
ARC
  5
23A4
  8
0
 10
13.5480732610293106
 20
43.8198117827385403
 30
0.0
 40
1.160168391712141
 50
257.6885529362982084
 51
258.7983282337978039
  0
LINE
  5
23A5
  8
0
 10
13.1492844433860494
 20
42.7788668410023121
 30
0.0
 11
13.1492844433860494
 21
42.7802782504378598
 31
0.0
  0
ARC
  5
23A6
  8
0
 10
13.1602454117546603
 20
42.7790909261500616
 30
0.0
 40
0.0109632587186245
 50
181.171187117088806
 51
263.5912031642452007
  0
ARC
  5
23A7
  8
0
 10
13.1422131915853395
 20
42.6054352105220602
 30
0.0
 40
0.1636265811264031
 50
78.7415365318093734
 51
84.1039098251805513
  0
ARC
  5
23A8
  8
0
 10
13.1652644698443702
 20
42.7190459962189024
 30
0.0
 40
0.0477035591017129
 50
67.52062814694834
 51
79.2542431927443687
  0
ARC
  5
23A9
  8
0
 10
13.1791164383354005
 20
42.7525216901696083
 30
0.0
 40
0.0114751294289103
 50
51.8934013543678532
 51
67.5206281469483827
  0
ARC
  5
23AA
  8
0
 10
13.1835334364483607
 20
42.7581535607742609
 30
0.0
 40
0.0043177668673604
 50
33.8097458201199998
 51
51.8934013543695727
  0
ARC
  5
23AB
  8
0
 10
13.1855285417007906
 20
42.7594252079445525
 30
0.0
 40
0.0019531969781467
 50
324.6191558866632931
 51
35.3808441133569076
  0
LINE
  5
23AC
  8
0
 10
13.15088300038604
 20
42.7597871844023132
 30
0.0
 11
13.15088300038604
 21
42.7733866913112593
 31
0.0
  0
ARC
  5
23AD
  8
0
 10
13.1596795646267104
 20
42.759574546925279
 30
0.0
 40
0.0087991338856101
 50
178.6152709722207135
 51
275.2066009227482937
  0
ARC
  5
23AE
  8
0
 10
13.1420537199907095
 20
42.9176099853080402
 30
0.0
 40
0.1678127472374382
 50
276.3032722670395742
 51
279.4732580748284931
  0
ARC
  5
23AF
  8
0
 10
13.1554932211903708
 20
42.8391692090989906
 30
0.0
 40
0.0882304122674155
 50
279.248654680569075
 51
285.3751827910654129
  0
ARC
  5
23B0
  8
0
 10
13.1703605254710698
 20
42.7854563071783218
 30
0.0
 40
0.0324981177111097
 50
285.2097202164375176
 51
295.098673245962118
  0
ARC
  5
23B1
  8
0
 10
13.1796968563017405
 20
42.7654987086638769
 30
0.0
 40
0.0104646783630315
 50
295.1578140655897187
 51
308.4978210283616136
  0
ARC
  5
23B2
  8
0
 10
13.1834038629312094
 20
42.7608137142711513
 30
0.0
 40
0.0044905225166579
 50
308.6907001418352934
 51
325.8713015665217085
  0
ARC
  5
23B3
  8
0
 10
13.1953545313967595
 20
42.7785985942348788
 30
0.0
 40
0.0492293986760864
 50
208.1329758345991934
 51
223.0949707885727946
  0
ARC
  5
23B4
  8
0
 10
13.2253658910500995
 20
42.8080509868136971
 30
0.0
 40
0.0912720292985303
 50
223.7244514623139082
 51
237.65555047730399
  0
ARC
  5
23B5
  8
0
 10
13.3056758771045605
 20
42.9442252392305477
 30
0.0
 40
0.2493351539669878
 50
238.8056678772410919
 51
249.9841887812908965
  0
ARC
  5
23B6
  8
0
 10
13.4175479607271502
 20
43.2515556057591581
 30
0.0
 40
0.5763937338099456
 50
249.9919481427457981
 51
255.2216673724520888
  0
ARC
  5
23B7
  8
0
 10
13.5122176877352107
 20
43.6117582624916693
 30
0.0
 40
0.9488292851088967
 50
255.2423489901161986
 51
258.4764424068854964
  0
ARC
  5
23B8
  8
0
 10
13.0937263780037103
 20
42.7907510761941623
 30
0.0
 40
0.0298649792493551
 50
142.5055995599383039
 51
177.3944647894811055
  0
ARC
  5
23B9
  8
0
 10
13.1343790679975694
 20
42.7560496052201486
 30
0.0
 40
0.0832882459687687
 50
119.058368872951803
 51
140.5873470200507995
  0
ARC
  5
23BA
  8
0
 10
13.2519440091675698
 20
42.5444654609093504
 30
0.0
 40
0.3253406483861825
 50
106.5273640578372039
 51
119.058368872951803
  0
ARC
  5
23BB
  8
0
 10
13.5225384360843197
 20
41.6237788653437519
 30
0.0
 40
1.2849674370700459
 50
99.4954272452337847
 51
106.4160622569219043
  0
ARC
  5
23BC
  8
0
 10
13.7749463486890704
 20
40.0550823224955224
 30
0.0
 40
2.8738271964685609
 50
93.9917870437452478
 51
99.2993153038988083
  0
ARC
  5
23BD
  8
0
 10
13.8539627186472707
 20
39.0635245912965416
 30
0.0
 40
3.868492462147914
 50
92.0760816652821461
 51
94.1369174759142737
  0
ARC
  5
23BE
  8
0
 10
13.4590398014371395
 20
42.6760994124690711
 30
0.0
 40
0.0155032851335327
 50
144.3314092743804053
 51
178.5337271937895025
  0
ARC
  5
23BF
  8
0
 10
13.4858536564763103
 20
42.6533106825159294
 30
0.0
 40
0.0506568199184726
 50
118.526994995302303
 51
141.0738042554262961
  0
ARC
  5
23C0
  8
0
 10
13.5888687947306401
 20
42.4370720873680582
 30
0.0
 40
0.2901203869209723
 50
100.7913165843265944
 51
116.0059435571531026
  0
ARC
  5
23C1
  8
0
 10
13.7632371442011792
 20
41.6101506686613902
 30
0.0
 40
1.1351849542289789
 50
95.2973835569041654
 51
101.6220364472223991
  0
ARC
  5
23C2
  8
0
 10
13.8495780257434493
 20
40.7481484248160299
 30
0.0
 40
2.0014871384511381
 50
92.1391322682986811
 51
95.4802407160493942
  0
ARC
  5
23C3
  8
0
 10
13.6503152913974208
 20
42.7838914757360413
 30
0.0
 40
0.0960032621786639
 50
238.902046449731813
 51
252.0604802340438937
  0
ARC
  5
23C4
  8
0
 10
13.7276231444770591
 20
43.0248534117405583
 30
0.0
 40
0.349062613442769
 50
252.1704672673847938
 51
260.7181117381546187
  0
ARC
  5
23C5
  8
0
 10
13.8210430947853204
 20
43.5771965075077503
 30
0.0
 40
0.9092469343342733
 50
260.5222410369290742
 51
265.9527851974353894
  0
ARC
  5
23C6
  8
0
 10
13.8606630421909607
 20
44.0644764171332
 30
0.0
 40
1.3981174058478869
 50
265.7425678134297868
 51
268.3218333600576102
  0
ARC
  5
23C7
  8
0
 10
13.6235277598135802
 20
42.6689055091132872
 30
0.0
 40
0.0370329312277626
 50
70.3715384826718378
 51
109.8049414507857051
  0
ARC
  5
23C8
  8
0
 10
13.6234203801585103
 20
42.7386289734916005
 30
0.0
 40
0.0370329312280093
 50
250.3715384828084041
 51
289.8049414506489825
  0
ARC
  5
23C9
  8
0
 10
13.6180481683135799
 20
42.6742681767132908
 30
0.0
 40
0.0370329312277626
 50
70.3715384826718378
 51
74.7625739275369199
  0
ARC
  5
23CA
  8
0
 10
13.6179407886584993
 20
42.743991641091597
 30
0.0
 40
0.0370329312280093
 50
261.9819306147219891
 51
289.8049414506489825
  0
ARC
  5
23CB
  8
0
 10
13.6328427170135704
 20
42.6636950101132797
 30
0.0
 40
0.0370329312277626
 50
70.3715384826718378
 51
109.8049414507857051
  0
ARC
  5
23CC
  8
0
 10
13.6327353373584899
 20
42.7334184744916001
 30
0.0
 40
0.0370329312280093
 50
250.3715384828084041
 51
289.8049414506489825
  0
ARC
  5
23CD
  8
0
 10
13.6458455634135891
 20
42.6587217263132814
 30
0.0
 40
0.0370329312277626
 50
70.3715384826718378
 51
109.8049414507857051
  0
ARC
  5
23CE
  8
0
 10
13.6457381837585103
 20
42.7284451906916019
 30
0.0
 40
0.0370329312280093
 50
250.3715384828084041
 51
289.8049414506489825
  0
ARC
  5
23CF
  8
0
 10
13.6623251784135693
 20
42.6540720250132921
 30
0.0
 40
0.0370329312277626
 50
70.3715384826718378
 51
109.8049414507857051
  0
ARC
  5
23D0
  8
0
 10
13.6622177987585207
 20
42.7237954893915983
 30
0.0
 40
0.0370329312280093
 50
250.3715384828084041
 51
289.8049414506489825
  0
ARC
  5
23D1
  8
0
 10
13.6820216983135801
 20
42.649828945513292
 30
0.0
 40
0.0370329312277626
 50
70.3715384826718378
 51
109.8049414507857051
  0
ARC
  5
23D2
  8
0
 10
13.6819143186584995
 20
42.7195524098915982
 30
0.0
 40
0.0370329312280093
 50
250.3715384828084041
 51
289.8049414506489825
  0
ARC
  5
23D3
  8
0
 10
13.7046274253135891
 20
42.6460517544132927
 30
0.0
 40
0.0370329312277626
 50
70.3715384826718378
 51
109.8049414507857051
  0
ARC
  5
23D4
  8
0
 10
13.7045200456585103
 20
42.7157752187915989
 30
0.0
 40
0.0370329312280093
 50
250.3715384828084041
 51
289.8049414506489825
  0
ARC
  5
23D5
  8
0
 10
13.7297861359135709
 20
42.6427915050132924
 30
0.0
 40
0.0370329312277626
 50
70.3715384826718378
 51
109.8049414507857051
  0
ARC
  5
23D6
  8
0
 10
13.7296787562584903
 20
42.7125149693915986
 30
0.0
 40
0.0370329312280093
 50
250.3715384828084041
 51
289.8049414506489825
  0
ARC
  5
23D7
  8
0
 10
13.7570987708135704
 20
42.6400951422132906
 30
0.0
 40
0.0370329312277626
 50
70.3715384826718378
 51
109.8049414507857051
  0
ARC
  5
23D8
  8
0
 10
13.7569913911584898
 20
42.7098186065915968
 30
0.0
 40
0.0370329312280093
 50
250.3715384828084041
 51
289.8049414506489825
  0
ARC
  5
23D9
  8
0
 10
13.7861353133135598
 20
42.6380238463132812
 30
0.0
 40
0.0370329312277626
 50
70.3715384826718378
 51
109.8049414507857051
  0
ARC
  5
23DA
  8
0
 10
13.7860279336585201
 20
42.7077473106916017
 30
0.0
 40
0.0370329312280093
 50
250.3715384828084041
 51
289.8049414506489825
  0
ARC
  5
23DB
  8
0
 10
13.8164407251135799
 20
42.636605635613293
 30
0.0
 40
0.0370329312277626
 50
70.3715384826718378
 51
109.8049414507857051
  0
ARC
  5
23DC
  8
0
 10
13.8163333454584993
 20
42.7063290999915992
 30
0.0
 40
0.0370329312280093
 50
250.3715384828084041
 51
289.8049414506489825
  0
ARC
  5
23DD
  8
0
 10
13.8475368488135704
 20
42.635854504013281
 30
0.0
 40
0.0370329312277626
 50
70.3715384826718378
 51
109.8049414507857051
  0
ARC
  5
23DE
  8
0
 10
13.8474294691585005
 20
42.7055779683916015
 30
0.0
 40
0.0370329312280093
 50
250.3715384828084041
 51
289.8049414506489825
  0
ARC
  5
23DF
  8
0
 10
13.8331219765214808
 20
42.6401529755626214
 30
0.0
 40
0.0401954366891673
 50
71.1540177610393982
 51
108.8835740718814975
  0
ARC
  5
23E0
  8
0
 10
13.8330972039628097
 20
42.7156674103759997
 30
0.0
 40
0.0396676476489244
 50
250.8933316615637068
 51
289.1442601713583258
  0
ARC
  5
23E1
  8
0
 10
13.8047114897081808
 20
42.6411956389733007
 30
0.0
 40
0.0402998965772517
 50
71.177740970107422
 51
108.8032954656044069
  0
ARC
  5
23E2
  8
0
 10
13.8047239854869002
 20
42.7167041631881901
 30
0.0
 40
0.0395572514118572
 50
250.8108837028927098
 51
289.1701527328190764
  0
ARC
  5
23E3
  8
0
 10
13.7775125006195296
 20
42.6429632889748476
 30
0.0
 40
0.0403579135075247
 50
71.1908631025297751
 51
108.7663627734903002
  0
ARC
  5
23E4
  8
0
 10
13.7775406954533501
 20
42.7184970349269122
 30
0.0
 40
0.0395245083051588
 50
250.7793653285121138
 51
289.1778605475093968
  0
ARC
  5
23E5
  8
0
 10
13.7520528656195307
 20
42.6454399839748532
 30
0.0
 40
0.0403579135075247
 50
71.1908631025297751
 51
108.7663627734903002
  0
ARC
  5
23E6
  8
0
 10
13.7520810604533494
 20
42.7209737299269108
 30
0.0
 40
0.0395245083051588
 50
250.7793653285121138
 51
289.1778605475093968
  0
ARC
  5
23E7
  8
0
 10
13.7288168008195104
 20
42.6484971918748528
 30
0.0
 40
0.0403579135075247
 50
71.1908631025297751
 51
108.7663627734903002
  0
ARC
  5
23E8
  8
0
 10
13.7288449956533292
 20
42.7240309378269103
 30
0.0
 40
0.0395245083051588
 50
250.7793653285121138
 51
289.1778605475093968
  0
ARC
  5
23E9
  8
0
 10
13.7082594584195192
 20
42.6520811779748428
 30
0.0
 40
0.0403579135075247
 50
71.1908631025297751
 51
108.7663627734903002
  0
ARC
  5
23EA
  8
0
 10
13.7082876532533309
 20
42.7276149239269074
 30
0.0
 40
0.0395245083051588
 50
250.7793653285121138
 51
289.1778605475093968
  0
ARC
  5
23EB
  8
0
 10
13.69077997921951
 20
42.6561343249748504
 30
0.0
 40
0.0403579135075247
 50
71.1908631025297751
 51
108.7663627734903002
  0
ARC
  5
23EC
  8
0
 10
13.6908081740533607
 20
42.7316680709269079
 30
0.0
 40
0.0395245083051588
 50
250.7793653285121138
 51
289.1778605475093968
  0
ARC
  5
23ED
  8
0
 10
13.6767142119195206
 20
42.6605833789748488
 30
0.0
 40
0.0403579135075247
 50
71.1908631025297751
 51
108.7663627734903002
  0
ARC
  5
23EE
  8
0
 10
13.6767424067533305
 20
42.7361171249268992
 30
0.0
 40
0.0395245083051588
 50
250.7793653285121138
 51
289.1778605475093968
  0
ARC
  5
23EF
  8
0
 10
13.6663407938195292
 20
42.6653247573748402
 30
0.0
 40
0.0403579135075247
 50
71.1908631025297751
 51
108.7663627734903002
  0
ARC
  5
23F0
  8
0
 10
13.6663689886533497
 20
42.7408585033269119
 30
0.0
 40
0.0395245083051588
 50
250.7793653285121138
 51
289.1778605475093968
  0
ARC
  5
23F1
  8
0
 10
13.6598669691195198
 20
42.6702599405748515
 30
0.0
 40
0.0403579135075247
 50
71.1908631025297751
 51
108.7663627734903002
  0
ARC
  5
23F2
  8
0
 10
13.6598951639533297
 20
42.7457936865269019
 30
0.0
 40
0.0395245083051588
 50
250.7793653285121138
 51
289.1778605475093968
  0
ARC
  5
23F3
  8
0
 10
13.6574129007195193
 20
42.6753204942748496
 30
0.0
 40
0.0403579135075247
 50
71.1908631025297751
 51
80.991220293993166
  0
ARC
  5
23F4
  8
0
 10
13.6574410955533398
 20
42.7508542402269001
 30
0.0
 40
0.0395245083051588
 50
253.9472182473843134
 51
289.1778605475093968
  0
ARC
  5
23F5
  8
0
 10
13.6965103783819
 20
42.678687667752861
 30
0.0
 40
0.0370718276284177
 50
70.4414857284913154
 51
109.8479869745333986
  0
ARC
  5
23F6
  8
0
 10
13.6963340482901899
 20
42.7484900944494868
 30
0.0
 40
0.0370718276262796
 50
250.4414857273075938
 51
289.8479869757176175
  0
ARC
  5
23F7
  8
0
 10
13.6982172984818895
 20
42.6832630398528607
 30
0.0
 40
0.0370718276284177
 50
70.4414857284913154
 51
79.2725654095891201
  0
ARC
  5
23F8
  8
0
 10
13.69804096839019
 20
42.7530654665494865
 30
0.0
 40
0.0370718276262796
 50
251.8404358676461072
 51
289.8479869757176175
  0
ARC
  5
23F9
  8
0
 10
13.6989867143819009
 20
42.6740616373528567
 30
0.0
 40
0.0370718276284177
 50
70.4414857284913154
 51
109.8479869745333986
  0
ARC
  5
23FA
  8
0
 10
13.6988103842901996
 20
42.7438640640494896
 30
0.0
 40
0.0370718276262796
 50
250.4414857273075938
 51
289.8479869757176175
  0
ARC
  5
23FB
  8
0
 10
13.7055889930818999
 20
42.6695728610528704
 30
0.0
 40
0.0370718276284177
 50
70.4414857284913154
 51
109.8479869745333986
  0
ARC
  5
23FC
  8
0
 10
13.7054126629901702
 20
42.739375287749489
 30
0.0
 40
0.0370718276262796
 50
250.4414857273075938
 51
289.8479869757176175
  0
ARC
  5
23FD
  8
0
 10
13.7161596060819004
 20
42.6653070538528709
 30
0.0
 40
0.0370718276284177
 50
70.4414857284913154
 51
109.8479869745333986
  0
ARC
  5
23FE
  8
0
 10
13.7159832759901992
 20
42.7351094805494895
 30
0.0
 40
0.0370718276262796
 50
250.4414857273075938
 51
289.8479869757176175
  0
ARC
  5
23FF
  8
0
 10
13.7304288814819095
 20
42.6613831256528684
 30
0.0
 40
0.0370718276284177
 50
70.4414857284913154
 51
109.8479869745333986
  0
ARC
  5
2400
  8
0
 10
13.7302525513901799
 20
42.731185552349487
 30
0.0
 40
0.0370718276262796
 50
250.4414857273075938
 51
289.8479869757176175
  0
ARC
  5
2401
  8
0
 10
13.7480458469819098
 20
42.6579101327528605
 30
0.0
 40
0.0370718276284177
 50
70.4414857284913154
 51
109.8479869745333986
  0
ARC
  5
2402
  8
0
 10
13.7478695168901695
 20
42.7277125594494933
 30
0.0
 40
0.0370718276262796
 50
250.4414857273075938
 51
289.8479869757176175
  0
ARC
  5
2403
  8
0
 10
13.7685805637819101
 20
42.654958106752872
 30
0.0
 40
0.0370718276284177
 50
70.4414857284913154
 51
109.8479869745333986
  0
ARC
  5
2404
  8
0
 10
13.7684042336901697
 20
42.7247605334494907
 30
0.0
 40
0.0370718276262796
 50
250.4414857273075938
 51
289.8479869757176175
  0
ARC
  5
2405
  8
0
 10
13.7915249948819092
 20
42.6525865077528721
 30
0.0
 40
0.0370718276284177
 50
70.4414857284913154
 51
109.8479869745333986
  0
ARC
  5
2406
  8
0
 10
13.7913486647901795
 20
42.7223889344494765
 30
0.0
 40
0.0370718276262796
 50
250.4414857273075938
 51
289.8479869757176175
  0
ARC
  5
2407
  8
0
 10
13.8163140976818895
 20
42.6508783333528712
 30
0.0
 40
0.0370718276284177
 50
70.4414857284913154
 51
109.8479869745333986
  0
ARC
  5
2408
  8
0
 10
13.81613776759019
 20
42.7206807600494827
 30
0.0
 40
0.0370718276262796
 50
250.4414857273075938
 51
289.8479869757176175
  0
ARC
  5
2409
  8
0
 10
13.8423420483819104
 20
42.6498692029528712
 30
0.0
 40
0.0370718276284177
 50
70.4414857284913154
 51
109.8479869745333986
  0
ARC
  5
240A
  8
0
 10
13.8421657182901701
 20
42.7196716296494898
 30
0.0
 40
0.0370718276262796
 50
250.4414857273075938
 51
289.8479869757176175
  0
ARC
  5
240B
  8
0
 10
13.8689654952819108
 20
42.6495674030528704
 30
0.0
 40
0.0370718276284177
 50
70.4414857284913154
 51
109.8479869745333986
  0
ARC
  5
240C
  8
0
 10
13.8687891651901793
 20
42.719369829749489
 30
0.0
 40
0.0370718276262796
 50
250.4414857273075938
 51
289.8479869757176175
  0
ARC
  5
240D
  8
0
 10
13.89552371998189
 20
42.6499948959528723
 30
0.0
 40
0.0370718276284177
 50
70.4414857284913154
 51
109.8479869745333986
  0
ARC
  5
240E
  8
0
 10
13.8953473898901905
 20
42.7197973226494909
 30
0.0
 40
0.0370718276262796
 50
250.4414857273075938
 51
289.8479869757176175
  0
ARC
  5
240F
  8
0
 10
13.9213688250819096
 20
42.6511485777528634
 30
0.0
 40
0.0370718276284177
 50
70.4414857284913154
 51
109.8479869745333986
  0
ARC
  5
2410
  8
0
 10
13.92119249499018
 20
42.7209510044494891
 30
0.0
 40
0.0370718276262796
 50
250.4414857273075938
 51
289.8479869757176175
  0
ARC
  5
2411
  8
0
 10
13.9458658544818892
 20
42.6529836195528702
 30
0.0
 40
0.0370718276284177
 50
70.4414857284913154
 51
109.8479869745333986
  0
ARC
  5
2412
  8
0
 10
13.9456895243901897
 20
42.7227860462494888
 30
0.0
 40
0.0370718276262796
 50
250.4414857273075938
 51
289.8479869757176175
  0
ARC
  5
2413
  8
0
 10
13.9684065134819093
 20
42.6554532884528683
 30
0.0
 40
0.0370718276284177
 50
70.4414857284913154
 51
109.8479869745333986
  0
ARC
  5
2414
  8
0
 10
13.9682301833901708
 20
42.7252557151494869
 30
0.0
 40
0.0370718276262796
 50
250.4414857273075938
 51
289.8479869757176175
  0
ARC
  5
2415
  8
0
 10
13.9884370420819
 20
42.6585184468528595
 30
0.0
 40
0.0370718276284177
 50
70.4414857284913154
 51
109.8479869745333986
  0
ARC
  5
2416
  8
0
 10
13.9882607119901898
 20
42.7283208735494924
 30
0.0
 40
0.0370718276262796
 50
250.4414857273075938
 51
289.8479869757176175
  0
ARC
  5
2417
  8
0
 10
14.0054657712818997
 20
42.6620880797528699
 30
0.0
 40
0.0370718276284177
 50
70.4414857284913154
 51
109.8479869745333986
  0
ARC
  5
2418
  8
0
 10
14.0052894411901701
 20
42.7318905064494885
 30
0.0
 40
0.0370718276262796
 50
250.4414857273075938
 51
289.8479869757176175
  0
ARC
  5
2419
  8
0
 10
14.0190688913819201
 20
42.6660605587528607
 30
0.0
 40
0.0370718276284177
 50
70.4414857284913154
 51
109.8479869745333986
  0
ARC
  5
241A
  8
0
 10
14.0188925612901905
 20
42.7358629854494865
 30
0.0
 40
0.0370718276262796
 50
250.4414857273075938
 51
289.8479869757176175
  0
ARC
  5
241B
  8
0
 10
14.0289138694818991
 20
42.6703548600528606
 30
0.0
 40
0.0370718276284177
 50
70.4414857284913154
 51
109.8479869745333986
  0
ARC
  5
241C
  8
0
 10
14.0287375393901907
 20
42.7401572867494934
 30
0.0
 40
0.0370718276262796
 50
250.4414857273075938
 51
289.8479869757176175
  0
ARC
  5
241D
  8
0
 10
14.0347662382819198
 20
42.6748762895528628
 30
0.0
 40
0.0370718276284177
 50
70.4414857284913154
 51
109.8479869745333986
  0
ARC
  5
241E
  8
0
 10
14.0345899081901795
 20
42.7446787162494886
 30
0.0
 40
0.0370718276262796
 50
250.4414857273075938
 51
289.8479869757176175
  0
ARC
  5
241F
  8
0
 10
14.0364744074819008
 20
42.679546461252869
 30
0.0
 40
0.0370718276284177
 50
70.4414857284913154
 51
109.8479869745333986
  0
ARC
  5
2420
  8
0
 10
14.0362980773901693
 20
42.7493488879494876
 30
0.0
 40
0.0370718276262796
 50
250.4414857273075938
 51
289.8479869757176175
  0
ARC
  5
2421
  8
0
 10
14.0339980714818999
 20
42.6841724916528591
 30
0.0
 40
0.0370718276284177
 50
104.4725039711546941
 51
109.8479869745333986
  0
ARC
  5
2422
  8
0
 10
14.0338217413901702
 20
42.7539749183494919
 30
0.0
 40
0.0370718276262796
 50
250.4414857273075938
 51
285.4990886352604775
  0
ARC
  5
2423
  8
0
 10
13.8621639644214802
 20
42.6396949549626285
 30
0.0
 40
0.0401954366891673
 50
71.1540177610393982
 51
108.8835740718814975
  0
ARC
  5
2424
  8
0
 10
13.8621391918628092
 20
42.7152093897759926
 30
0.0
 40
0.0396676476489244
 50
250.8933316615637068
 51
289.1442601713583258
  0
ARC
  5
2425
  8
0
 10
13.8912850430214707
 20
42.6399378139626322
 30
0.0
 40
0.0401954366891673
 50
71.1540177610393982
 51
108.8835740718814975
  0
ARC
  5
2426
  8
0
 10
13.8912602704628192
 20
42.7154522487759891
 30
0.0
 40
0.0396676476489244
 50
250.8933316615637068
 51
289.1442601713583258
  0
ARC
  5
2427
  8
0
 10
13.9199218260214899
 20
42.6408942591626285
 30
0.0
 40
0.0401954366891673
 50
71.1540177610393982
 51
108.8835740718814975
  0
ARC
  5
2428
  8
0
 10
13.9198970534628206
 20
42.7164086939759926
 30
0.0
 40
0.0396676476489244
 50
250.8933316615637068
 51
289.1442601713583258
  0
ARC
  5
2429
  8
0
 10
13.9475201267214803
 20
42.6425341756626324
 30
0.0
 40
0.0401954366891673
 50
71.1540177610393982
 51
108.8835740718814975
  0
ARC
  5
242A
  8
0
 10
13.9474953541628093
 20
42.7180486104759893
 30
0.0
 40
0.0396676476489244
 50
250.8933316615637068
 51
289.1442601713583258
  0
ARC
  5
242B
  8
0
 10
13.9735411368214901
 20
42.6448135491626203
 30
0.0
 40
0.0401954366891673
 50
71.1540177610393982
 51
108.8835740718814975
  0
ARC
  5
242C
  8
0
 10
13.9735163642628208
 20
42.7203279839759773
 30
0.0
 40
0.0396676476489244
 50
250.8933316615637068
 51
289.1442601713583258
  0
ARC
  5
242D
  8
0
 10
13.99747455642148
 20
42.647702530862631
 30
0.0
 40
0.0401954366891673
 50
71.1540177610393982
 51
108.8835740718814975
  0
ARC
  5
242E
  8
0
 10
13.9974497838628
 20
42.7232169656759879
 30
0.0
 40
0.0396676476489244
 50
250.8933316615637068
 51
289.1442601713583258
  0
ARC
  5
242F
  8
0
 10
14.0188574410214795
 20
42.651151201862632
 30
0.0
 40
0.0401954366891673
 50
71.1540177610393982
 51
108.8835740718814975
  0
ARC
  5
2430
  8
0
 10
14.0188326684628102
 20
42.7266656366759889
 30
0.0
 40
0.0396676476489244
 50
250.8933316615637068
 51
289.1442601713583258
  0
ARC
  5
2431
  8
0
 10
14.0372739186214801
 20
42.655079960562631
 30
0.0
 40
0.0401954366891673
 50
71.1540177610393982
 51
108.8835740718814975
  0
ARC
  5
2432
  8
0
 10
14.0372491460628002
 20
42.7305943953760021
 30
0.0
 40
0.0396676476489244
 50
250.8933316615637068
 51
289.1442601713583258
  0
ARC
  5
2433
  8
0
 10
14.0523618500214695
 20
42.6594017299626316
 30
0.0
 40
0.0401954366891673
 50
71.1540177610393982
 51
108.8835740718814975
  0
ARC
  5
2434
  8
0
 10
14.0523370774628198
 20
42.7349161647759885
 30
0.0
 40
0.0396676476489244
 50
250.8933316615637068
 51
289.1442601713583258
  0
ARC
  5
2435
  8
0
 10
14.0638284562214704
 20
42.6640454371626205
 30
0.0
 40
0.0401954366891673
 50
71.1540177610393982
 51
108.8835740718814975
  0
ARC
  5
2436
  8
0
 10
14.0638036836628206
 20
42.7395598719759988
 30
0.0
 40
0.0396676476489244
 50
250.8933316615637068
 51
289.1442601713583258
  0
ARC
  5
2437
  8
0
 10
14.0714579666214892
 20
42.6689303529626329
 30
0.0
 40
0.0401954366891673
 50
71.1540177610393982
 51
108.8835740718814975
  0
ARC
  5
2438
  8
0
 10
14.0714331940628199
 20
42.7444447877759899
 30
0.0
 40
0.0396676476489244
 50
250.8933316615637068
 51
289.1442601713583258
  0
ARC
  5
2439
  8
0
 10
14.0751001948214896
 20
42.6739648303626282
 30
0.0
 40
0.0401954366891673
 50
71.1540177610393982
 51
108.8835740718814975
  0
ARC
  5
243A
  8
0
 10
14.0750754222628096
 20
42.7494792651759923
 30
0.0
 40
0.0396676476489244
 50
250.8933316615637068
 51
289.1442601713583258
  0
ARC
  5
243B
  8
0
 10
13.8789299531135804
 20
42.6357757839132887
 30
0.0
 40
0.0370329312277626
 50
70.3715384826718378
 51
109.8049414507857051
  0
ARC
  5
243C
  8
0
 10
13.8788225734584998
 20
42.705499248291602
 30
0.0
 40
0.0370329312280093
 50
250.3715384828084041
 51
289.8049414506489825
  0
ARC
  5
243D
  8
0
 10
13.9101238598135808
 20
42.6363885149132926
 30
0.0
 40
0.0370329312277626
 50
70.3715384826718378
 51
109.8049414507857051
  0
ARC
  5
243E
  8
0
 10
13.9100164801585002
 20
42.7061119792915989
 30
0.0
 40
0.0370329312280093
 50
250.3715384828084041
 51
289.8049414506489825
  0
ARC
  5
243F
  8
0
 10
13.9406305643135795
 20
42.6376814277132823
 30
0.0
 40
0.0370329312277626
 50
70.3715384826718378
 51
109.8049414507857051
  0
ARC
  5
2440
  8
0
 10
13.9405231846585007
 20
42.7074048920916027
 30
0.0
 40
0.0370329312280093
 50
250.3715384828084041
 51
289.8049414506489825
  0
ARC
  5
2441
  8
0
 10
13.9699699230135597
 20
42.6396258235132919
 30
0.0
 40
0.0370329312277626
 50
70.3715384826718378
 51
109.8049414507857051
  0
ARC
  5
2442
  8
0
 10
13.9698625433585093
 20
42.7093492878915981
 30
0.0
 40
0.0370329312280093
 50
250.3715384828084041
 51
289.8049414506489825
  0
ARC
  5
2443
  8
0
 10
13.9976771823135699
 20
42.6421830202132881
 30
0.0
 40
0.0370329312277626
 50
70.3715384826718378
 51
109.8049414507857051
  0
ARC
  5
2444
  8
0
 10
13.9975698026585196
 20
42.7119064845915872
 30
0.0
 40
0.0370329312280093
 50
250.3715384828084041
 51
289.8049414506489825
  0
ARC
  5
2445
  8
0
 10
14.0233130077135701
 20
42.6453282393132866
 30
0.0
 40
0.0370329312277626
 50
70.3715384826718378
 51
109.8049414507857051
  0
ARC
  5
2446
  8
0
 10
14.0232056280585198
 20
42.7150517036916
 30
0.0
 40
0.0370329312280093
 50
250.3715384828084041
 51
289.8049414506489825
  0
ARC
  5
2447
  8
0
 10
14.0464755299135806
 20
42.6490138699132828
 30
0.0
 40
0.0370329312277626
 50
70.3715384826718378
 51
109.8049414507857051
  0
ARC
  5
2448
  8
0
 10
14.0463681502585001
 20
42.7187373342916032
 30
0.0
 40
0.0370329312280093
 50
250.3715384828084041
 51
289.8049414506489825
  0
ARC
  5
2449
  8
0
 10
14.0667997893135599
 20
42.6531730475132917
 30
0.0
 40
0.0370329312277626
 50
70.3715384826718378
 51
109.8049414507857051
  0
ARC
  5
244A
  8
0
 10
14.0666924096585095
 20
42.7228965118916122
 30
0.0
 40
0.0370329312280093
 50
250.3715384828084041
 51
289.8049414506489825
  0
ARC
  5
244B
  8
0
 10
14.0839630831135896
 20
42.657731534013287
 30
0.0
 40
0.0370329312277626
 50
70.3715384826718378
 51
109.8049414507857051
  0
ARC
  5
244C
  8
0
 10
14.0838557034585108
 20
42.7274549983915932
 30
0.0
 40
0.0370329312280093
 50
250.3715384828084041
 51
289.8049414506489825
  0
ARC
  5
244D
  8
0
 10
14.0976928774135803
 20
42.66262247681329
 30
0.0
 40
0.0370329312277626
 50
70.3715384826718378
 51
109.8049414507857051
  0
ARC
  5
244E
  8
0
 10
14.0975854977584998
 20
42.7323459411916033
 30
0.0
 40
0.0370329312280093
 50
250.3715384828084041
 51
289.8049414506489825
  0
ARC
  5
244F
  8
0
 10
14.1077785755135796
 20
42.6677792808132921
 30
0.0
 40
0.0370329312277626
 50
70.3715384826718378
 51
109.8049414507857051
  0
ARC
  5
2450
  8
0
 10
14.1076711958585008
 20
42.7375027451915983
 30
0.0
 40
0.0370329312280093
 50
250.3715384828084041
 51
289.8049414506489825
  0
ARC
  5
2451
  8
0
 10
14.1140574976135706
 20
42.6731934306132885
 30
0.0
 40
0.0370329312277626
 50
99.4565005796458053
 51
109.8049414507857051
  0
ARC
  5
2452
  8
0
 10
14.1139501179584901
 20
42.7429168949916019
 30
0.0
 40
0.0370329312280093
 50
250.3715384828084041
 51
284.132376386549879
  0
ARC
  5
2453
  8
0
 10
13.7448395799337106
 20
42.68424710419864
 30
0.0
 40
0.0370340284085343
 50
70.1976181955080847
 51
109.6301941164038993
  0
ARC
  5
2454
  8
0
 10
13.7449443513383205
 20
42.7539728185749226
 30
0.0
 40
0.0370340283792955
 50
250.1976181792973932
 51
289.6301941326142924
  0
ARC
  5
2455
  8
0
 10
13.7413698518337206
 20
42.6788900345986519
 30
0.0
 40
0.0370340284085343
 50
70.1976181955080847
 51
109.6301941164038993
  0
ARC
  5
2456
  8
0
 10
13.7414746232383305
 20
42.7486157489749203
 30
0.0
 40
0.0370340283792955
 50
250.1976181792973932
 51
289.6301941326142924
  0
ARC
  5
2457
  8
0
 10
13.74574348913373
 20
42.6734899367986387
 30
0.0
 40
0.0370340284085343
 50
70.1976181955080847
 51
109.6301941164038993
  0
ARC
  5
2458
  8
0
 10
13.7458482605383097
 20
42.7432156511749071
 30
0.0
 40
0.0370340283792955
 50
250.1976181792973932
 51
289.6301941326142924
  0
ARC
  5
2459
  8
0
 10
13.7577064289337105
 20
42.668443092298638
 30
0.0
 40
0.0370340284085343
 50
70.1976181955080847
 51
109.6301941164038993
  0
ARC
  5
245A
  8
0
 10
13.7578112003383204
 20
42.7381688066749135
 30
0.0
 40
0.0370340283792955
 50
250.1976181792973932
 51
289.6301941326142924
  0
ARC
  5
245B
  8
0
 10
13.7764903475337199
 20
42.6640852508986512
 30
0.0
 40
0.0370340284085343
 50
70.1976181955080847
 51
109.6301941164038993
  0
ARC
  5
245C
  8
0
 10
13.7765951189383298
 20
42.7338109652749267
 30
0.0
 40
0.0370340283792955
 50
250.1976181792973932
 51
289.6301941326142924
  0
ARC
  5
245D
  8
0
 10
13.80092120803371
 20
42.6606826828986385
 30
0.0
 40
0.0370340284085343
 50
70.1976181955080847
 51
109.6301941164038993
  0
ARC
  5
245E
  8
0
 10
13.8010259794383199
 20
42.7304083972749069
 30
0.0
 40
0.0370340283792955
 50
250.1976181792973932
 51
289.6301941326142924
  0
ARC
  5
245F
  8
0
 10
13.8294600981337208
 20
42.6584330895986525
 30
0.0
 40
0.0370340284085343
 50
70.1976181955080847
 51
109.6301941164038993
  0
ARC
  5
2460
  8
0
 10
13.8295648695383306
 20
42.7281588039749209
 30
0.0
 40
0.0370340283792955
 50
250.1976181792973932
 51
289.6301941326142924
  0
ARC
  5
2461
  8
0
 10
13.8603232178337201
 20
42.6574972355986404
 30
0.0
 40
0.0370340284085343
 50
70.1976181955080847
 51
109.6301941164038993
  0
ARC
  5
2462
  8
0
 10
13.86042798923833
 20
42.727222949974923
 30
0.0
 40
0.0370340283792955
 50
250.1976181792973932
 51
289.6301941326142924
  0
ARC
  5
2463
  8
0
 10
13.8915603585337202
 20
42.6579110783986479
 30
0.0
 40
0.0370340284085343
 50
70.1976181955080847
 51
109.6301941164038993
  0
ARC
  5
2464
  8
0
 10
13.89166512993833
 20
42.7276367927749234
 30
0.0
 40
0.0370340283792955
 50
250.1976181792973932
 51
289.6301941326142924
  0
ARC
  5
2465
  8
0
 10
13.9212179497337107
 20
42.6596748994986399
 30
0.0
 40
0.0370340284085343
 50
70.1976181955080847
 51
109.6301941164038993
  0
ARC
  5
2466
  8
0
 10
13.9213227211383206
 20
42.7294006138749225
 30
0.0
 40
0.0370340283792955
 50
250.1976181792973932
 51
289.6301941326142924
  0
ARC
  5
2467
  8
0
 10
13.9474276909337203
 20
42.6626491436986512
 30
0.0
 40
0.0370340284085343
 50
70.1976181955080847
 51
109.6301941164038993
  0
ARC
  5
2468
  8
0
 10
13.9475324623383301
 20
42.7323748580749196
 30
0.0
 40
0.0370340283792955
 50
250.1976181792973932
 51
289.6301941326142924
  0
ARC
  5
2469
  8
0
 10
13.9685433493337108
 20
42.6666773935986399
 30
0.0
 40
0.0370340284085343
 50
70.1976181955080847
 51
109.6301941164038993
  0
ARC
  5
246A
  8
0
 10
13.9686481207383206
 20
42.7364031079749225
 30
0.0
 40
0.0370340283792955
 50
250.1976181792973932
 51
289.6301941326142924
  0
ARC
  5
246B
  8
0
 10
13.9832314705337204
 20
42.6714634440986487
 30
0.0
 40
0.0370340284085343
 50
70.1976181955080847
 51
109.6301941164038993
  0
ARC
  5
246C
  8
0
 10
13.9833362419383302
 20
42.7411891584749171
 30
0.0
 40
0.0370340283792955
 50
250.1976181792973932
 51
289.6301941326142924
  0
ARC
  5
246D
  8
0
 10
13.9905845818337298
 20
42.6767536952986504
 30
0.0
 40
0.0370340284085343
 50
70.1976181955080847
 51
109.6301941164038993
  0
ARC
  5
246E
  8
0
 10
13.9906893532383094
 20
42.746479409674933
 30
0.0
 40
0.0370340283792955
 50
250.1976181792973932
 51
289.6301941326142924
  0
ARC
  5
246F
  8
0
 10
13.9901277606337207
 20
42.6822236615986412
 30
0.0
 40
0.0370340284085343
 50
70.1976181955080847
 51
109.6301941164038993
  0
ARC
  5
2470
  8
0
 10
13.9902325320383305
 20
42.7519493759749167
 30
0.0
 40
0.0370340283792955
 50
250.1976181792973932
 51
289.6301941326142924
  0
ARC
  5
2471
  8
0
 10
13.9818911012337104
 20
42.6874068025986375
 30
0.0
 40
0.0370340284085343
 50
70.1976181955080847
 51
71.2915461274669298
  0
ARC
  5
2472
  8
0
 10
13.9818911012337104
 20
42.6874068025986375
 30
0.0
 40
0.0370340284085343
 50
101.5481169518003952
 51
109.6301941164038993
  0
ARC
  5
2473
  8
0
 10
13.9819958726383202
 20
42.757132516974913
 30
0.0
 40
0.0370340283792955
 50
250.1976181792973932
 51
289.6301941326142924
  0
ARC
  5
2474
  8
0
 10
13.7566042432122799
 20
42.6893382436665334
 30
0.0
 40
0.0370340284085343
 50
70.1976181955080847
 51
70.2755334555287163
  0
ARC
  5
2475
  8
0
 10
13.7567090146168898
 20
42.7590639580428018
 30
0.0
 40
0.0370340283792955
 50
256.8094387968287151
 51
289.6301941326142924
  0
ARC
  5
2476
  8
0
 10
13.7874475009920392
 20
42.7543006758713489
 30
0.0
 40
0.0370061300992573
 50
250.2044122514840012
 51
289.6709903032186162
  0
ARC
  5
2477
  8
0
 10
13.7873717520800501
 20
42.6846348614532403
 30
0.0
 40
0.0370061300804694
 50
70.2044122410495817
 51
109.6709903136536042
  0
ARC
  5
2478
  8
0
 10
13.7814549488920495
 20
42.7486816458713506
 30
0.0
 40
0.0370061300992573
 50
250.2044122514840012
 51
289.6709903032186162
  0
ARC
  5
2479
  8
0
 10
13.7813791999800497
 20
42.679015831453242
 30
0.0
 40
0.0370061300804694
 50
70.2044122410495817
 51
109.6709903136536042
  0
ARC
  5
247A
  8
0
 10
13.7883945384920708
 20
42.743030415671349
 30
0.0
 40
0.0370061300992573
 50
250.2044122514840012
 51
289.6709903032186162
  0
ARC
  5
247B
  8
0
 10
13.7883187895800408
 20
42.6733646012532333
 30
0.0
 40
0.0370061300804694
 50
70.2044122410495817
 51
109.6709903136536042
  0
ARC
  5
247C
  8
0
 10
13.8072228619920399
 20
42.7382770862713528
 30
0.0
 40
0.0370061300992573
 50
250.2044122514840012
 51
289.6709903032186162
  0
ARC
  5
247D
  8
0
 10
13.8071471130800507
 20
42.6686112718532371
 30
0.0
 40
0.0370061300804694
 50
70.2044122410495817
 51
109.6709903136536042
  0
ARC
  5
247E
  8
0
 10
13.8350616930920598
 20
42.7351427812713496
 30
0.0
 40
0.0370061300992573
 50
250.2044122514840012
 51
289.6709903032186162
  0
ARC
  5
247F
  8
0
 10
13.83498594418006
 20
42.665476966853241
 30
0.0
 40
0.0370061300804694
 50
70.2044122410495817
 51
109.6709903136536042
  0
ARC
  5
2480
  8
0
 10
13.8676826598920702
 20
42.7341052162713524
 30
0.0
 40
0.0370061300992573
 50
250.2044122514840012
 51
289.6709903032186162
  0
ARC
  5
2481
  8
0
 10
13.8676069109800402
 20
42.6644394018532367
 30
0.0
 40
0.0370061300804694
 50
70.2044122410495817
 51
109.6709903136536042
  0
ARC
  5
2482
  8
0
 10
13.9001113205920603
 20
42.7353166613713427
 30
0.0
 40
0.0370061300992573
 50
250.2044122514840012
 51
289.6709903032186162
  0
ARC
  5
2483
  8
0
 10
13.9000355716800303
 20
42.6656508469532412
 30
0.0
 40
0.0370061300804694
 50
70.2044122410495817
 51
109.6709903136536042
  0
ARC
  5
2484
  8
0
 10
13.9274186218920608
 20
42.7385817709713365
 30
0.0
 40
0.0370061300992573
 50
250.2044122514840012
 51
289.6709903032186162
  0
ARC
  5
2485
  8
0
 10
13.9273428729800308
 20
42.6689159565532421
 30
0.0
 40
0.0370061300804694
 50
70.2044122410495817
 51
109.6709903136536042
  0
ARC
  5
2486
  8
0
 10
13.9454367036920495
 20
42.7434016942713484
 30
0.0
 40
0.0370061300992573
 50
250.2044122514840012
 51
289.6709903032186162
  0
ARC
  5
2487
  8
0
 10
13.9453609547800497
 20
42.6737358798532398
 30
0.0
 40
0.0370061300804694
 50
70.2044122410495817
 51
109.6709903136536042
  0
ARC
  5
2488
  8
0
 10
13.9514369634920605
 20
42.749111042571343
 30
0.0
 40
0.0370061300992573
 50
250.2044122514840012
 51
289.6709903032186162
  0
ARC
  5
2489
  8
0
 10
13.9513612145800607
 20
42.6794452281532415
 30
0.0
 40
0.0370061300804694
 50
70.2044122410495817
 51
109.6709903136536042
  0
ARC
  5
248A
  8
0
 10
13.9444911439920496
 20
42.7547228190713398
 30
0.0
 40
0.0370061300992573
 50
250.2044122514840012
 51
289.6709903032186162
  0
ARC
  5
248B
  8
0
 10
13.9444153950800604
 20
42.6850570046532525
 30
0.0
 40
0.0370061300804694
 50
70.2044122410495817
 51
109.6709903136536042
  0
ARC
  5
248C
  8
0
 10
13.9256613427920701
 20
42.7594252838713516
 30
0.0
 40
0.0370061300992573
 50
250.2044122514840012
 51
289.6709903032186162
  0
ARC
  5
248D
  8
0
 10
13.9255855938800401
 20
42.689759469453243
 30
0.0
 40
0.0370061300804694
 50
70.2044122410495817
 51
74.7867942583083334
  0
ARC
  5
248E
  8
0
 10
13.9255855938800401
 20
42.689759469453243
 30
0.0
 40
0.0370061300804694
 50
101.7603692089294043
 51
109.6709903136536042
  0
ARC
  5
248F
  8
0
 10
13.8054746549920502
 20
42.7591498599713518
 30
0.0
 40
0.0370061300992573
 50
250.2044122514840012
 51
289.6709903032186162
  0
ARC
  5
2490
  8
0
 10
13.8053989060800504
 20
42.6894840455532432
 30
0.0
 40
0.0370061300804694
 50
70.2044122410495817
 51
79.6035219734895207
  0
ARC
  5
2491
  8
0
 10
13.8053989060800504
 20
42.6894840455532432
 30
0.0
 40
0.0370061300804694
 50
104.046138436887702
 51
109.6709903136536042
  0
ARC
  5
2492
  8
0
 10
13.8341278222317499
 20
42.6850041746816231
 30
0.0
 40
0.0366555443372065
 50
70.067277513054151
 51
109.9422987064156985
  0
ARC
  5
2493
  8
0
 10
13.8341220629402795
 20
42.7539213700237966
 30
0.0
 40
0.0366555450900093
 50
250.0672779398840078
 51
289.942298279585998
  0
ARC
  5
2494
  8
0
 10
13.8214111861317406
 20
42.6794765454816201
 30
0.0
 40
0.0366555443372065
 50
70.067277513054151
 51
109.9422987064156985
  0
ARC
  5
2495
  8
0
 10
13.8214054268402702
 20
42.7483937408238077
 30
0.0
 40
0.0366555450900093
 50
250.0672779398840078
 51
289.942298279585998
  0
ARC
  5
2496
  8
0
 10
13.83505319073174
 20
42.673953386081628
 30
0.0
 40
0.0366555443372065
 50
70.067277513054151
 51
109.9422987064156985
  0
ARC
  5
2497
  8
0
 10
13.8350474314402696
 20
42.7428705814237873
 30
0.0
 40
0.0366555450900093
 50
250.0672779398840078
 51
289.942298279585998
  0
ARC
  5
2498
  8
0
 10
13.8670612944317497
 20
42.6717442736816182
 30
0.0
 40
0.0366555443372065
 50
70.067277513054151
 51
109.9422987064156985
  0
ARC
  5
2499
  8
0
 10
13.8670555351402793
 20
42.7406614690237987
 30
0.0
 40
0.0366555450900093
 50
250.0672779398840078
 51
289.942298279585998
  0
ARC
  5
249A
  8
0
 10
13.8664064253317392
 20
42.6795902092816206
 30
0.0
 40
0.0366555443372065
 50
70.067277513054151
 51
109.9422987064156985
  0
ARC
  5
249B
  8
0
 10
13.8664006660402794
 20
42.7485074046238083
 30
0.0
 40
0.0366555450900093
 50
250.0672779398840078
 51
289.942298279585998
  0
ARC
  5
249C
  8
0
 10
13.8657521664317507
 20
42.6873709562816188
 30
0.0
 40
0.0366555443372065
 50
70.067277513054151
 51
109.9422987064156985
  0
ARC
  5
249D
  8
0
 10
13.8657464071402803
 20
42.7562881516237994
 30
0.0
 40
0.0366555450900093
 50
250.0672779398840078
 51
289.942298279585998
  0
ARC
  5
249E
  8
0
 10
13.8977603749317495
 20
42.6851638642816269
 30
0.0
 40
0.0366555443372065
 50
70.067277513054151
 51
109.9422987064156985
  0
ARC
  5
249F
  8
0
 10
13.8977546156402791
 20
42.7540810596238003
 30
0.0
 40
0.0366555450900093
 50
250.0672779398840078
 51
289.942298279585998
  0
ARC
  5
24A0
  8
0
 10
13.9114016644317307
 20
42.679703873181623
 30
0.0
 40
0.0366555443372065
 50
70.067277513054151
 51
109.9422987064156985
  0
ARC
  5
24A1
  8
0
 10
13.9113959051402691
 20
42.7486210685238035
 30
0.0
 40
0.0366555450900093
 50
250.0672779398840078
 51
289.942298279585998
  0
ARC
  5
24A2
  8
0
 10
13.8986863929317508
 20
42.6741151864816217
 30
0.0
 40
0.0366555443372065
 50
70.067277513054151
 51
109.9422987064156985
  0
ARC
  5
24A3
  8
0
 10
13.8986806336402804
 20
42.7430323818238023
 30
0.0
 40
0.0366555450900093
 50
250.0672779398840078
 51
289.942298279585998
  0
ARC
  5
24A4
  8
0
 10
13.8975961298569093
 20
42.7622216376165767
 30
0.0
 40
0.0366555450900093
 50
256.9969704110686735
 51
281.316825782039075
  0
ARC
  5
24A5
  8
0
 10
13.8329097051204997
 20
42.7620573135710913
 30
0.0
 40
0.0366555450900093
 50
258.0184073659522141
 51
283.8671625969108732
  0
ARC
  5
24A6
  8
0
 10
13.8635550379979406
 20
40.8641228933177274
 30
0.0
 40
1.86247129022136
 50
91.3322544894472657
 51
92.7071883126413354
  0
ARC
  5
24A7
  8
0
 10
14.3796236953702099
 20
45.7613701026946273
 30
0.0
 40
0.0499373135816084
 50
320.9795047645795876
 51
359.2958306720776136
  0
ARC
  5
24A8
  8
0
 10
14.4359418318840405
 20
42.7612890903696226
 30
0.0
 40
0.0190063558561304
 50
328.9846123465500227
 51
31.0153876534499595
  0
ARC
  5
24A9
  8
0
 10
14.4163722505932697
 20
42.773054835448491
 30
0.0
 40
0.0418405685458117
 50
318.3606275071018104
 51
328.9846123465503069
  0
ARC
  5
24AA
  8
0
 10
14.4007191543102806
 20
42.7898174788562287
 30
0.0
 40
0.0647115109827569
 50
300.0293177921711276
 51
316.4771420239563895
  0
ARC
  5
24AB
  8
0
 10
14.4163722505932697
 20
42.7495233452907399
 30
0.0
 40
0.0418405685458117
 50
31.0153876534497002
 51
41.639372492898211
  0
ARC
  5
24AC
  8
0
 10
14.39954441622044
 20
42.7313176387213502
 30
0.0
 40
0.066557493212497
 50
43.7272133908554324
 51
57.9775638000329181
  0
ARC
  5
24AD
  8
0
 10
13.9633559322118703
 20
40.882868715257608
 30
0.0
 40
1.976700898685257
 50
81.472300632096804
 51
85.2672871294631705
  0
ARC
  5
24AE
  8
0
 10
14.3309537361282899
 20
42.6150577225366973
 30
0.0
 40
0.2015279329357845
 50
58.9707016041278322
 51
70.8192184829464679
  0
ARC
  5
24AF
  8
0
 10
14.2059452745164094
 20
42.2502244925018928
 30
0.0
 40
0.5871823025470267
 50
70.9945739453759614
 51
77.3598024852756652
  0
ARC
  5
24B0
  8
0
 10
14.0842278952236803
 20
41.6978910379004333
 30
0.0
 40
1.152766179805605
 50
77.4641079946657669
 51
81.4065930113610534
  0
LINE
  5
24B1
  8
0
 10
14.4477102472860395
 20
42.7772463166235681
 30
0.0
 11
14.4477102472860395
 21
42.7675334088481094
 31
0.0
  0
ARC
  5
24B2
  8
0
 10
14.4264813039410402
 20
42.7675334088481094
 30
0.0
 40
0.0212289433449977
 50
328.3596306582193733
 51
31.6403693417768288
  0
ARC
  5
24B3
  8
0
 10
14.4163590991578605
 20
42.7614525346556675
 30
0.0
 40
0.0330367669971634
 50
31.4097623993651602
 51
41.2119770016641098
  0
ARC
  5
24B4
  8
0
 10
14.4114058494782604
 20
42.7749473111141967
 30
0.0
 40
0.0379863369850102
 50
306.0193818831410795
 51
330.7683660664097829
  0
ARC
  5
24B5
  8
0
 10
1.5874413714173981
 20
42.8120132256669024
 30
0.0
 40
13.0827959716886895
 50
359.9128286925289899
 51
1.0700268903402479
  0
ARC
  5
24B6
  8
0
 10
7.0061337861195616
 20
42.9009329773047483
 30
0.0
 40
7.6633978049539211
 50
1.1618884670467191
 51
4.1150193991145052
  0
ARC
  5
24B7
  8
0
 10
6.901437368980452
 20
42.7897664338662409
 30
0.0
 40
7.7764885261779826
 50
4.8766318483876798
 51
7.73403167488717
  0
ARC
  5
24B8
  8
0
 10
81.7503691005184265
 20
53.339671679447882
 30
0.0
 40
67.8123978439630832
 50
187.6125271519238993
 51
188.0560811974526132
  0
ARC
  5
24B9
  8
0
 10
28.7613464733894091
 20
46.1815781783111987
 30
0.0
 40
14.3423319076861109
 50
185.0730636039627086
 51
187.311368660243204
  0
ARC
  5
24BA
  8
0
 10
26.3476816212296114
 20
45.9472844022424667
 30
0.0
 40
11.9174210154985705
 50
181.2232171721844907
 51
184.9771722989684122
  0
ARC
  5
24BB
  8
0
 10
14.3760749699178501
 20
45.6916163124572776
 30
0.0
 40
0.0569153927393161
 50
1.2689313241667859
 51
24.7687108609863813
  0
ARC
  5
24BC
  8
0
 10
14.3587047937829695
 20
45.6812219048388712
 30
0.0
 40
0.0770727234589461
 50
26.3752906670688212
 51
52.8886779599658468
  0
ARC
  5
24BD
  8
0
 10
14.2813083357559307
 20
45.5635183995020014
 30
0.0
 40
0.2178339728537379
 50
55.3348432659715286
 51
73.5947718365820975
  0
ARC
  5
24BE
  8
0
 10
14.0579885501699096
 20
44.7834152913008623
 30
0.0
 40
1.0292677175179521
 50
73.9341002543920496
 51
82.4036668844028526
  0
ARC
  5
24BF
  8
0
 10
13.9099836618618102
 20
43.6244692896182471
 30
0.0
 40
2.1976176235143998
 50
82.573094432947542
 51
87.0297851632252133
  0
ARC
  5
24C0
  8
0
 10
14.6003643845675395
 20
42.7936990010474787
 30
0.0
 40
0.0698759155114372
 50
325.0255246795355788
 51
358.6959157337317947
  0
ARC
  5
24C1
  8
0
 10
14.5555148576845497
 20
42.83265647878126
 30
0.0
 40
0.1291064449647101
 50
300.6941751233459854
 51
322.2668605248346125
  0
ARC
  5
24C2
  8
0
 10
14.3984058047630903
 20
43.1451338595617031
 30
0.0
 40
0.478626939280698
 50
284.5948223310447815
 51
297.771170503634778
  0
ARC
  5
24C3
  8
0
 10
14.1889783051967093
 20
43.9566631016697471
 30
0.0
 40
1.316742911569561
 50
277.3050290159927158
 51
284.5155844310028783
  0
ARC
  5
24C4
  8
0
 10
14.0481628543229498
 20
44.787683655595643
 30
0.0
 40
2.1596095016093502
 50
276.015403704024493
 51
276.4010756254986063
  0
LINE
  5
24C5
  8
0
 10
14.2905728824860301
 20
42.6764961182023086
 30
0.0
 11
14.2907812304802597
 21
42.7235202089310491
 31
0.0
  0
ARC
  5
24C6
  8
0
 10
14.2667252817263908
 20
42.6767072074889526
 30
0.0
 40
0.0238485349797066
 50
328.8508610055451982
 51
359.4928542502041751
  0
ARC
  5
24C7
  8
0
 10
14.25221465788524
 20
42.685477557700267
 30
0.0
 40
0.0408036889774866
 50
301.5987984121355794
 51
328.8508610055454255
  0
ARC
  5
24C8
  8
0
 10
14.1894932177119095
 20
42.786194980108597
 30
0.0
 40
0.1594538903150498
 50
287.4615088772756053
 51
301.8321872920305964
  0
ARC
  5
24C9
  8
0
 10
14.0783144483179399
 20
43.1376338405934092
 30
0.0
 40
0.5280592108861596
 50
280.0045430420955199
 51
287.5267190624019804
  0
ARC
  5
24CA
  8
0
 10
13.9437613211042901
 20
43.9052545915148471
 30
0.0
 40
1.3073831937757741
 50
274.27422213020958
 51
279.9673456602166084
  0
ARC
  5
24CB
  8
0
 10
13.8770064493891692
 20
44.6887929570794284
 30
0.0
 40
2.0937335498359171
 50
271.8111166344779122
 51
274.4978534359237869
  0
ARC
  5
24CC
  8
0
 10
13.8824711029226293
 20
41.0983948037203035
 30
0.0
 40
1.6278984415207429
 50
85.1325264437537754
 51
87.3221404631178757
  0
ARC
  5
24CD
  8
0
 10
13.9212605435945402
 20
41.5379899015107412
 30
0.0
 40
1.18659812103874
 50
81.8401147831121136
 51
85.1976803535640386
  0
ARC
  5
24CE
  8
0
 10
13.9922153102605709
 20
42.0272902518653169
 30
0.0
 40
0.6921809392119429
 50
78.1198332740900554
 51
81.905268692923002
  0
ARC
  5
24CF
  8
0
 10
14.0560375595743192
 20
42.3306689600863066
 30
0.0
 40
0.3821617138253533
 50
71.1955206839848813
 51
78.1198332740900554
  0
ARC
  5
24D0
  8
0
 10
14.1446231191483793
 20
42.5908206626341723
 30
0.0
 40
0.1073412093072228
 50
59.3925580262817974
 51
71.1955206839848813
  0
ARC
  5
24D1
  8
0
 10
14.2006767921423602
 20
42.6667475698107665
 30
0.0
 40
0.011881329945923
 50
317.854440720766604
 51
42.1455592792333888
  0
ARC
  5
24D2
  8
0
 10
14.1791103691282903
 20
42.6485608445188333
 30
0.0
 40
0.0400873363522615
 50
40.73470604513642
 51
59.7981121263471778
  0
ARC
  5
24D3
  8
0
 10
14.1791103691282903
 20
42.6849342951027069
 30
0.0
 40
0.0400873363522615
 50
300.2018878736528222
 51
319.26529395486358
  0
LINE
  5
24D4
  8
0
 10
14.1845920511860299
 20
42.6734017760023079
 30
0.0
 11
14.1867192790877006
 21
42.6895629966854671
 31
0.0
  0
LINE
  5
24D5
  8
0
 10
14.1845920511860299
 20
42.6734017760023079
 30
0.0
 11
14.1638009599860393
 21
42.6734542970023085
 31
0.0
  0
ARC
  5
24D6
  8
0
 10
14.1127734887908804
 20
42.8050137785409888
 30
0.0
 40
0.1499320683401257
 50
285.2348518229073875
 51
298.6205903819536047
  0
LINE
  5
24D7
  8
0
 10
14.1521720573860499
 20
42.6603507981023071
 30
0.0
 11
14.1376844047860306
 21
42.6629408285023075
 31
0.0
  0
ARC
  5
24D8
  8
0
 10
14.1679843570288693
 20
42.6893982160922505
 30
0.0
 40
0.0097258491594252
 50
336.8689937421352738
 51
23.0338207096001284
  0
ARC
  5
24D9
  8
0
 10
14.1619722824362402
 20
42.6919664295291881
 30
0.0
 40
0.0162634910251963
 50
310.3438517240958845
 51
336.8689937421364107
  0
ARC
  5
24DA
  8
0
 10
14.1404144588914793
 20
42.7159635567024196
 30
0.0
 40
0.0485176833092439
 50
298.8174246631721189
 51
311.4016590648682836
  0
ARC
  5
24DB
  8
0
 10
14.0144087372567796
 20
43.0844232472009381
 30
0.0
 40
0.4391404325233913
 50
279.0787690820189937
 51
286.3032037202548281
  0
ARC
  5
24DC
  8
0
 10
13.9271361238264397
 20
43.604791401996259
 30
0.0
 40
0.9667690934979104
 50
275.0451109658105793
 51
279.319936045701013
  0
LINE
  5
24DD
  8
0
 10
14.0266415031860507
 20
42.639177765302307
 30
0.0
 11
14.0270160677498197
 21
42.6431956049252534
 31
0.0
  0
LINE
  5
24DE
  8
0
 10
14.0266415031860507
 20
42.639177765302307
 30
0.0
 11
14.0121538505860297
 21
42.6417677957023074
 31
0.0
  0
ARC
  5
24DF
  8
0
 10
13.8833623752461204
 20
44.1621577698056811
 30
0.0
 40
1.5297048743533139
 50
272.5182021378536774
 51
275.3744617764783129
  0
LINE
  5
24E0
  8
0
 10
13.9505726665204293
 20
42.6339301102709101
 30
0.0
 11
13.9508811023994799
 21
42.6376118189593569
 31
0.0
  0
ARC
  5
24E1
  8
0
 10
14.1337470292327492
 20
42.689396741995651
 30
0.0
 40
0.008941058192035
 50
331.8536713672178848
 51
28.1463286327920201
  0
ARC
  5
24E2
  8
0
 10
14.1244564687996501
 20
42.6839320650747069
 30
0.0
 40
0.0197156134367674
 50
29.4131067889044893
 51
56.0923596818669594
  0
ARC
  5
24E3
  8
0
 10
14.0975750029169795
 20
42.6461438429564481
 30
0.0
 40
0.0660849121273368
 50
55.0262587564085877
 51
66.8043442082182821
  0
ARC
  5
24E4
  8
0
 10
14.1210542775754906
 20
42.6977406778218622
 30
0.0
 40
0.0241078248000292
 50
298.9380705874340265
 51
328.5965260591652282
  0
ARC
  5
24E5
  8
0
 10
14.0793340561608602
 20
42.7687239938813235
 30
0.0
 40
0.1064373236269289
 50
286.5039773682880764
 51
300.1035273444416021
  0
ARC
  5
24E6
  8
0
 10
13.9836450129744794
 20
43.099529293225622
 30
0.0
 40
0.4508024871121087
 50
278.2987163216599242
 51
286.2206581633718088
  0
ARC
  5
24E7
  8
0
 10
13.8977473093340809
 20
43.6977656807420516
 30
0.0
 40
1.0551735775679421
 50
273.7957291108772893
 51
278.2255418802259896
  0
ARC
  5
24E8
  8
0
 10
13.8721322701769001
 20
44.0706107558315026
 30
0.0
 40
1.42889675412078
 50
271.7969642510705057
 51
273.8308823137688819
  0
ARC
  5
24E9
  8
0
 10
14.5664418284995101
 20
42.7645022908708583
 30
0.0
 40
0.0241150594074432
 50
323.4363096885672917
 51
36.5636903114362113
  0
ARC
  5
24EA
  8
0
 10
14.5528429355942404
 20
42.7569831937768825
 30
0.0
 40
0.0395706202582304
 50
33.5770159780590092
 51
37.3990199670735919
  0
ARC
  5
24EB
  8
0
 10
14.5215689103445094
 20
42.6993606367268796
 30
0.0
 40
0.102957651474874
 50
52.4766600697390189
 51
57.820884071138849
  0
ARC
  5
24EC
  8
0
 10
14.4595367650678899
 20
42.5934852841092066
 30
0.0
 40
0.2256389395992859
 50
58.8068244072214767
 51
67.6784257846604191
  0
ARC
  5
24ED
  8
0
 10
14.3353946136298305
 20
42.2688264715724813
 30
0.0
 40
0.5731823103867991
 50
68.524835173526327
 51
76.1466877101399291
  0
ARC
  5
24EE
  8
0
 10
14.0841658313513296
 20
41.1466746018243512
 30
0.0
 40
1.723024347114493
 50
76.9701816847856009
 51
83.606990739928932
  0
ARC
  5
24EF
  8
0
 10
13.9141752485988093
 20
39.6549298764324334
 30
0.0
 40
3.2244219762210631
 50
83.5566825321758557
 51
87.0745999188361992
  0
ARC
  5
24F0
  8
0
 10
14.5328512228002396
 20
42.788819412749298
 30
0.0
 40
0.0655827192964744
 50
304.8233726788632225
 51
323.8548457131486771
  0
ARC
  5
24F1
  8
0
 10
14.48061985003147
 20
42.8637313943530671
 30
0.0
 40
0.1569058662796874
 50
294.6988744115810732
 51
304.8596012155683752
  0
ARC
  5
24F2
  8
0
 10
14.3988476562324195
 20
43.0415260949810374
 30
0.0
 40
0.3526037130999789
 50
289.1244659858907085
 51
294.6988744115810732
  0
ARC
  5
24F3
  8
0
 10
14.2767280788578699
 20
43.4208828680592731
 30
0.0
 40
0.7510852279333827
 50
282.0414398551008048
 51
288.4450877866183873
  0
ARC
  5
24F4
  8
0
 10
14.1860412141427599
 20
43.8198117827385403
 30
0.0
 40
1.160168391712141
 50
281.1831964278226792
 51
282.3114470637019053
  0
LINE
  5
24F5
  8
0
 10
14.5848300317860495
 20
42.7788668410023121
 30
0.0
 11
14.5848300317860495
 21
42.7802782504378598
 31
0.0
  0
ARC
  5
24F6
  8
0
 10
14.5738690634174208
 20
42.7790909261500616
 30
0.0
 40
0.0109632587186245
 50
276.4087968357546856
 51
358.8288128829112225
  0
ARC
  5
24F7
  8
0
 10
14.5919012835867594
 20
42.6054352105220602
 30
0.0
 40
0.1636265811264031
 50
95.8960901748194487
 51
101.2584634681905982
  0
ARC
  5
24F8
  8
0
 10
14.5688500053277004
 20
42.7190459962189024
 30
0.0
 40
0.0477035591017129
 50
100.7457568072556029
 51
112.4793718530517026
  0
ARC
  5
24F9
  8
0
 10
14.5549980368366807
 20
42.7525216901696083
 30
0.0
 40
0.0114751294289103
 50
112.4793718530516031
 51
128.1065986456322037
  0
ARC
  5
24FA
  8
0
 10
14.5505810387237506
 20
42.7581535607742609
 30
0.0
 40
0.0043177668673604
 50
128.1065986456304131
 51
146.1902541798799859
  0
ARC
  5
24FB
  8
0
 10
14.5485859334712799
 20
42.7594252079445525
 30
0.0
 40
0.0019531969781467
 50
144.6191558866431137
 51
215.3808441133367069
  0
LINE
  5
24FC
  8
0
 10
14.5832314747860305
 20
42.7597871844023132
 30
0.0
 11
14.5832314747860305
 21
42.7733866913112593
 31
0.0
  0
ARC
  5
24FD
  8
0
 10
14.5744349105453601
 20
42.759574546925279
 30
0.0
 40
0.0087991338856101
 50
264.7933990772517063
 51
1.3847290277793041
  0
ARC
  5
24FE
  8
0
 10
14.5920607551813593
 20
42.9176099853080402
 30
0.0
 40
0.1678127472374382
 50
260.5267419251699152
 51
263.6967277329604258
  0
ARC
  5
24FF
  8
0
 10
14.5786212539817104
 20
42.8391692090989906
 30
0.0
 40
0.0882304122674155
 50
254.6248172089347008
 51
260.751345319430925
  0
ARC
  5
2500
  8
0
 10
14.5637539497010096
 20
42.7854563071783218
 30
0.0
 40
0.0324981177111097
 50
244.9013267540379104
 51
254.7902797835625108
  0
ARC
  5
2501
  8
0
 10
14.5544176188703602
 20
42.7654987086638769
 30
0.0
 40
0.0104646783630315
 50
231.5021789716383864
 51
244.8421859344103098
  0
ARC
  5
2502
  8
0
 10
14.5507106122408594
 20
42.7608137142711513
 30
0.0
 40
0.0044905225166579
 50
214.1286984334782915
 51
231.3092998581645929
  0
ARC
  5
2503
  8
0
 10
14.5387599437753199
 20
42.7785985942348788
 30
0.0
 40
0.0492293986760864
 50
316.9050292114271201
 51
331.8670241654007782
  0
ARC
  5
2504
  8
0
 10
14.5087485841219692
 20
42.8080509868136971
 30
0.0
 40
0.0912720292985303
 50
302.3444495226959248
 51
316.2755485376861202
  0
ARC
  5
2505
  8
0
 10
14.4284385980675101
 20
42.9442252392305477
 30
0.0
 40
0.2493351539669878
 50
290.0158112187090751
 51
301.1943321227587944
  0
ARC
  5
2506
  8
0
 10
14.3165665144449292
 20
43.2515556057591581
 30
0.0
 40
0.5763937338099456
 50
284.7783326275479112
 51
290.0080518572542019
  0
ARC
  5
2507
  8
0
 10
14.2218967874368598
 20
43.6117582624916693
 30
0.0
 40
0.9488292851088967
 50
281.501460046570287
 51
284.7576510098837161
  0
ARC
  5
2508
  8
0
 10
14.6403880971683709
 20
42.7907510761941623
 30
0.0
 40
0.0298649792493551
 50
2.6055352105188629
 51
37.4944004400617033
  0
ARC
  5
2509
  8
0
 10
14.5997354071745296
 20
42.7560496052201486
 30
0.0
 40
0.0832882459687687
 50
39.4126529799492431
 51
60.9416311270481827
  0
ARC
  5
250A
  8
0
 10
14.4821704660045008
 20
42.5444654609093504
 30
0.0
 40
0.3253406483861825
 50
60.9416311270481827
 51
73.4726359421627961
  0
ARC
  5
250B
  8
0
 10
14.2115760390877597
 20
41.6237788653437519
 30
0.0
 40
1.2849674370700459
 50
73.583937743078053
 51
80.5045727547662153
  0
ARC
  5
250C
  8
0
 10
13.9591681264830108
 20
40.0550823224955224
 30
0.0
 40
2.8738271964685609
 50
80.7006846961012059
 51
86.0082129562547522
  0
ARC
  5
250D
  8
0
 10
13.8801517565248105
 20
39.0635245912965416
 30
0.0
 40
3.868492462147914
 50
85.8630825240857547
 51
87.9239183347178397
  0
ARC
  5
250E
  8
0
 10
14.2750746737349292
 20
42.6760994124690711
 30
0.0
 40
0.0155032851335327
 50
1.4662728062104471
 51
35.6685907256195165
  0
ARC
  5
250F
  8
0
 10
14.2482608186957709
 20
42.6533106825159294
 30
0.0
 40
0.0506568199184726
 50
38.9261957445737181
 51
61.4730050046976828
  0
ARC
  5
2510
  8
0
 10
14.1452456804414606
 20
42.4370720873680582
 30
0.0
 40
0.2901203869209723
 50
63.9940564428468974
 51
79.2086834156734056
  0
ARC
  5
2511
  8
0
 10
13.9708773309708896
 20
41.6101506686613902
 30
0.0
 40
1.1351849542289789
 50
78.3779635527775866
 51
84.7026164430958488
  0
ARC
  5
2512
  8
0
 10
13.8845364494286496
 20
40.7481484248160299
 30
0.0
 40
2.0014871384511381
 50
84.5197592839505916
 51
87.8608677317013047
  0
ARC
  5
2513
  8
0
 10
14.0837991837746603
 20
42.7838914757360413
 30
0.0
 40
0.0960032621786639
 50
287.9395197659561063
 51
301.0979535502680733
  0
ARC
  5
2514
  8
0
 10
13.8705594371741601
 20
40.8641228933177274
 30
0.0
 40
1.86247129022136
 50
87.292811687358693
 51
88.6677455105527343
  0
ARC
  5
2515
  8
0
 10
13.8670572375860406
 20
38.6783635937694115
 30
0.0
 40
4.2538750988329062
 50
87.9355976901106402
 51
92.064402309889374
  0
ARC
  5
2516
  8
0
 10
13.8670572375860406
 20
38.7333792928710565
 30
0.0
 40
4.1471763230284209
 50
87.074259428262863
 51
92.925740571737137
  0
ARC
  5
2517
  8
0
 10
13.8669589728584697
 20
40.5598607416947203
 30
0.0
 40
2.2769791141408771
 50
85.0760751973986658
 51
85.5622125973382595
  0
ARC
  5
2518
  8
0
 10
13.8669589728584697
 20
40.5598607416947203
 30
0.0
 40
2.2769791141408771
 50
88.1851543085038969
 51
88.869481467071779
  0
ARC
  5
2519
  8
0
 10
13.8669589728584697
 20
40.5598607416947203
 30
0.0
 40
2.2769791141408771
 50
91.4942770431585188
 51
92.1700134592243074
  0
ARC
  5
251A
  8
0
 10
13.8669589728584697
 20
40.5598607416947203
 30
0.0
 40
2.2769791141408771
 50
94.7900806650668386
 51
95.2455635309002275
  0
ARC
  5
251B
  8
0
 10
13.8670572375860406
 20
40.3039831606617796
 30
0.0
 40
2.4459954729740301
 50
87.8400665349988117
 51
92.1599334650011741
  0
ARC
  5
251C
  8
0
 10
13.8670572375860406
 20
40.68699996039458
 30
0.0
 40
2.0396278630108542
 50
88.6850744302481218
 51
91.3149255697518925
  0
ARC
  5
251D
  8
0
 10
14.0064913306950398
 20
43.0248534117405583
 30
0.0
 40
0.349062613442769
 50
279.2818882618453813
 51
287.8295327326151778
  0
ARC
  5
251E
  8
0
 10
13.9130713803867501
 20
43.5771965075077503
 30
0.0
 40
0.9092469343342733
 50
274.0472148025644969
 51
279.4777589630708121
  0
ARC
  5
251F
  8
0
 10
13.8734514329811098
 20
44.0644764171332
 30
0.0
 40
1.3981174058478869
 50
271.6781666399423898
 51
274.2574321865700995
  0
ARC
  5
2520
  8
0
 10
13.8670572375860406
 20
44.2831589384076807
 30
0.0
 40
1.6168933887741661
 50
268.3222848233781974
 51
271.6777151766219163
  0
ARC
  5
2521
  8
0
 10
13.8670572375860406
 20
44.2551779898502033
 30
0.0
 40
1.6135325225801911
 50
268.2284281114938267
 51
271.7715718885061733
  0
ARC
  5
2522
  8
0
 10
13.8663162422433501
 20
44.3850398500597834
 30
0.0
 40
1.749473046219552
 50
267.2781827335634262
 51
272.7706047730416117
  0
ARC
  5
2523
  8
0
 10
13.8824711029226293
 20
44.2351003359012296
 30
0.0
 40
1.6278984415207429
 50
272.6778595368821243
 51
274.8674735562461819
  0
ARC
  5
2524
  8
0
 10
13.9212605435945402
 20
43.7955052381107919
 30
0.0
 40
1.18659812103874
 50
274.8023196464359899
 51
278.1598852168879148
  0
ARC
  5
2525
  8
0
 10
13.9922153102605709
 20
43.3062048877562091
 30
0.0
 40
0.6921809392119429
 50
278.0947313070769837
 51
281.8801667259098735
  0
ARC
  5
2526
  8
0
 10
14.0560375595743192
 20
43.0028261795352265
 30
0.0
 40
0.3821617138253533
 50
281.8801667259098735
 51
288.8044793160150903
  0
ARC
  5
2527
  8
0
 10
14.1446231191483793
 20
42.7426744769873608
 30
0.0
 40
0.1073412093072228
 50
288.8044793160150903
 51
300.6074419737182097
  0
ARC
  5
2528
  8
0
 10
13.8670572375860406
 20
44.5866875684553179
 30
0.0
 40
1.979822152340952
 50
267.351927715660679
 51
272.648072284339321
  0
ARC
  5
2529
  8
0
 10
13.8670572375860708
 20
45.0045462446126123
 30
0.0
 40
2.4096435438794681
 50
268.1897165699683114
 51
271.810283430030097
  0
ARC
  5
252A
  8
0
 10
13.8670572375860406
 20
42.5581246831007221
 30
0.0
 40
3.2647775147984821
 50
87.2471528047094012
 51
92.7528471952906273
  0
ARC
  5
252B
  8
0
 10
13.3269896372014198
 20
45.7595994762175806
 30
0.0
 40
0.0224622124958465
 50
140.5601372923588031
 51
177.0476939240938918
  0
ARC
  5
252C
  8
0
 10
13.3529142942817902
 20
45.7382744992321406
 30
0.0
 40
0.0560306871136242
 50
119.925487941866507
 51
140.5601372923588031
  0
ARC
  5
252D
  8
0
 10
13.4364681761832099
 20
45.5931193082659405
 30
0.0
 40
0.2235158525618987
 50
106.8245244932543017
 51
119.925487941866507
  0
ARC
  5
252E
  8
0
 10
13.5869953420612699
 20
45.1025686403124695
 30
0.0
 40
0.7366406421184334
 50
99.9068147115844027
 51
106.987723648019994
  0
ARC
  5
252F
  8
0
 10
13.7593451307019095
 20
44.1089743814428132
 30
0.0
 40
1.745071814111266
 50
94.9315975030247188
 51
99.8685865438005749
  0
ARC
  5
2530
  8
0
 10
13.8447819526697309
 20
43.1796992087527016
 30
0.0
 40
2.6782566546907409
 50
92.5731863013616163
 51
95.043570783468013
  0
ARC
  5
2531
  8
0
 10
14.4071248379706507
 20
45.7595994762175806
 30
0.0
 40
0.0224622124958465
 50
2.9523060759061122
 51
39.4398627076412112
  0
ARC
  5
2532
  8
0
 10
14.3812001808902892
 20
45.7382744992321406
 30
0.0
 40
0.0560306871136242
 50
39.4398627076412112
 51
60.074512058133422
  0
ARC
  5
2533
  8
0
 10
14.2976462989888606
 20
45.5931193082659405
 30
0.0
 40
0.2235158525618987
 50
60.074512058133422
 51
73.1754755067457268
  0
ARC
  5
2534
  8
0
 10
14.1471191331108006
 20
45.1025686403124695
 30
0.0
 40
0.7366406421184334
 50
73.0122763519799349
 51
80.093185288415583
  0
ARC
  5
2535
  8
0
 10
13.9747693444701593
 20
44.1089743814428132
 30
0.0
 40
1.745071814111266
 50
80.1314134561994393
 51
85.0684024969752954
  0
ARC
  5
2536
  8
0
 10
13.8893325225023396
 20
43.1796992087527016
 30
0.0
 40
2.6782566546907409
 50
84.9564292165320012
 51
87.4268136986383837
  0
ARC
  5
2537
  8
0
 10
13.8670572375860406
 20
42.6701382317804487
 30
0.0
 40
3.18830395673108
 50
87.4380302176442825
 51
92.5619697823557317
  0
LINE
  5
2538
  8
0
 10
15.6985033467860493
 20
37.8458228843023221
 30
0.0
 11
16.6185033467860386
 21
37.8458228843023221
 31
0.0
  0
LINE
  5
2539
  8
0
 10
15.6095572375860403
 20
37.8458228843023221
 30
0.0
 11
15.0513579187858895
 21
37.8458228843023221
 31
0.0
  0
LINE
  5
253A
  8
0
 10
15.6095572375860403
 20
37.8458228843023221
 30
0.0
 11
15.6095572375860403
 21
35.8458228843023079
 31
0.0
  0
LINE
  5
253B
  8
0
 10
15.6985033467860493
 20
37.8458228843023221
 30
0.0
 11
15.6985033467860493
 21
36.8458228843023079
 31
0.0
  0
LINE
  5
253C
  8
0
 10
15.6095572375860403
 20
37.7158228843023196
 30
0.0
 11
15.6985033467860493
 21
37.7158228843023196
 31
0.0
  0
LINE
  5
253D
  8
0
 10
16.6385033467860488
 20
37.8258228843023119
 30
0.0
 11
16.6385033467860488
 21
35.865822884302311
 31
0.0
  0
LINE
  5
253E
  8
0
 10
16.713503346786041
 20
37.7008228843023119
 30
0.0
 11
16.713503346786041
 21
35.990822884302311
 31
0.0
  0
LINE
  5
253F
  8
0
 10
16.6935033467860308
 20
37.7208228843023221
 30
0.0
 11
16.6385033467860488
 21
37.7208228843023221
 31
0.0
  0
LINE
  5
2540
  8
0
 10
16.713503346786041
 20
37.5958228843023292
 30
0.0
 11
16.7685033467860407
 21
37.5958228843023292
 31
0.0
  0
LINE
  5
2541
  8
0
 10
16.7885033467860296
 20
37.5758228843023332
 30
0.0
 11
16.7885033467860296
 21
36.115822884302311
 31
0.0
  0
ARC
  5
2542
  8
0
 10
16.6185033467860386
 20
37.825822884302319
 30
0.0
 40
0.0199999999999978
 50
359.9999999999797069
 51
90.0000000000065086
  0
ARC
  5
2543
  8
0
 10
16.6935033467860308
 20
37.700822884302319
 30
0.0
 40
0.0199999999999983
 50
359.9999999999797069
 51
90.0000000000048743
  0
ARC
  5
2544
  8
0
 10
16.7685033467860407
 20
37.5758228843023332
 30
0.0
 40
0.0199999999999974
 50
0.0
 51
90.0000000000081286
  0
LINE
  5
2545
  8
0
 10
16.7963773624860515
 20
37.180822884302323
 30
0.0
 11
16.9255033014956915
 21
37.180822884302323
 31
0.0
  0
LINE
  5
2546
  8
0
 10
16.1648106378156911
 20
35.8458228843023079
 30
0.0
 11
16.4285279139191687
 21
35.8458228843023221
 31
0.0
  0
LINE
  5
2547
  8
0
 10
16.5984787796529005
 20
35.8458228843023221
 30
0.0
 11
16.6185033467860386
 21
35.8458228843023079
 31
0.0
  0
LINE
  5
2548
  8
0
 10
15.6095572375860403
 20
35.8458228843023079
 30
0.0
 11
15.0513579187858397
 21
35.8458228843023079
 31
0.0
  0
LINE
  5
2549
  8
0
 10
15.6095572375860403
 20
35.9758228843023105
 30
0.0
 11
16.064202906886031
 21
35.9758228843023105
 31
0.0
  0
LINE
  5
254A
  8
0
 10
16.6935033467860308
 20
35.9708228843023079
 30
0.0
 11
16.6385033467860488
 21
35.9708228843023079
 31
0.0
  0
LINE
  5
254B
  8
0
 10
16.713503346786041
 20
36.0958228843023079
 30
0.0
 11
16.7685033467860407
 21
36.0958228843023079
 31
0.0
  0
ARC
  5
254C
  8
0
 10
16.6185033467860386
 20
35.865822884302311
 30
0.0
 40
0.0199999999999978
 50
269.9999999999935199
 51
0.0000000000203555
  0
ARC
  5
254D
  8
0
 10
16.6935033467860308
 20
35.990822884302311
 30
0.0
 40
0.0199999999999983
 50
269.9999999999951115
 51
0.0000000000203555
  0
ARC
  5
254E
  8
0
 10
16.7685033467860407
 20
36.115822884302311
 30
0.0
 40
0.019999999999996
 50
269.9999999999902229
 51
0.0000000000052924
  0
LINE
  5
254F
  8
0
 10
16.7963773624860515
 20
36.510822884302307
 30
0.0
 11
17.5955033822860401
 21
36.510822884302307
 31
0.0
  0
ARC
  5
2550
  8
0
 10
16.9254869261246483
 20
37.2198393049827487
 30
0.0
 40
0.0390164241168379
 50
270.0240472863478089
 51
359.9758861624397923
  0
ARC
  5
2551
  8
0
 10
16.7963773626772515
 20
37.172948868382143
 30
0.0
 40
0.0078740159201765
 50
90.0000013912758021
 51
180.0
  0
ARC
  5
2552
  8
0
 10
16.7963773624860515
 20
36.5186969000023112
 30
0.0
 40
0.0078740156999988
 50
180.0
 51
269.9999999999935199
  0
LINE
  5
2553
  8
0
 10
17.6230757127256616
 20
36.5222505354009996
 30
0.0
 11
16.9530756881726212
 21
37.1922505108893802
 31
0.0
  0
LINE
  5
2554
  8
0
 10
15.6985033467860493
 20
36.8458228843023079
 30
0.0
 11
16.1648106378156911
 21
35.8458228843023079
 31
0.0
  0
ARC
  5
2555
  8
0
 10
16.5135033467860204
 20
34.8492447263024516
 30
0.0
 40
1.0001944056998739
 50
85.1263375947716554
 51
94.8736624052316273
  0
LINE
  5
2556
  8
0
 10
16.0914739866524883
 20
36.0030939640687535
 30
0.0
 11
16.064202906886031
 21
35.9758228843023176
 31
0.0
  0
LINE
  5
2557
  8
0
 10
16.064202906886031
 20
35.9758228843023176
 30
0.0
 11
16.064202906886031
 21
36.0615770294015476
 31
0.0
  0
ARC
  5
2558
  8
0
 10
15.0556247452949705
 20
35.7189988928739695
 30
0.0
 40
0.1268957470141309
 50
91.9269143948802423
 51
173.4501928079847914
  0
ARC
  5
2559
  8
0
 10
15.0556247452949705
 20
37.9726468757306606
 30
0.0
 40
0.1268957470141309
 50
186.5498071920150949
 51
268.0730856051196724
  0
ARC
  5
255A
  8
0
 10
22.0457616683309183
 20
34.7603071014333977
 30
0.0
 40
7.8017118095158251
 50
155.8019017838352909
 51
162.3042633366030998
  0
ARC
  5
255B
  8
0
 10
22.0457616683309183
 20
38.9313386671712323
 30
0.0
 40
7.8017118095158251
 50
197.6957366633961044
 51
204.1980982161645954
  0
ARC
  5
255C
  8
0
 10
15.9583716083601495
 20
36.8458228843023079
 30
0.0
 40
1.3752253324238319
 50
168.000678528850699
 51
191.9993214711487894
  0
ENDSEC
  0
EOF
