  0
SECTION
  2
HEADER
  9
$ACADVER
  1
AC1009
  9
$INSBASE
 10
3347.694361586658033
 20
236.0164207166031929
 30
0.0
  9
$EXTMIN
 10
3339.4043615866571599
 20
236.0103176611073934
 30
0.0
  9
$EXTMAX
 10
3349.1926499993001016
 20
249.2099004142596073
 30
0.0
  9
$LIMMIN
 10
0.0
 20
0.0
  9
$LIMMAX
 10
11.6929133858000007
 20
8.2677165353999982
  9
$ORTHOMODE
 70
     0
  9
$REGENMODE
 70
     1
  9
$FILLMODE
 70
     1
  9
$QTEXTMODE
 70
     0
  9
$MIRRTEXT
 70
     0
  9
$DRAGMODE
 70
     2
  9
$LTSCALE
 40
0.6431102362
  9
$OSMODE
 70
  4095
  9
$ATTMODE
 70
     1
  9
$TEXTSIZE
 40
0.2
  9
$TRACEWID
 40
0.05
  9
$TEXTSTYLE
  7
STANDARD
  9
$CLAYER
  8
0
  9
$CELTYPE
  6
BYLAYER
  9
$CECOLOR
 62
   256
  9
$DIMSCALE
 40
1.0
  9
$DIMASZ
 40
0.1875
  9
$DIMEXO
 40
0.0625
  9
$DIMDLI
 40
0.4443307087
  9
$DIMRND
 40
0.0
  9
$DIMDLE
 40
0.0
  9
$DIMEXE
 40
0.125
  9
$DIMTP
 40
0.01
  9
$DIMTM
 40
0.01
  9
$DIMTXT
 40
2.0
  9
$DIMCEN
 40
0.1052362205
  9
$DIMTSZ
 40
0.0
  9
$DIMTOL
 70
     1
  9
$DIMLIM
 70
     0
  9
$DIMTIH
 70
     1
  9
$DIMTOH
 70
     1
  9
$DIMSE1
 70
     0
  9
$DIMSE2
 70
     0
  9
$DIMTAD
 70
     0
  9
$DIMZIN
 70
     0
  9
$DIMBLK
  1

  9
$DIMASO
 70
     1
  9
$DIMSHO
 70
     1
  9
$DIMPOST
  1
\X
  9
$DIMAPOST
  1

  9
$DIMALT
 70
     1
  9
$DIMALTD
 70
     2
  9
$DIMALTF
 40
25.3999999999999986
  9
$DIMLFAC
 40
1.0
  9
$DIMTOFL
 70
     0
  9
$DIMTVP
 40
0.0
  9
$DIMTIX
 70
     0
  9
$DIMSOXD
 70
     0
  9
$DIMSAH
 70
     0
  9
$DIMBLK1
  1

  9
$DIMBLK2
  1

  9
$DIMSTYLE
  2
STANDARD
  9
$DIMCLRD
 70
     0
  9
$DIMCLRE
 70
     0
  9
$DIMCLRT
 70
     0
  9
$DIMTFAC
 40
1.0
  9
$DIMGAP
 40
0.09
  9
$LUNITS
 70
     2
  9
$LUPREC
 70
     4
  9
$SKETCHINC
 40
0.1
  9
$FILLETRAD
 40
0.0
  9
$AUNITS
 70
     0
  9
$AUPREC
 70
     0
  9
$MENU
  1
.
  9
$ELEVATION
 40
0.0
  9
$PELEVATION
 40
0.0
  9
$THICKNESS
 40
0.0
  9
$LIMCHECK
 70
     0
  9
$BLIPMODE
 70
     0
  9
$CHAMFERA
 40
0.0
  9
$CHAMFERB
 40
0.0
  9
$SKPOLY
 70
     0
  9
$TDCREATE
 40
2458060.468368056230247
  9
$TDUPDATE
 40
2459541.4350578710436821
  9
$TDINDWG
 40
0.4550302083
  9
$TDUSRTIMER
 40
0.4550302083
  9
$USRTIMER
 70
     1
  9
$ANGBASE
 50
0.0
  9
$ANGDIR
 70
     0
  9
$PDMODE
 70
     0
  9
$PDSIZE
 40
0.3125
  9
$PLINEWID
 40
0.0
  9
$COORDS
 70
     1
  9
$SPLFRAME
 70
     0
  9
$SPLINETYPE
 70
     6
  9
$SPLINESEGS
 70
     8
  9
$ATTDIA
 70
     1
  9
$ATTREQ
 70
     1
  9
$HANDLING
 70
     1
  9
$HANDSEED
  5
DFE8
  9
$SURFTAB1
 70
     6
  9
$SURFTAB2
 70
     6
  9
$SURFTYPE
 70
     6
  9
$SURFU
 70
     6
  9
$SURFV
 70
     6
  9
$UCSNAME
  2

  9
$UCSORG
 10
0.0
 20
0.0
 30
0.0
  9
$UCSXDIR
 10
1.0
 20
0.0
 30
0.0
  9
$UCSYDIR
 10
0.0
 20
1.0
 30
0.0
  9
$PUCSNAME
  2

  9
$PUCSORG
 10
0.0
 20
0.0
 30
0.0
  9
$PUCSXDIR
 10
1.0
 20
0.0
 30
0.0
  9
$PUCSYDIR
 10
0.0
 20
1.0
 30
0.0
  9
$USERI1
 70
     0
  9
$USERI2
 70
     0
  9
$USERI3
 70
     0
  9
$USERI4
 70
     0
  9
$USERI5
 70
     0
  9
$USERR1
 40
0.0
  9
$USERR2
 40
0.0
  9
$USERR3
 40
0.0
  9
$USERR4
 40
0.0
  9
$USERR5
 40
0.0
  9
$WORLDVIEW
 70
     1
  9
$SHADEDGE
 70
     3
  9
$SHADEDIF
 70
    70
  9
$TILEMODE
 70
     1
  9
$MAXACTVP
 70
    64
  9
$PLIMCHECK
 70
     0
  9
$PEXTMIN
 10
1.0000000000000000E+20
 20
1.0000000000000000E+20
 30
1.0000000000000000E+20
  9
$PEXTMAX
 10
-1.0000000000000000E+20
 20
-1.0000000000000000E+20
 30
-1.0000000000000000E+20
  9
$PLIMMIN
 10
0.0
 20
0.0
  9
$PLIMMAX
 10
12.0
 20
9.0
  9
$UNITMODE
 70
     0
  9
$VISRETAIN
 70
     1
  9
$PLINEGEN
 70
     0
  9
$PSLTSCALE
 70
     1
  0
ENDSEC
  0
SECTION
  2
TABLES
  0
TABLE
  2
VPORT
 70
     1
  0
VPORT
  2
*ACTIVE
 70
     0
 10
0.0
 20
0.0
 11
1.0
 21
1.0
 12
0.0
 22
0.0
 13
0.0
 23
0.0
 14
1.0
 24
1.0
 15
0.0
 25
0.0
 16
0.0
 26
0.0
 36
46.5622535532545925
 17
3344.2984619140629547
 27
242.6101087817255859
 37
0.0
 40
16.432905314079111
 41
2.1186252771618621
 42
50.0
 43
0.0
 44
0.0
 50
0.0
 51
0.0
 71
     0
 72
   100
 73
     1
 74
     1
 75
     0
 76
     0
 77
     0
 78
     0
  0
ENDTAB
  0
TABLE
  2
LTYPE
 70
     2
  0
LTYPE
  2
CONTINUOUS
 70
     0
  3
Solid line
 72
    65
 73
     0
 40
0.0
  0
LTYPE
  2
PHANTOM2
 70
     0
  3
___ _ _ ___ _ _ ___ _ _ ___ _ _
 72
    65
 73
     6
 40
1.25
 49
0.625
 49
-0.125
 49
0.125
 49
-0.125
 49
0.125
 49
-0.125
  0
ENDTAB
  0
TABLE
  2
LAYER
 70
     2
  0
LAYER
  2
0
 70
     0
 62
   255
  6
CONTINUOUS
  0
LAYER
  2
DEFPOINTS
 70
     0
 62
     7
  6
CONTINUOUS
  0
ENDTAB
  0
TABLE
  2
STYLE
 70
     1
  0
STYLE
  2
STANDARD
 70
     0
 40
0.0
 41
0.8
 50
0.0
 71
     0
 42
0.2
  3
txt
  4

  0
ENDTAB
  0
TABLE
  2
VIEW
 70
     0
  0
ENDTAB
  0
TABLE
  2
UCS
 70
     0
  0
ENDTAB
  0
TABLE
  2
APPID
 70
     9
  0
APPID
  2
ACAD
 70
     0
  0
APPID
  2
ACAD_MLEADERVER
 70
     0
  0
APPID
  2
ACAD_EXEMPT_FROM_CAD_STANDARDS
 70
     0
  0
APPID
  2
ACAD_NAV_VCDISPLAY
 70
     0
  0
APPID
  2
ACAECLAYERSTANDARD
 70
     0
  0
APPID
  2
ACCMTRANSPARENCY
 70
     0
  0
APPID
  2
ACAD_DSTYLE_DIMJAG
 70
     0
  0
APPID
  2
ACAD_DSTYLE_DIMTALN
 70
     0
  0
APPID
  2
ACDBATTR
 70
     0
  0
ENDTAB
  0
TABLE
  2
DIMSTYLE
 70
     1
  0
DIMSTYLE
  2
STANDARD
 70
     0
  3

  4

  5

  6

  7

 40
1.0
 41
0.1875
 42
0.0625
 43
0.38
 44
0.125
 45
0.0
 46
0.0
 47
0.01
 48
0.01
140
0.15625
141
0.09
142
0.0
143
25.3999999999999986
144
1.0
145
0.0
146
1.0
147
0.09
 71
     1
 72
     0
 73
     1
 74
     1
 75
     0
 76
     0
 77
     0
 78
     4
170
     0
171
     2
172
     0
173
     0
174
     0
175
     0
176
     0
177
     0
178
     0
  0
ENDTAB
  0
ENDSEC
  0
SECTION
  2
BLOCKS
  0
BLOCK
  8
0
  2
$MODEL_SPACE
 70
     0
 10
0.0
 20
0.0
 30
0.0
  3
$MODEL_SPACE
  1

  0
ENDBLK
  5
21
  8
0
  0
BLOCK
 67
     1
  8
0
  2
$PAPER_SPACE
 70
     0
 10
0.0
 20
0.0
 30
0.0
  3
$PAPER_SPACE
  1

  0
ENDBLK
  5
1D
 67
     1
  8
0
  0
BLOCK
  8
0
  2
_FILLED
 70
     0
 10
0.0
 20
0.0
 30
0.0
  3
_FILLED
  1

  0
SOLID
  5
7321
  8
0
  6
BYBLOCK
 62
     0
 10
0.0
 20
0.0
 30
0.0
 11
-1.0
 21
0.1666666667
 31
0.0
 12
-1.0
 22
-0.1666666667
 32
0.0
 13
-1.0
 23
-0.1666666667
 33
0.0
  0
ENDBLK
  5
7322
  8
0
  6
BYBLOCK
 62
     0
  0
ENDSEC
  0
SECTION
  2
ENTITIES
  0
ATTDEF
  5
3930
  8
DEFPOINTS
 10
3347.690912255089188
 20
236.0136509944406953
 30
0.0
 40
0.001
  1
P25520-CR
  3

  2
MODELNUMBER
 70
     0
1001
ACDBATTR
1070
     0
1070
     1
  0
ATTDEF
  5
3931
  8
DEFPOINTS
 10
3347.690912255089188
 20
236.0119843277740017
 30
0.0
 40
0.001
  1
ONE
  3

  2
TRADENAME
 70
     0
1001
ACDBATTR
1070
     0
1070
     1
  0
ATTDEF
  5
3932
  8
DEFPOINTS
 10
3347.690912255089188
 20
236.0103176611073934
 30
0.0
 40
0.001
  1
BATH FAUCET
  3

  2
PRODUCT
 70
     0
1001
ACDBATTR
1070
     0
1070
     1
  0
LINE
  5
DF3D
  8
0
 10
3346.3193615866571236
 20
236.0164207166031929
 30
0.0
 11
3349.0693615866571236
 21
236.0164207166031929
 31
0.0
  0
LINE
  5
DF3E
  8
0
 10
3349.0693615866571236
 20
236.0164207166031929
 30
0.0
 11
3349.0693615866571236
 21
236.5364207166032031
 31
0.0
  0
ARC
  5
DF3F
  8
0
 10
3349.0593615866569053
 20
236.5364207166032031
 30
0.0
 40
0.0100000000000001
 50
0.0
 51
90.0
  0
LINE
  5
DF40
  8
0
 10
3349.0593615866569053
 20
236.546420716603194
 30
0.0
 11
3346.329361586757841
 21
236.546420716603194
 31
0.0
  0
LINE
  5
DF41
  8
0
 10
3348.0493615866571417
 20
236.546420716603194
 30
0.0
 11
3348.0493615866571417
 21
237.8684207166031968
 31
0.0
  0
LINE
  5
DF42
  8
0
 10
3346.2776596499570587
 20
237.8684207166031968
 30
0.0
 11
3349.1110635234567781
 21
237.8684207166031968
 31
0.0
  0
ARC
  5
DF43
  8
0
 10
3349.1110635234567781
 20
237.8984207166031979
 30
0.0
 40
0.0299999999999992
 50
270.0
 51
356.6555971771795726
  0
LINE
  5
DF44
  8
0
 10
3349.1410124306407852
 20
237.8966705856032036
 30
0.0
 11
3349.1926499993001016
 21
238.7811918603673007
 31
0.0
  0
ARC
  5
DF45
  8
0
 10
3349.1626499995732047
 20
238.7811881116990946
 30
0.0
 40
0.0299999999616049
 50
0.0071594290528002
 51
87.0948301617740981
  0
ARC
  5
DF46
  8
0
 10
3347.6669295629899352
 20
209.1274117182097996
 30
0.0
 40
29.7214740949782197
 50
87.1124611605884667
 51
89.9471177170407259
  0
ARC
  5
DF47
  8
0
 10
3347.8444036016398968
 20
238.8151941846568889
 30
0.0
 40
0.0332412411490458
 50
359.1989699600810013
 51
85.6774355314150853
  0
LINE
  5
DF48
  8
0
 10
3347.8776415942161293
 20
238.8147294669142013
 30
0.0
 11
3347.8308143590579675
 21
237.8968924078031932
 31
0.0
  0
ARC
  5
DF49
  8
0
 10
3347.8002064518268526
 20
237.8988240365221998
 30
0.0
 40
0.030668798061157
 50
277.5442733762097873
 51
356.3889202127866724
  0
LINE
  5
DF4A
  8
0
 10
3346.3193615866571236
 20
236.0164207166031929
 30
0.0
 11
3346.3193615866571236
 21
236.5364207166032031
 31
0.0
  0
ARC
  5
DF4B
  8
0
 10
3346.3293615866577966
 20
236.5364207166032031
 30
0.0
 40
0.0100000000000001
 50
90.0
 51
179.9999999999984084
  0
LINE
  5
DF4C
  8
0
 10
3347.3393615866571054
 20
236.546420716603194
 30
0.0
 11
3347.3393615866571054
 21
237.8684207166031968
 31
0.0
  0
ARC
  5
DF4D
  8
0
 10
3346.2776596498579238
 20
237.8984207166031979
 30
0.0
 40
0.0299999999999992
 50
183.344402822820399
 51
270.0
  0
LINE
  5
DF4E
  8
0
 10
3346.2477107426739167
 20
237.8966705856032036
 30
0.0
 11
3346.196073174015055
 21
238.7811918603673007
 31
0.0
  0
ARC
  5
DF4F
  8
0
 10
3346.2260731737419519
 20
238.7811881116990946
 30
0.0
 40
0.0299999999616049
 50
92.9051698382258877
 51
179.9928405709472088
  0
ARC
  5
DF50
  8
0
 10
3347.7217936103252214
 20
209.1274117182153987
 30
0.0
 40
29.721474094972681
 50
90.0528822829592457
 51
92.8875388394115333
  0
ARC
  5
DF51
  8
0
 10
3347.544319571674805
 20
238.8151941846568889
 30
0.0
 40
0.0332412411490426
 50
94.3225644685589515
 51
180.801030039920704
  0
LINE
  5
DF52
  8
0
 10
3347.5110815790981178
 20
238.8147294669142013
 30
0.0
 11
3347.5579088142580986
 21
237.8968924078031932
 31
0.0
  0
ARC
  5
DF53
  8
0
 10
3347.5885167214878493
 20
237.8988240365221998
 30
0.0
 40
0.030668798061157
 50
183.6110797872117075
 51
262.4557266237902127
  0
LINE
  5
DF54
  8
0
 10
3347.164361586657833
 20
236.546420716603194
 30
0.0
 11
3347.164361586657833
 21
237.8684207166031968
 31
0.0
  0
LINE
  5
DF55
  8
0
 10
3347.164361586657833
 20
238.8436579804389908
 30
0.0
 11
3347.164361586657833
 21
244.8114207166032088
 31
0.0
  0
ARC
  5
DF56
  8
0
 10
3343.8143615866579239
 20
244.8114207166032088
 30
0.0
 40
3.350000000000001
 50
0.0
 51
180.0
  0
LINE
  5
DF57
  8
0
 10
3340.4643615866571054
 20
244.8114207166032088
 30
0.0
 11
3340.4643615866571054
 21
243.5614207166032088
 31
0.0
  0
LINE
  5
DF58
  8
0
 10
3340.4643615866571054
 20
243.5614207166032088
 30
0.0
 11
3339.4043615866571599
 21
243.5614207166032088
 31
0.0
  0
ARC
  5
DF59
  8
0
 10
3343.8143615911958477
 20
244.799885332078702
 30
0.0
 40
4.4100150821808937
 50
0.1498701454947358
 51
179.8501749504490874
  0
LINE
  5
DF5A
  8
0
 10
3348.2243615866577784
 20
244.8114207166032088
 30
0.0
 11
3348.2243615866577784
 21
238.8436579804389908
 31
0.0
  0
LINE
  5
DF5B
  8
0
 10
3348.2243615866577784
 20
237.8684207166031968
 30
0.0
 11
3348.2243615866577784
 21
236.546420716603194
 31
0.0
  0
LINE
  5
DF5C
  8
0
 10
3339.4043615866571599
 20
243.5614207166032088
 30
0.0
 11
3339.4043615866571599
 21
244.811417245612688
 31
0.0
  0
ARC
  5
DF5E
  8
0
 10
3347.429792540165181
 20
238.8180145229653135
 30
0.0
 40
0.030003419502331
 50
101.7353042455383019
 51
182.6889161406218136
  0
LINE
  5
DF5F
  8
0
 10
3347.3998221553570147
 20
238.8166069661031941
 30
0.0
 11
3347.3749796844649609
 21
237.8977865225874098
 31
0.0
  0
ARC
  5
DF60
  8
0
 10
3347.4035945638070189
 20
237.8969966495818085
 30
0.0
 40
0.0286257789258533
 50
178.4188330901280892
 51
266.6182854953156038
  0
ARC
  5
DF61
  8
0
 10
3347.95893063325002
 20
238.8180145229653135
 30
0.0
 40
0.030003419502331
 50
357.3110838593780727
 51
78.2646957544613855
  0
LINE
  5
DF62
  8
0
 10
3347.9889010180568221
 20
238.8166069661031941
 30
0.0
 11
3348.0137434889488759
 21
237.8977865225874098
 31
0.0
  0
ARC
  5
DF63
  8
0
 10
3347.9851286096081822
 20
237.8969966495818085
 30
0.0
 40
0.0286257789258533
 50
273.3817145046843962
 51
1.581166909871891
  0
ENDSEC
  0
EOF
