  0
SECTION
  2
HEADER
  9
$ACADVER
  1
AC1009
  9
$INSBASE
 10
5824.06129390447677
 20
-9.4493154322383965
 30
0.0
  9
$EXTMIN
 10
5817.1215309173530841
 20
-9.4554370000307344
 30
-0.0000000349181948
  9
$EXTMAX
 10
5830.8666663084259199
 20
3.744582614058046
 30
0.0000000814935746
  9
$LIMMIN
 10
0.0
 20
0.0
  9
$LIMMAX
 10
11.6929133858000007
 20
8.2677165353999982
  9
$ORTHOMODE
 70
     0
  9
$REGENMODE
 70
     1
  9
$FILLMODE
 70
     1
  9
$QTEXTMODE
 70
     0
  9
$MIRRTEXT
 70
     0
  9
$DRAGMODE
 70
     2
  9
$LTSCALE
 40
0.6431102362
  9
$OSMODE
 70
  4095
  9
$ATTMODE
 70
     1
  9
$TEXTSIZE
 40
0.2
  9
$TRACEWID
 40
0.05
  9
$TEXTSTYLE
  7
STANDARD
  9
$CLAYER
  8
0
  9
$CELTYPE
  6
BYLAYER
  9
$CECOLOR
 62
   256
  9
$DIMSCALE
 40
1.0
  9
$DIMASZ
 40
0.1875
  9
$DIMEXO
 40
0.0625
  9
$DIMDLI
 40
0.4443307087
  9
$DIMRND
 40
0.0
  9
$DIMDLE
 40
0.0
  9
$DIMEXE
 40
0.125
  9
$DIMTP
 40
0.01
  9
$DIMTM
 40
0.01
  9
$DIMTXT
 40
2.0
  9
$DIMCEN
 40
0.1052362205
  9
$DIMTSZ
 40
0.0
  9
$DIMTOL
 70
     1
  9
$DIMLIM
 70
     0
  9
$DIMTIH
 70
     1
  9
$DIMTOH
 70
     1
  9
$DIMSE1
 70
     0
  9
$DIMSE2
 70
     0
  9
$DIMTAD
 70
     0
  9
$DIMZIN
 70
     0
  9
$DIMBLK
  1

  9
$DIMASO
 70
     1
  9
$DIMSHO
 70
     1
  9
$DIMPOST
  1
\X
  9
$DIMAPOST
  1

  9
$DIMALT
 70
     1
  9
$DIMALTD
 70
     2
  9
$DIMALTF
 40
25.3999999999999986
  9
$DIMLFAC
 40
1.0
  9
$DIMTOFL
 70
     0
  9
$DIMTVP
 40
0.0
  9
$DIMTIX
 70
     0
  9
$DIMSOXD
 70
     0
  9
$DIMSAH
 70
     0
  9
$DIMBLK1
  1

  9
$DIMBLK2
  1

  9
$DIMSTYLE
  2
STANDARD
  9
$DIMCLRD
 70
     0
  9
$DIMCLRE
 70
     0
  9
$DIMCLRT
 70
     0
  9
$DIMTFAC
 40
1.0
  9
$DIMGAP
 40
0.09
  9
$LUNITS
 70
     2
  9
$LUPREC
 70
     4
  9
$SKETCHINC
 40
0.1
  9
$FILLETRAD
 40
0.0
  9
$AUNITS
 70
     0
  9
$AUPREC
 70
     0
  9
$MENU
  1
.
  9
$ELEVATION
 40
0.0
  9
$PELEVATION
 40
0.0
  9
$THICKNESS
 40
0.0
  9
$LIMCHECK
 70
     0
  9
$BLIPMODE
 70
     0
  9
$CHAMFERA
 40
0.0
  9
$CHAMFERB
 40
0.0
  9
$SKPOLY
 70
     0
  9
$TDCREATE
 40
2458060.468368056230247
  9
$TDUPDATE
 40
2460124.8111458332277834
  9
$TDINDWG
 40
0.6188265046
  9
$TDUSRTIMER
 40
0.6188265046
  9
$USRTIMER
 70
     1
  9
$ANGBASE
 50
0.0
  9
$ANGDIR
 70
     0
  9
$PDMODE
 70
     0
  9
$PDSIZE
 40
0.3125
  9
$PLINEWID
 40
0.0
  9
$COORDS
 70
     1
  9
$SPLFRAME
 70
     0
  9
$SPLINETYPE
 70
     6
  9
$SPLINESEGS
 70
     8
  9
$ATTDIA
 70
     1
  9
$ATTREQ
 70
     1
  9
$HANDLING
 70
     1
  9
$HANDSEED
  5
24D32
  9
$SURFTAB1
 70
     6
  9
$SURFTAB2
 70
     6
  9
$SURFTYPE
 70
     6
  9
$SURFU
 70
     6
  9
$SURFV
 70
     6
  9
$UCSNAME
  2

  9
$UCSORG
 10
0.0
 20
0.0
 30
0.0
  9
$UCSXDIR
 10
1.0
 20
0.0
 30
0.0
  9
$UCSYDIR
 10
0.0
 20
1.0
 30
0.0
  9
$PUCSNAME
  2

  9
$PUCSORG
 10
0.0
 20
0.0
 30
0.0
  9
$PUCSXDIR
 10
1.0
 20
0.0
 30
0.0
  9
$PUCSYDIR
 10
0.0
 20
1.0
 30
0.0
  9
$USERI1
 70
     0
  9
$USERI2
 70
     0
  9
$USERI3
 70
     0
  9
$USERI4
 70
     0
  9
$USERI5
 70
     0
  9
$USERR1
 40
0.0
  9
$USERR2
 40
0.0
  9
$USERR3
 40
0.0
  9
$USERR4
 40
0.0
  9
$USERR5
 40
0.0
  9
$WORLDVIEW
 70
     1
  9
$SHADEDGE
 70
     3
  9
$SHADEDIF
 70
    70
  9
$TILEMODE
 70
     1
  9
$MAXACTVP
 70
    64
  9
$PLIMCHECK
 70
     0
  9
$PEXTMIN
 10
1.0000000000000000E+20
 20
1.0000000000000000E+20
 30
1.0000000000000000E+20
  9
$PEXTMAX
 10
-1.0000000000000000E+20
 20
-1.0000000000000000E+20
 30
-1.0000000000000000E+20
  9
$PLIMMIN
 10
0.0
 20
0.0
  9
$PLIMMAX
 10
12.0
 20
9.0
  9
$UNITMODE
 70
     0
  9
$VISRETAIN
 70
     1
  9
$PLINEGEN
 70
     0
  9
$PSLTSCALE
 70
     1
  0
ENDSEC
  0
SECTION
  2
TABLES
  0
TABLE
  2
VPORT
 70
     1
  0
VPORT
  2
*ACTIVE
 70
     0
 10
0.0
 20
0.0
 11
1.0
 21
1.0
 12
2031.6361884566390472
 22
-123.0360836260917949
 13
0.0
 23
0.0
 14
1.0
 24
1.0
 15
0.0
 25
0.0
 16
0.0
 26
0.0
 36
5.1040778033513332
 17
3792.35791015625
 27
120.1806564331053977
 37
0.0
 40
13.3184054402241205
 41
2.8398203592814371
 42
50.0
 43
0.0
 44
0.0
 50
0.0
 51
0.0
 71
     0
 72
   100
 73
     1
 74
     1
 75
     0
 76
     0
 77
     0
 78
     0
  0
ENDTAB
  0
TABLE
  2
LTYPE
 70
     2
  0
LTYPE
  2
CONTINUOUS
 70
     0
  3
Solid line
 72
    65
 73
     0
 40
0.0
  0
LTYPE
  2
PHANTOM2
 70
     0
  3
___ _ _ ___ _ _ ___ _ _ ___ _ _
 72
    65
 73
     6
 40
1.25
 49
0.625
 49
-0.125
 49
0.125
 49
-0.125
 49
0.125
 49
-0.125
  0
ENDTAB
  0
TABLE
  2
LAYER
 70
     2
  0
LAYER
  2
0
 70
     0
 62
   255
  6
CONTINUOUS
  0
LAYER
  2
DEFPOINTS
 70
     0
 62
     7
  6
CONTINUOUS
  0
ENDTAB
  0
TABLE
  2
STYLE
 70
     1
  0
STYLE
  2
STANDARD
 70
     0
 40
0.0
 41
0.8
 50
0.0
 71
     0
 42
0.2
  3
txt
  4

  0
ENDTAB
  0
TABLE
  2
VIEW
 70
     0
  0
ENDTAB
  0
TABLE
  2
UCS
 70
     0
  0
ENDTAB
  0
TABLE
  2
APPID
 70
     9
  0
APPID
  2
ACAD
 70
     0
  0
APPID
  2
ACAD_MLEADERVER
 70
     0
  0
APPID
  2
ACAD_EXEMPT_FROM_CAD_STANDARDS
 70
     0
  0
APPID
  2
ACAD_NAV_VCDISPLAY
 70
     0
  0
APPID
  2
ACAECLAYERSTANDARD
 70
     0
  0
APPID
  2
ACCMTRANSPARENCY
 70
     0
  0
APPID
  2
ACAD_DSTYLE_DIMJAG
 70
     0
  0
APPID
  2
ACAD_DSTYLE_DIMTALN
 70
     0
  0
APPID
  2
ACDBATTR
 70
     0
  0
ENDTAB
  0
TABLE
  2
DIMSTYLE
 70
     1
  0
DIMSTYLE
  2
STANDARD
 70
     0
  3

  4

  5

  6

  7

 40
1.0
 41
0.1875
 42
0.0625
 43
0.38
 44
0.125
 45
0.0
 46
0.0
 47
0.01
 48
0.01
140
0.15625
141
0.09
142
0.0
143
25.3999999999999986
144
1.0
145
0.0
146
1.0
147
0.09
 71
     1
 72
     0
 73
     1
 74
     1
 75
     0
 76
     0
 77
     0
 78
     4
170
     0
171
     2
172
     0
173
     0
174
     0
175
     0
176
     0
177
     0
178
     0
  0
ENDTAB
  0
ENDSEC
  0
SECTION
  2
BLOCKS
  0
BLOCK
  8
0
  2
$MODEL_SPACE
 70
     0
 10
0.0
 20
0.0
 30
0.0
  3
$MODEL_SPACE
  1

  0
ENDBLK
  5
21
  8
0
  0
BLOCK
 67
     1
  8
0
  2
$PAPER_SPACE
 70
     0
 10
0.0
 20
0.0
 30
0.0
  3
$PAPER_SPACE
  1

  0
ENDBLK
  5
1D
 67
     1
  8
0
  0
BLOCK
  8
0
  2
_FILLED
 70
     0
 10
0.0
 20
0.0
 30
0.0
  3
_FILLED
  1

  0
SOLID
  5
1D213
  8
0
  6
BYBLOCK
 62
     0
 10
0.0
 20
0.0
 30
0.0
 11
-1.0
 21
0.1666666667
 31
0.0
 12
-1.0
 22
-0.1666666667
 32
0.0
 13
-1.0
 23
-0.1666666667
 33
0.0
  0
ENDBLK
  5
1D214
  8
0
  6
BYBLOCK
 62
     0
  0
ENDSEC
  0
SECTION
  2
ENTITIES
  0
ATTDEF
  5
3930
  8
DEFPOINTS
 10
5824.0615830665392423
 20
-9.4509407024235088
 30
0.0
 40
0.001
  1
P25520-LV
  3

  2
MODELNUMBER
 70
     0
1001
ACDBATTR
1070
     0
1070
     1
  0
ATTDEF
  5
3931
  8
DEFPOINTS
 10
5824.0615830665392423
 20
-9.4526073690901722
 30
0.0
 40
0.001
  1
ONE
  3

  2
TRADENAME
 70
     0
1001
ACDBATTR
1070
     0
1070
     1
  0
ATTDEF
  5
3932
  8
DEFPOINTS
 10
5824.0615830665392423
 20
-9.4542740357568391
 30
0.0
 40
0.001
  1
BATH FAUCET
  3

  2
PRODUCT
 70
     0
1001
ACDBATTR
1070
     0
1070
     1
  0
LINE
  5
249C1
  8
0
 10
5825.43629390447677
 20
-9.4493154322383965
 30
0.0
 11
5822.68629390447677
 21
-9.4493154322383965
 31
0.0
  0
LINE
  5
249C2
  8
0
 10
5822.68629390447677
 20
-9.4493154322383965
 30
0.0
 11
5822.68629390447677
 21
-8.9393154322383932
 31
0.0
  0
ARC
  5
249C3
  8
0
 10
5822.6962939044769882
 20
-8.9393154322383932
 30
0.0
 40
0.0100000000000001
 50
90.0
 51
179.9999999999992895
  0
LINE
  5
249C4
  8
0
 10
5822.6962939044769882
 20
-8.9293154322383952
 30
0.0
 11
5825.4262939043783263
 21
-8.9293154322383348
 31
0.0
  0
LINE
  5
249C5
  8
0
 10
5825.43629390447677
 20
-9.4493154322383965
 30
0.0
 11
5825.43629390447677
 21
-8.9393154322383932
 31
0.0
  0
ARC
  5
249C6
  8
0
 10
5825.4262939044765517
 20
-8.9393154322383932
 30
0.0
 40
0.0100000000000001
 50
0.0000000000006107
 51
90.0
  0
LINE
  5
249C7
  8
0
 10
5823.5312939044770246
 20
-8.9293154322383774
 30
0.0
 11
5823.5312939044770246
 21
3.214164265417998
 31
0.0
  0
LINE
  5
249C8
  8
0
 10
5823.5312939044770246
 20
-1.9043154322383939
 30
0.0
 11
5824.5912939044783343
 21
-1.9043154322383939
 31
0.0
  0
LINE
  5
249C9
  8
0
 10
5825.43629390447677
 20
-9.4493154322383965
 30
0.0
 11
5825.43629390447677
 21
-8.9393154322383932
 31
0.0
  0
ARC
  5
249CA
  8
0
 10
5825.4262939044765517
 20
-8.9393154322383932
 30
0.0
 40
0.0100000000000001
 50
0.0000000000006107
 51
90.0
  0
LINE
  5
249CB
  8
0
 10
5824.5912939044783343
 20
-8.9293154322383774
 30
0.0
 11
5824.5912939044783343
 21
3.214164265417998
 31
0.0
  0
LINE
  5
249CC
  8
0
 10
5818.6862939336069758
 20
-9.4493154322383948
 30
0.0
 11
5821.43629390447677
 21
-9.4493154322383965
 31
0.0
  0
LINE
  5
249CD
  8
0
 10
5821.43629390447677
 20
-9.4493154322383965
 30
0.0
 11
5821.43629390447677
 21
-8.9293154322383952
 31
0.0
  0
ARC
  5
249CE
  8
0
 10
5821.4262939542031745
 20
-8.9293153825114189
 30
0.0
 40
0.0099999502730459
 50
359.9997150839935216
 51
90.0001180160722356
  0
LINE
  5
249CF
  8
0
 10
5821.426293933605848
 20
-8.9193154322383954
 30
0.0
 11
5818.696293933706329
 21
-8.9193154322383332
 31
0.0
  0
LINE
  5
249D0
  8
0
 10
5820.4162939336074487
 20
-8.9193154322383723
 30
0.0
 11
5820.4162939336074487
 21
-7.5973154322383936
 31
0.0
  0
LINE
  5
249D1
  8
0
 10
5818.6862939336069758
 20
-9.4493154322383948
 30
0.0
 11
5818.6862939336069758
 21
-8.9293154322383952
 31
0.0
  0
ARC
  5
249D2
  8
0
 10
5818.6962939336062846
 20
-8.9293154322383952
 30
0.0
 40
0.0100000000000001
 50
90.0
 51
179.9999999999992895
  0
LINE
  5
249D3
  8
0
 10
5819.7062939336055933
 20
-8.9193154322383563
 30
0.0
 11
5819.7062939336055933
 21
-7.5973154322383936
 31
0.0
  0
LINE
  5
249D4
  8
0
 10
5820.4162939336074487
 20
-7.5973154529979618
 30
0.0
 11
5817.3512939044767336
 21
-7.597315452997961
 31
0.0
  0
ARC
  5
249D5
  8
0
 10
5817.3512939122629177
 20
-7.567315434199938
 30
0.0
 40
0.030000018798024
 50
180.0000359015577942
 51
269.9999851291015034
  0
LINE
  5
249D6
  8
0
 10
5817.3212938934657359
 20
-7.5673154529979616
 30
0.0
 11
5817.3212938934657359
 21
-6.6573154529979632
 31
0.0
  0
ARC
  5
249D7
  8
0
 10
5817.3512939122629177
 20
-6.657315471795985
 30
0.0
 40
0.0300000187980239
 50
90.000014870898454
 51
179.9999640984428027
  0
LINE
  5
249D8
  8
0
 10
5817.3512939044767336
 20
-6.6273154529979621
 30
0.0
 11
5820.3862937121766663
 21
-6.6273154529979621
 31
0.0
  0
ARC
  5
249D9
  8
0
 10
5820.3862937121748473
 20
-6.6573156453016402
 30
0.0
 40
0.0300001923036781
 50
0.0003672706177275
 51
89.9999999976029272
  0
LINE
  5
249DA
  8
0
 10
5820.4162939044790619
 20
-6.6573154529979632
 30
0.0
 11
5820.4162939044790619
 21
-7.5673168140899687
 31
0.0
  0
ARC
  5
249DB
  8
0
 10
5820.3860907074986244
 20
-7.567326613258559
 30
0.0
 40
0.030203198569694
 50
276.8302884139978914
 51
0.0185891243105556
  0
LINE
  5
249DC
  8
0
 10
5819.7153001979768305
 20
-6.6273154529979621
 30
0.0
 11
5819.7011238279783356
 21
-7.597315452997961
 31
0.0
  0
LINE
  5
249DD
  8
0
 10
5829.4362938753465642
 20
-9.4493154322383948
 30
0.0
 11
5826.68629390447677
 21
-9.4493154322383965
 31
0.0
  0
LINE
  5
249DE
  8
0
 10
5826.68629390447677
 20
-9.4493154322383965
 30
0.0
 11
5826.68629390447677
 21
-8.9293154322383952
 31
0.0
  0
ARC
  5
249DF
  8
0
 10
5826.6962938547512749
 20
-8.9293153825114189
 30
0.0
 40
0.0099999502730459
 50
89.9998819839277644
 51
180.0002849160063079
  0
LINE
  5
249E0
  8
0
 10
5826.6962938753476919
 20
-8.9193154322383954
 30
0.0
 11
5829.426293875247211
 21
-8.9193154322383332
 31
0.0
  0
LINE
  5
249E1
  8
0
 10
5827.7062938753479102
 20
-8.9193154322383723
 30
0.0
 11
5827.7062938753479102
 21
-7.5973154322383936
 31
0.0
  0
LINE
  5
249E2
  8
0
 10
5829.4362938753465642
 20
-9.4493154322383948
 30
0.0
 11
5829.4362938753465642
 21
-8.9293154322383952
 31
0.0
  0
ARC
  5
249E3
  8
0
 10
5829.4262938753472554
 20
-8.9293154322383952
 30
0.0
 40
0.0100000000000001
 50
0.0000000000007124
 51
90.0
  0
LINE
  5
249E4
  8
0
 10
5828.4162938753479466
 20
-8.9193154322383563
 30
0.0
 11
5828.4162938753479466
 21
-7.5973154322383936
 31
0.0
  0
LINE
  5
249E5
  8
0
 10
5827.7062938753479102
 20
-7.5973154529979618
 30
0.0
 11
5830.7712939044768063
 21
-7.597315452997961
 31
0.0
  0
ARC
  5
249E6
  8
0
 10
5830.7712938966906222
 20
-7.567315434199938
 30
0.0
 40
0.030000018798024
 50
270.0000148708984966
 51
359.9999640984420921
  0
LINE
  5
249E7
  8
0
 10
5830.801293915487804
 20
-7.5673154529979616
 30
0.0
 11
5830.801293915487804
 21
-6.6573154529979632
 31
0.0
  0
ARC
  5
249E8
  8
0
 10
5830.7712938966906222
 20
-6.657315471795985
 30
0.0
 40
0.0300000187980262
 50
0.0000359015581583
 51
89.9999851291015318
  0
LINE
  5
249E9
  8
0
 10
5830.7712939044768063
 20
-6.6273154529979621
 30
0.0
 11
5827.7362940967759641
 21
-6.6273154529979621
 31
0.0
  0
ARC
  5
249EA
  8
0
 10
5827.7362940967786926
 20
-6.6573156453016402
 30
0.0
 40
0.0300001923036781
 50
90.0000000023970586
 51
179.9996327293823128
  0
LINE
  5
249EB
  8
0
 10
5827.7062939044753875
 20
-6.6573154529979632
 30
0.0
 11
5827.7062939044753875
 21
-7.5673168140899687
 31
0.0
  0
ARC
  5
249EC
  8
0
 10
5827.7364971014549155
 20
-7.567326613258559
 30
0.0
 40
0.030203198569694
 50
179.9814108756893916
 51
263.1697115860021086
  0
LINE
  5
249ED
  8
0
 10
5828.4072876109767094
 20
-6.6273154529979621
 30
0.0
 11
5828.4214639809761138
 21
-7.597315452997961
 31
0.0
  0
ARC
  5
249EE
  8
0
 10
5824.06129390447677
 20
3.214164265417998
 30
0.0
 40
0.5300000000000047
 50
0.0
 51
180.0
  0
ENDSEC
  0
EOF
