  0
SECTION
  2
HEADER
  9
$ACADVER
  1
AC1009
  9
$INSBASE
 10
4085.0375187916852155
 20
225.2441367719800951
 30
0.0
  9
$EXTMIN
 10
4083.7684088759560836
 20
219.5621763683747929
 30
-0.0000000349181948
  9
$EXTMAX
 10
4090.321606350705224
 20
226.259723529943102
 30
0.0000000814935746
  9
$LIMMIN
 10
0.0
 20
0.0
  9
$LIMMAX
 10
11.6929133858000007
 20
8.2677165353999982
  9
$ORTHOMODE
 70
     0
  9
$REGENMODE
 70
     1
  9
$FILLMODE
 70
     1
  9
$QTEXTMODE
 70
     0
  9
$MIRRTEXT
 70
     0
  9
$DRAGMODE
 70
     2
  9
$LTSCALE
 40
0.6431102362
  9
$OSMODE
 70
  4095
  9
$ATTMODE
 70
     1
  9
$TEXTSIZE
 40
0.2
  9
$TRACEWID
 40
0.05
  9
$TEXTSTYLE
  7
STANDARD
  9
$CLAYER
  8
0
  9
$CELTYPE
  6
BYLAYER
  9
$CECOLOR
 62
   256
  9
$DIMSCALE
 40
1.0
  9
$DIMASZ
 40
0.1875
  9
$DIMEXO
 40
0.0625
  9
$DIMDLI
 40
0.4443307087
  9
$DIMRND
 40
0.0
  9
$DIMDLE
 40
0.0
  9
$DIMEXE
 40
0.125
  9
$DIMTP
 40
0.01
  9
$DIMTM
 40
0.01
  9
$DIMTXT
 40
2.0
  9
$DIMCEN
 40
0.1052362205
  9
$DIMTSZ
 40
0.0
  9
$DIMTOL
 70
     1
  9
$DIMLIM
 70
     0
  9
$DIMTIH
 70
     1
  9
$DIMTOH
 70
     1
  9
$DIMSE1
 70
     0
  9
$DIMSE2
 70
     0
  9
$DIMTAD
 70
     0
  9
$DIMZIN
 70
     0
  9
$DIMBLK
  1

  9
$DIMASO
 70
     1
  9
$DIMSHO
 70
     1
  9
$DIMPOST
  1
\X
  9
$DIMAPOST
  1

  9
$DIMALT
 70
     1
  9
$DIMALTD
 70
     2
  9
$DIMALTF
 40
25.3999999999999986
  9
$DIMLFAC
 40
1.0
  9
$DIMTOFL
 70
     0
  9
$DIMTVP
 40
0.0
  9
$DIMTIX
 70
     0
  9
$DIMSOXD
 70
     0
  9
$DIMSAH
 70
     0
  9
$DIMBLK1
  1

  9
$DIMBLK2
  1

  9
$DIMSTYLE
  2
STANDARD
  9
$DIMCLRD
 70
     0
  9
$DIMCLRE
 70
     0
  9
$DIMCLRT
 70
     0
  9
$DIMTFAC
 40
1.0
  9
$DIMGAP
 40
0.09
  9
$LUNITS
 70
     2
  9
$LUPREC
 70
     4
  9
$SKETCHINC
 40
0.1
  9
$FILLETRAD
 40
0.0
  9
$AUNITS
 70
     0
  9
$AUPREC
 70
     0
  9
$MENU
  1
.
  9
$ELEVATION
 40
0.0
  9
$PELEVATION
 40
0.0
  9
$THICKNESS
 40
0.0
  9
$LIMCHECK
 70
     0
  9
$BLIPMODE
 70
     0
  9
$CHAMFERA
 40
0.0
  9
$CHAMFERB
 40
0.0
  9
$SKPOLY
 70
     0
  9
$TDCREATE
 40
2458060.468368056230247
  9
$TDUPDATE
 40
2460888.6442013890482485
  9
$TDINDWG
 40
0.5827153935
  9
$TDUSRTIMER
 40
0.5827153935
  9
$USRTIMER
 70
     1
  9
$ANGBASE
 50
0.0
  9
$ANGDIR
 70
     0
  9
$PDMODE
 70
     0
  9
$PDSIZE
 40
0.3125
  9
$PLINEWID
 40
0.0
  9
$COORDS
 70
     1
  9
$SPLFRAME
 70
     0
  9
$SPLINETYPE
 70
     6
  9
$SPLINESEGS
 70
     8
  9
$ATTDIA
 70
     1
  9
$ATTREQ
 70
     1
  9
$HANDLING
 70
     1
  9
$HANDSEED
  5
13BCF
  9
$SURFTAB1
 70
     6
  9
$SURFTAB2
 70
     6
  9
$SURFTYPE
 70
     6
  9
$SURFU
 70
     6
  9
$SURFV
 70
     6
  9
$UCSNAME
  2

  9
$UCSORG
 10
0.0
 20
0.0
 30
0.0
  9
$UCSXDIR
 10
1.0
 20
0.0
 30
0.0
  9
$UCSYDIR
 10
0.0
 20
1.0
 30
0.0
  9
$PUCSNAME
  2

  9
$PUCSORG
 10
0.0
 20
0.0
 30
0.0
  9
$PUCSXDIR
 10
1.0
 20
0.0
 30
0.0
  9
$PUCSYDIR
 10
0.0
 20
1.0
 30
0.0
  9
$USERI1
 70
     0
  9
$USERI2
 70
     0
  9
$USERI3
 70
     0
  9
$USERI4
 70
     0
  9
$USERI5
 70
     0
  9
$USERR1
 40
0.0
  9
$USERR2
 40
0.0
  9
$USERR3
 40
0.0
  9
$USERR4
 40
0.0
  9
$USERR5
 40
0.0
  9
$WORLDVIEW
 70
     1
  9
$SHADEDGE
 70
     3
  9
$SHADEDIF
 70
    70
  9
$TILEMODE
 70
     1
  9
$MAXACTVP
 70
    64
  9
$PLIMCHECK
 70
     0
  9
$PEXTMIN
 10
1.0000000000000000E+20
 20
1.0000000000000000E+20
 30
1.0000000000000000E+20
  9
$PEXTMAX
 10
-1.0000000000000000E+20
 20
-1.0000000000000000E+20
 30
-1.0000000000000000E+20
  9
$PLIMMIN
 10
0.0
 20
0.0
  9
$PLIMMAX
 10
12.0
 20
9.0
  9
$UNITMODE
 70
     0
  9
$VISRETAIN
 70
     1
  9
$PLINEGEN
 70
     0
  9
$PSLTSCALE
 70
     1
  0
ENDSEC
  0
SECTION
  2
TABLES
  0
TABLE
  2
VPORT
 70
     1
  0
VPORT
  2
*ACTIVE
 70
     0
 10
0.0
 20
0.0
 11
1.0
 21
1.0
 12
1022.0212039023930402
 22
29.0084706565031389
 13
0.0
 23
0.0
 14
1.0
 24
1.0
 15
0.0
 25
0.0
 16
0.0
 26
0.0
 36
63.7428098394932476
 17
3065.0238037109379547
 27
193.9024792926558121
 37
0.0
 40
6.7436841110165382
 41
2.1655172413793098
 42
50.0
 43
0.0
 44
0.0
 50
0.0
 51
0.0
 71
     0
 72
   100
 73
     1
 74
     1
 75
     0
 76
     0
 77
     0
 78
     0
  0
ENDTAB
  0
TABLE
  2
LTYPE
 70
     2
  0
LTYPE
  2
CONTINUOUS
 70
     0
  3
Solid line
 72
    65
 73
     0
 40
0.0
  0
LTYPE
  2
PHANTOM2
 70
     0
  3
___ _ _ ___ _ _ ___ _ _ ___ _ _
 72
    65
 73
     6
 40
1.25
 49
0.625
 49
-0.125
 49
0.125
 49
-0.125
 49
0.125
 49
-0.125
  0
ENDTAB
  0
TABLE
  2
LAYER
 70
     2
  0
LAYER
  2
0
 70
     0
 62
   255
  6
CONTINUOUS
  0
LAYER
  2
DEFPOINTS
 70
     0
 62
     7
  6
CONTINUOUS
  0
ENDTAB
  0
TABLE
  2
STYLE
 70
     1
  0
STYLE
  2
STANDARD
 70
     0
 40
0.0
 41
0.8
 50
0.0
 71
     0
 42
0.2
  3
txt
  4

  0
ENDTAB
  0
TABLE
  2
VIEW
 70
     0
  0
ENDTAB
  0
TABLE
  2
UCS
 70
     0
  0
ENDTAB
  0
TABLE
  2
APPID
 70
    10
  0
APPID
  2
ACAD
 70
     0
  0
APPID
  2
ACAD_MLEADERVER
 70
     0
  0
APPID
  2
ACAD_EXEMPT_FROM_CAD_STANDARDS
 70
     0
  0
APPID
  2
ACAD_NAV_VCDISPLAY
 70
     0
  0
APPID
  2
ACAECLAYERSTANDARD
 70
     0
  0
APPID
  2
ACCMTRANSPARENCY
 70
     0
  0
APPID
  2
ACAD_DSTYLE_DIMJAG
 70
     0
  0
APPID
  2
ACAD_DSTYLE_DIMTALN
 70
     0
  0
APPID
  2
ACDBATTR
 70
     0
  0
APPID
  2
ACADANNOTATIVE
 70
     0
  0
ENDTAB
  0
TABLE
  2
DIMSTYLE
 70
     1
  0
DIMSTYLE
  2
STANDARD
 70
     0
  3

  4

  5

  6

  7

 40
1.0
 41
0.1875
 42
0.0625
 43
0.38
 44
0.125
 45
0.0
 46
0.0
 47
0.01
 48
0.01
140
0.15625
141
0.09
142
0.0
143
25.3999999999999986
144
1.0
145
0.0
146
1.0
147
0.09
 71
     1
 72
     0
 73
     1
 74
     1
 75
     0
 76
     0
 77
     0
 78
     4
170
     0
171
     2
172
     0
173
     0
174
     0
175
     0
176
     0
177
     0
178
     0
  0
ENDTAB
  0
ENDSEC
  0
SECTION
  2
BLOCKS
  0
BLOCK
  8
0
  2
$MODEL_SPACE
 70
     0
 10
0.0
 20
0.0
 30
0.0
  3
$MODEL_SPACE
  1

  0
ENDBLK
  5
21
  8
0
  0
BLOCK
 67
     1
  8
0
  2
$PAPER_SPACE
 70
     0
 10
0.0
 20
0.0
 30
0.0
  3
$PAPER_SPACE
  1

  0
ENDBLK
  5
1D
 67
     1
  8
0
  0
BLOCK
  8
0
  2
_FILLED
 70
     0
 10
0.0
 20
0.0
 30
0.0
  3
_FILLED
  1

  0
SOLID
  5
136C8
  8
0
  6
BYBLOCK
 62
     0
 10
0.0
 20
0.0
 30
0.0
 11
-1.0
 21
0.1666666667
 31
0.0
 12
-1.0
 22
-0.1666666667
 32
0.0
 13
-1.0
 23
-0.1666666667
 33
0.0
  0
ENDBLK
  5
136C9
  8
0
  6
BYBLOCK
 62
     0
  0
ENDSEC
  0
SECTION
  2
ENTITIES
  0
ATTDEF
  5
C5C4
  8
0
 10
4085.034590564599057
 20
225.2454729115254963
 30
0.0
 40
0.001
  1
P26100-CU
  3

  2
MODELNUMBER
 70
     0
1001
ACDBATTR
1070
     0
1070
     1
  0
ATTDEF
  5
C5C5
  8
0
 10
4085.034590564599057
 20
225.2438062448588028
 30
0.0
 40
0.001
  1
KALLISTA
  3

  2
BRANDNAME
 70
     0
1001
ACDBATTR
1070
     0
1070
     1
  0
ATTDEF
  5
C5C6
  8
0
 10
4085.034590564599057
 20
225.2421395781921092
 30
0.0
 40
0.001
  1
BATHROOM SINK FAUCET
  3

  2
PRODUCT
 70
     0
1001
ACDBATTR
1070
     0
1070
     1
  0
LINE
  5
13AD7
  8
0
 10
4085.8642904452349285
 20
219.575593464980102
 30
0.0
 11
4084.2107471381350479
 21
219.575593464980102
 31
0.0
  0
LINE
  5
13AD9
  8
0
 10
4084.4110424137347763
 20
220.7866958271800968
 30
0.0
 11
4085.6639951696352
 21
220.7866958271800968
 31
0.0
  0
LINE
  5
13ADA
  8
0
 10
4084.0382668231350181
 20
219.7480737798800874
 30
0.0
 11
4084.0382668231350181
 21
226.208703742380095
 31
0.0
  0
LINE
  5
13ADB
  8
0
 10
4084.3635424137351038
 20
225.8706131499801018
 30
0.0
 11
4084.3635424137351038
 21
220.8341958271801104
 31
0.0
  0
LINE
  5
13ADC
  8
0
 10
4085.7114951696348726
 20
220.8341958271801104
 30
0.0
 11
4085.7114951696348726
 21
225.8706131499801018
 31
0.0
  0
LINE
  5
13ADD
  8
0
 10
4086.0367707601349139
 20
219.7480737798800874
 30
0.0
 11
4086.0367707601349139
 21
226.2087036914801104
 31
0.0
  0
LINE
  5
13ADE
  8
0
 10
4085.7114951696348726
 20
224.2448848034800903
 30
0.0
 11
4084.3635424137351038
 21
224.2448848034800903
 31
0.0
  0
LINE
  5
13ADF
  8
0
 10
4089.9817707601350776
 20
224.2598848034801904
 30
0.0
 11
4088.0932668231348543
 21
224.2598848034801904
 31
0.0
  0
LINE
  5
13AE1
  8
0
 10
4088.0532668231348907
 20
224.2998848034800972
 30
0.0
 11
4088.0532668231348907
 21
226.188388740480093
 31
0.0
  0
LINE
  5
13AE2
  8
0
 10
4085.6639951696352
 20
225.918113149980087
 30
0.0
 11
4084.4110424137347763
 21
225.918113149980087
 31
0.0
  0
LINE
  5
13AE4
  8
0
 10
4088.0932668231348543
 20
226.2283887404801135
 30
0.0
 11
4089.9817707601350776
 21
226.2283887404801135
 31
0.0
  0
LINE
  5
13AE5
  8
0
 10
4084.072951869336066
 20
226.2433887404800998
 30
0.0
 11
4086.0020857572349087
 21
226.2433887404800998
 31
0.0
  0
LINE
  5
13AE6
  8
0
 10
4090.0217707601350412
 20
226.188388740480093
 30
0.0
 11
4090.0217707601350412
 21
224.2998848034800972
 31
0.0
  0
ARC
  5
13AE7
  8
0
 10
4084.2107471381350479
 20
219.7480737798800874
 30
0.0
 40
0.172480315
 50
180.0
 51
270.0
  0
ARC
  5
13AE8
  8
0
 10
4084.4110424137347763
 20
220.8341958271801104
 30
0.0
 40
0.0475
 50
180.0
 51
270.000000000104194
  0
ARC
  5
13AE9
  8
0
 10
4084.4110424137347763
 20
225.8706131499801018
 30
0.0
 40
0.0475
 50
89.9999999998957776
 51
180.0
  0
ARC
  5
13AEE
  8
0
 10
4084.0729518625348646
 20
226.2087037011800987
 30
0.0
 40
0.0346850394
 50
90.0
 51
179.9999318796992895
  0
ARC
  5
13AEF
  8
0
 10
4085.8642904452349285
 20
219.7480737798800874
 30
0.0
 40
0.172480315
 50
270.0
 51
0.0
  0
ARC
  5
13AF0
  8
0
 10
4085.6639951696352
 20
220.8341958271801104
 30
0.0
 40
0.0475
 50
269.999999999895806
 51
0.0
  0
ARC
  5
13AF1
  8
0
 10
4085.6639951696352
 20
225.8706131499801018
 30
0.0
 40
0.0475
 50
0.0
 51
89.9999999764983016
  0
ARC
  5
13AF2
  8
0
 10
4088.0932668231348543
 20
224.2998848034800972
 30
0.0
 40
0.04
 50
179.999999999599396
 51
270.0
  0
ARC
  5
13AF3
  8
0
 10
4089.9817707601350776
 20
224.2998848034800972
 30
0.0
 40
0.04
 50
269.9999999996090878
 51
0.0
  0
ARC
  5
13AF4
  8
0
 10
4089.9817707601350776
 20
226.188388740480093
 30
0.0
 40
0.04
 50
0.0
 51
90.0
  0
ARC
  5
13AF5
  8
0
 10
4088.0932668231348543
 20
226.188388740480093
 30
0.0
 40
0.04
 50
89.9999999996091731
 51
180.0
  0
ARC
  5
13AF6
  8
0
 10
4086.0020857208351117
 20
226.2087037011800987
 30
0.0
 40
0.0346850394
 50
359.9999839647006183
 51
90.0
  0
LINE
  5
13AF7
  8
0
 10
4088.3522077680349867
 20
224.4958848034800951
 30
0.0
 11
4089.7232707601351649
 21
224.4958848034800951
 31
0.0
  0
LINE
  5
13AF8
  8
0
 10
4089.7231054057851907
 20
225.9923887404800951
 30
0.0
 11
4088.351932177485196
 21
225.9923887404800951
 31
0.0
  0
LINE
  5
13AF9
  8
0
 10
4088.2894872955848768
 20
225.9298887404800951
 30
0.0
 11
4088.2897077680349867
 21
224.5583848034800951
 31
0.0
  0
LINE
  5
13AFA
  8
0
 10
4089.7857707601351649
 20
224.5583848034800951
 30
0.0
 11
4089.7855502876850551
 21
225.9298887404800951
 31
0.0
  0
ARC
  5
13AFB
  8
0
 10
4088.3522077680349867
 20
224.5583848034800951
 30
0.0
 40
0.0625
 50
179.9999999998989892
 51
270.0
  0
ARC
  5
13AFC
  8
0
 10
4088.3519872955848768
 20
225.9298887404800951
 30
0.0
 40
0.0625
 50
90.0
 51
180.0
  0
ARC
  5
13AFD
  8
0
 10
4089.7232707601351649
 20
224.5583848034800951
 30
0.0
 40
0.0625
 50
269.999999999895806
 51
0.0
  0
ARC
  5
13AFE
  8
0
 10
4089.7230502876859646
 20
225.9298887404800951
 30
0.0
 40
0.0625
 50
0.0
 51
90.0
  0
ENDSEC
  0
EOF
