  0
SECTION
  2
HEADER
  9
$ACADVER
  1
AC1009
  9
$INSBASE
 10
4715.7587662172172713
 20
160.894900609431005
 30
0.0
  9
$EXTMIN
 10
4714.6402666390176819
 20
152.7657814092713977
 30
0.0
  9
$EXTMAX
 10
4723.2426478941360983
 20
166.9787588771310141
 30
0.0
  9
$LIMMIN
 10
0.0
 20
0.0
  9
$LIMMAX
 10
11.6929133858000007
 20
8.2677165353999982
  9
$ORTHOMODE
 70
     0
  9
$REGENMODE
 70
     1
  9
$FILLMODE
 70
     1
  9
$QTEXTMODE
 70
     0
  9
$MIRRTEXT
 70
     0
  9
$DRAGMODE
 70
     2
  9
$LTSCALE
 40
0.6431102362
  9
$OSMODE
 70
  4095
  9
$ATTMODE
 70
     1
  9
$TEXTSIZE
 40
0.2
  9
$TRACEWID
 40
0.05
  9
$TEXTSTYLE
  7
STANDARD
  9
$CLAYER
  8
0
  9
$CELTYPE
  6
BYLAYER
  9
$CECOLOR
 62
   256
  9
$DIMSCALE
 40
1.0
  9
$DIMASZ
 40
0.1875
  9
$DIMEXO
 40
0.0625
  9
$DIMDLI
 40
0.4443307087
  9
$DIMRND
 40
0.0
  9
$DIMDLE
 40
0.0
  9
$DIMEXE
 40
0.125
  9
$DIMTP
 40
0.01
  9
$DIMTM
 40
0.01
  9
$DIMTXT
 40
2.0
  9
$DIMCEN
 40
0.1052362205
  9
$DIMTSZ
 40
0.0
  9
$DIMTOL
 70
     1
  9
$DIMLIM
 70
     0
  9
$DIMTIH
 70
     1
  9
$DIMTOH
 70
     1
  9
$DIMSE1
 70
     0
  9
$DIMSE2
 70
     0
  9
$DIMTAD
 70
     0
  9
$DIMZIN
 70
     0
  9
$DIMBLK
  1

  9
$DIMASO
 70
     1
  9
$DIMSHO
 70
     1
  9
$DIMPOST
  1
\X
  9
$DIMAPOST
  1

  9
$DIMALT
 70
     1
  9
$DIMALTD
 70
     2
  9
$DIMALTF
 40
25.3999999999999986
  9
$DIMLFAC
 40
1.0
  9
$DIMTOFL
 70
     0
  9
$DIMTVP
 40
0.0
  9
$DIMTIX
 70
     0
  9
$DIMSOXD
 70
     0
  9
$DIMSAH
 70
     0
  9
$DIMBLK1
  1

  9
$DIMBLK2
  1

  9
$DIMSTYLE
  2
STANDARD
  9
$DIMCLRD
 70
     0
  9
$DIMCLRE
 70
     0
  9
$DIMCLRT
 70
     0
  9
$DIMTFAC
 40
1.0
  9
$DIMGAP
 40
0.09
  9
$LUNITS
 70
     2
  9
$LUPREC
 70
     4
  9
$SKETCHINC
 40
0.1
  9
$FILLETRAD
 40
0.0
  9
$AUNITS
 70
     0
  9
$AUPREC
 70
     0
  9
$MENU
  1
.
  9
$ELEVATION
 40
0.0
  9
$PELEVATION
 40
0.0
  9
$THICKNESS
 40
0.0
  9
$LIMCHECK
 70
     0
  9
$BLIPMODE
 70
     0
  9
$CHAMFERA
 40
0.0
  9
$CHAMFERB
 40
0.0
  9
$SKPOLY
 70
     0
  9
$TDCREATE
 40
2458060.468368056230247
  9
$TDUPDATE
 40
2459894.4658449068665504
  9
$TDINDWG
 40
0.510446875
  9
$TDUSRTIMER
 40
0.510446875
  9
$USRTIMER
 70
     1
  9
$ANGBASE
 50
0.0
  9
$ANGDIR
 70
     0
  9
$PDMODE
 70
     0
  9
$PDSIZE
 40
0.3125
  9
$PLINEWID
 40
0.0
  9
$COORDS
 70
     1
  9
$SPLFRAME
 70
     0
  9
$SPLINETYPE
 70
     6
  9
$SPLINESEGS
 70
     8
  9
$ATTDIA
 70
     1
  9
$ATTREQ
 70
     1
  9
$HANDLING
 70
     1
  9
$HANDSEED
  5
D2A2
  9
$SURFTAB1
 70
     6
  9
$SURFTAB2
 70
     6
  9
$SURFTYPE
 70
     6
  9
$SURFU
 70
     6
  9
$SURFV
 70
     6
  9
$UCSNAME
  2

  9
$UCSORG
 10
0.0
 20
0.0
 30
0.0
  9
$UCSXDIR
 10
1.0
 20
0.0
 30
0.0
  9
$UCSYDIR
 10
0.0
 20
1.0
 30
0.0
  9
$PUCSNAME
  2

  9
$PUCSORG
 10
0.0
 20
0.0
 30
0.0
  9
$PUCSXDIR
 10
1.0
 20
0.0
 30
0.0
  9
$PUCSYDIR
 10
0.0
 20
1.0
 30
0.0
  9
$USERI1
 70
     0
  9
$USERI2
 70
     0
  9
$USERI3
 70
     0
  9
$USERI4
 70
     0
  9
$USERI5
 70
     0
  9
$USERR1
 40
0.0
  9
$USERR2
 40
0.0
  9
$USERR3
 40
0.0
  9
$USERR4
 40
0.0
  9
$USERR5
 40
0.0
  9
$WORLDVIEW
 70
     1
  9
$SHADEDGE
 70
     3
  9
$SHADEDIF
 70
    70
  9
$TILEMODE
 70
     1
  9
$MAXACTVP
 70
    64
  9
$PLIMCHECK
 70
     0
  9
$PEXTMIN
 10
1.0000000000000000E+20
 20
1.0000000000000000E+20
 30
1.0000000000000000E+20
  9
$PEXTMAX
 10
-1.0000000000000000E+20
 20
-1.0000000000000000E+20
 30
-1.0000000000000000E+20
  9
$PLIMMIN
 10
0.0
 20
0.0
  9
$PLIMMAX
 10
12.0
 20
9.0
  9
$UNITMODE
 70
     0
  9
$VISRETAIN
 70
     1
  9
$PLINEGEN
 70
     0
  9
$PSLTSCALE
 70
     1
  0
ENDSEC
  0
SECTION
  2
TABLES
  0
TABLE
  2
VPORT
 70
     1
  0
VPORT
  2
*ACTIVE
 70
     0
 10
0.0
 20
0.0
 11
1.0
 21
1.0
 12
912.2339953105600898
 22
34.892999270161873
 13
0.0
 23
0.0
 14
1.0
 24
1.0
 15
0.0
 25
0.0
 16
0.0
 26
0.0
 36
17.1152628219792007
 17
3803.5440673828129547
 27
125.9952621967499056
 37
0.0
 40
0.0540501173858772
 41
2.498684210526315
 42
50.0
 43
0.0
 44
0.0
 50
0.0
 51
0.0
 71
     0
 72
   100
 73
     1
 74
     1
 75
     0
 76
     0
 77
     0
 78
     0
  0
ENDTAB
  0
TABLE
  2
LTYPE
 70
     2
  0
LTYPE
  2
CONTINUOUS
 70
     0
  3
Solid line
 72
    65
 73
     0
 40
0.0
  0
LTYPE
  2
PHANTOM2
 70
     0
  3
___ _ _ ___ _ _ ___ _ _ ___ _ _
 72
    65
 73
     6
 40
1.25
 49
0.625
 49
-0.125
 49
0.125
 49
-0.125
 49
0.125
 49
-0.125
  0
ENDTAB
  0
TABLE
  2
LAYER
 70
     2
  0
LAYER
  2
0
 70
     0
 62
   255
  6
CONTINUOUS
  0
LAYER
  2
DEFPOINTS
 70
     0
 62
     7
  6
CONTINUOUS
  0
ENDTAB
  0
TABLE
  2
STYLE
 70
     1
  0
STYLE
  2
STANDARD
 70
     0
 40
0.0
 41
0.8
 50
0.0
 71
     0
 42
0.2
  3
txt
  4

  0
ENDTAB
  0
TABLE
  2
VIEW
 70
     0
  0
ENDTAB
  0
TABLE
  2
UCS
 70
     0
  0
ENDTAB
  0
TABLE
  2
APPID
 70
     9
  0
APPID
  2
ACAD
 70
     0
  0
APPID
  2
ACAD_MLEADERVER
 70
     0
  0
APPID
  2
ACAD_EXEMPT_FROM_CAD_STANDARDS
 70
     0
  0
APPID
  2
ACAD_NAV_VCDISPLAY
 70
     0
  0
APPID
  2
ACAECLAYERSTANDARD
 70
     0
  0
APPID
  2
ACCMTRANSPARENCY
 70
     0
  0
APPID
  2
ACAD_DSTYLE_DIMJAG
 70
     0
  0
APPID
  2
ACAD_DSTYLE_DIMTALN
 70
     0
  0
APPID
  2
ACDBATTR
 70
     0
  0
ENDTAB
  0
TABLE
  2
DIMSTYLE
 70
     1
  0
DIMSTYLE
  2
STANDARD
 70
     0
  3

  4

  5

  6

  7

 40
1.0
 41
0.1875
 42
0.0625
 43
0.38
 44
0.125
 45
0.0
 46
0.0
 47
0.01
 48
0.01
140
0.15625
141
0.09
142
0.0
143
25.3999999999999986
144
1.0
145
0.0
146
1.0
147
0.09
 71
     1
 72
     0
 73
     1
 74
     1
 75
     0
 76
     0
 77
     0
 78
     4
170
     0
171
     2
172
     0
173
     0
174
     0
175
     0
176
     0
177
     0
178
     0
  0
ENDTAB
  0
ENDSEC
  0
SECTION
  2
BLOCKS
  0
BLOCK
  8
0
  2
$MODEL_SPACE
 70
     0
 10
0.0
 20
0.0
 30
0.0
  3
$MODEL_SPACE
  1

  0
ENDBLK
  5
21
  8
0
  0
BLOCK
 67
     1
  8
0
  2
$PAPER_SPACE
 70
     0
 10
0.0
 20
0.0
 30
0.0
  3
$PAPER_SPACE
  1

  0
ENDBLK
  5
1D
 67
     1
  8
0
  0
BLOCK
  8
0
  2
_FILLED
 70
     0
 10
0.0
 20
0.0
 30
0.0
  3
_FILLED
  1

  0
SOLID
  5
CFCE
  8
0
  6
BYBLOCK
 62
     0
 10
0.0
 20
0.0
 30
0.0
 11
-1.0
 21
0.1666666667
 31
0.0
 12
-1.0
 22
-0.1666666667
 32
0.0
 13
-1.0
 23
-0.1666666667
 33
0.0
  0
ENDBLK
  5
CFCF
  8
0
  6
BYBLOCK
 62
     0
  0
ENDSEC
  0
SECTION
  2
ENTITIES
  0
ATTDEF
  5
3930
  8
DEFPOINTS
 10
4715.7466032202100905
 20
160.892863433340807
 30
0.0
 40
0.001
  1
P26610-00
  3

  2
MODELNUMBER
 70
     0
1001
ACDBATTR
1070
     0
1070
     1
  0
ATTDEF
  5
3931
  8
DEFPOINTS
 10
4715.7466032202100905
 20
160.8911967666741134
 30
0.0
 40
0.001
  1
ONE
  3

  2
TRADENAME
 70
     0
1001
ACDBATTR
1070
     0
1070
     1
  0
ATTDEF
  5
3932
  8
DEFPOINTS
 10
4715.7466032202100905
 20
160.8895301000075051
 30
0.0
 40
0.001
  1
BATHROOM SINK FAUCET
  3

  2
PRODUCT
 70
     0
1001
ACDBATTR
1070
     0
1070
     1
  0
ARC
  5
D160
  8
0
 10
4714.7150697886208945
 20
161.1941132078266037
 30
0.0
 40
0.0748031496043679
 50
90.000000003335046
 51
180.0000001307608102
  0
ARC
  5
D161
  8
0
 10
4714.6501091585460017
 20
160.9047431289602912
 30
0.0
 40
0.0098425195292879
 50
179.9999990062453037
 51
270.0000004116184869
  0
LINE
  5
D162
  8
0
 10
4714.6402666390176819
 20
160.904743129130992
 30
0.0
 11
4714.6402666390176819
 21
161.1941132076559029
 31
0.0
  0
LINE
  5
D163
  8
0
 10
4714.6501091586169423
 20
160.894900609431005
 30
0.0
 11
4716.8674232758166909
 21
160.894900609431005
 31
0.0
  0
LINE
  5
D164
  8
0
 10
4716.8024626458181956
 20
161.2689163574310101
 30
0.0
 11
4714.7150697886927446
 21
161.2689163574310101
 31
0.0
  0
ARC
  5
D165
  8
0
 10
4715.0540461665177645
 20
161.2787588771309117
 30
0.0
 40
0.0098425196999985
 50
179.9999999999934914
 51
270.0
  0
LINE
  5
D166
  8
0
 10
4715.0442036468175502
 20
161.2787588771309117
 30
0.0
 11
4715.0442058705166346
 21
166.5819084834309933
 31
0.0
  0
LINE
  5
D167
  8
0
 10
4715.0540461665177645
 20
166.5917510031310087
 30
0.0
 11
4716.4634949854180377
 21
166.5917510031310087
 31
0.0
  0
ARC
  5
D168
  8
0
 10
4715.0540445945516694
 20
166.5819122784893125
 30
0.0
 40
0.0098387247673329
 50
89.9908456696198868
 51
180.0221005090652113
  0
ARC
  5
D169
  8
0
 10
4715.75877059074719
 20
165.4293845464370065
 30
0.0
 40
1.335594806203529
 50
112.4455692349644949
 51
118.3078362665170005
  0
ARC
  5
D16A
  8
0
 10
4715.134754827917277
 20
166.5879279604309886
 30
0.0
 40
0.0196850393999943
 50
118.3078363950686054
 51
168.7836105428166036
  0
ARC
  5
D16B
  8
0
 10
4715.0540461665177645
 20
166.673640766930987
 30
0.0
 40
0.0098425197000003
 50
180.0
 51
270.0
  0
ARC
  5
D16C
  8
0
 10
4715.0678256941882864
 20
166.9551368297603062
 30
0.0
 40
0.0236220473707141
 50
89.9999965332120837
 51
179.9999995859323008
  0
ARC
  5
D16D
  8
0
 10
4715.3053860295030972
 20
166.9672447811383051
 30
0.0
 40
0.0115164311697926
 50
91.1538408936872742
 51
126.749107037483995
  0
ARC
  5
D16E
  8
0
 10
4715.310826048040326
 20
166.9606281975196111
 30
0.0
 40
0.0200768718619274
 50
127.891008010874998
 51
157.1636220832143067
  0
ARC
  5
D16F
  8
0
 10
4715.3227618872206222
 20
166.9553744251772969
 30
0.0
 40
0.033116800254692
 50
156.8008901626064926
 51
180.4114630480019059
  0
ARC
  5
D170
  8
0
 10
4715.3824957207480111
 20
166.6911776668559071
 30
0.0
 40
0.0602368903806354
 50
91.7184305789423036
 51
102.2243566118830955
  0
ARC
  5
D171
  8
0
 10
4715.366986698331857
 20
166.8087148890842002
 30
0.0
 40
0.0658869342662129
 50
184.321597460436891
 51
224.53795252679231
  0
ARC
  5
D172
  8
0
 10
4715.3539321734879195
 20
166.7967655912752036
 30
0.0
 40
0.0482050686057621
 50
225.2973739187009983
 51
257.4415518220272929
  0
ARC
  5
D173
  8
0
 10
4715.3557532081285899
 20
166.8160355267974921
 30
0.0
 40
0.0674530788144031
 50
259.4912078223492244
 51
281.9684382895175077
  0
LINE
  5
D174
  8
0
 10
4715.0442036468175502
 20
166.9551368297603062
 30
0.0
 11
4715.0442036468175502
 21
166.673640766930987
 31
0.0
  0
LINE
  5
D175
  8
0
 10
4715.289645940916671
 20
166.9551366027309882
 30
0.0
 11
4715.3012870938182459
 21
166.8037500050309916
 31
0.0
  0
LINE
  5
D176
  8
0
 10
4715.0678256956171026
 20
166.9787588771310141
 30
0.0
 11
4716.4497154567170583
 21
166.9787588771310141
 31
0.0
  0
LINE
  5
D177
  8
0
 10
4715.3806893504179243
 20
166.7513874666310016
 30
0.0
 11
4716.1368517035170953
 21
166.751386709530891
 31
0.0
  0
LINE
  5
D178
  8
0
 10
4715.0540461665177645
 20
166.6637982472308863
 30
0.0
 11
4716.4634949854180377
 21
166.6637982472308863
 31
0.0
  0
LINE
  5
D179
  8
0
 10
4715.3788642767176498
 20
162.9913573023310107
 30
0.0
 11
4716.1386768751171985
 21
162.9913573023310107
 31
0.0
  0
ARC
  5
D17A
  8
0
 10
4716.8024564806719354
 20
161.1940983238588103
 30
0.0
 40
0.0748180338261743
 50
0.0113981716624245
 51
89.9952787207872262
  0
ARC
  5
D17B
  8
0
 10
4716.8674171050197401
 20
160.9047580267547914
 30
0.0
 40
0.0098574192553206
 50
270.0358674706346847
 51
359.9134082386231057
  0
LINE
  5
D17C
  8
0
 10
4716.8772745130172552
 20
160.904743129130992
 30
0.0
 11
4716.8772745130172552
 21
161.1941132076559029
 31
0.0
  0
ARC
  5
D17D
  8
0
 10
4716.4634862679176877
 20
161.2787588771309117
 30
0.0
 40
0.0098425196999985
 50
270.0
 51
0.0000000000065138
  0
LINE
  5
D17E
  8
0
 10
4716.473328787617902
 20
161.2787588771309117
 30
0.0
 11
4716.4733265639169986
 21
166.5819084834309933
 31
0.0
  0
ARC
  5
D17F
  8
0
 10
4716.4634878356628178
 20
166.5819122767427132
 30
0.0
 40
0.009838728986129
 50
359.9779096713127728
 51
89.9583634415277231
  0
ARC
  5
D180
  8
0
 10
4715.7594104332401912
 20
165.4308277490443118
 30
0.0
 40
1.3340166306358601
 50
61.687295251835998
 51
67.5561648357265057
  0
ARC
  5
D181
  8
0
 10
4716.3827776065181752
 20
166.5879279604309886
 30
0.0
 40
0.0196850393999943
 50
11.2163894571833591
 51
61.6921636049313733
  0
ARC
  5
D182
  8
0
 10
4716.4634862613165751
 20
166.6736407696648996
 30
0.0
 40
0.0098425263003282
 50
270.0507851520156919
 51
359.9999840850279043
  0
ARC
  5
D183
  8
0
 10
4716.4497067374986727
 20
166.9551368286223862
 30
0.0
 40
0.0236220501177753
 50
0.0000031739969375
 51
89.9788513533508905
  0
ARC
  5
D184
  8
0
 10
4716.2121464049332644
 20
166.9672447811383051
 30
0.0
 40
0.0115164311697926
 50
53.2508929625159979
 51
88.8461591063127116
  0
ARC
  5
D185
  8
0
 10
4716.2067063863942167
 20
166.9606281975196111
 30
0.0
 40
0.0200768718619274
 50
22.8363779167856507
 51
52.1089919891249593
  0
ARC
  5
D186
  8
0
 10
4716.1947705472139205
 20
166.9553744251772969
 30
0.0
 40
0.033116800254692
 50
359.5885369519980941
 51
23.1991098373935287
  0
ARC
  5
D187
  8
0
 10
4716.1350466161202348
 20
166.6912362267613048
 30
0.0
 40
0.0601775615818197
 50
77.7730521332651961
 51
88.2810967647781268
  0
ARC
  5
D188
  8
0
 10
4716.1505457361035951
 20
166.8087148890842002
 30
0.0
 40
0.0658869342662129
 50
315.46204747320769
 51
355.6784025395630806
  0
ARC
  5
D189
  8
0
 10
4716.1636002609466232
 20
166.7967655912752036
 30
0.0
 40
0.0482050686057621
 50
282.5584481779725934
 51
314.702626081298888
  0
ARC
  5
D18A
  8
0
 10
4716.1617792263050433
 20
166.8160355267974921
 30
0.0
 40
0.0674530788144031
 50
258.0315617104824923
 51
280.5087921776507756
  0
LINE
  5
D18B
  8
0
 10
4716.473328787617902
 20
166.9551368297603062
 30
0.0
 11
4716.473328787617902
 21
166.673640766930987
 31
0.0
  0
LINE
  5
D18C
  8
0
 10
4716.2278864935178717
 20
166.9551366027309882
 30
0.0
 11
4716.2162453406172062
 21
166.8037500050309916
 31
0.0
  0
LINE
  5
D18D
  8
0
 10
4715.359164276716001
 20
164.7413573023310107
 30
0.0
 11
4715.359164276716001
 21
163.011057302331011
 31
0.0
  0
LINE
  5
D18E
  8
0
 10
4716.1583768751161188
 20
164.7413573023310107
 30
0.0
 11
4716.1583768751161188
 21
163.011057302331011
 31
0.0
  0
ARC
  5
D18F
  8
0
 10
4715.3788642767176498
 20
163.011057302331011
 30
0.0
 40
0.0197
 50
180.0
 51
270.0
  0
ARC
  5
D190
  8
0
 10
4716.1386768751171985
 20
163.011057302331011
 30
0.0
 40
0.0197
 50
270.0
 51
0.0000000000016284
  0
ARC
  5
D191
  8
0
 10
4715.7587705759160599
 20
164.7413573023310107
 30
0.0
 40
0.3996062992000002
 50
0.0
 51
180.0
  0
ARC
  5
D192
  8
0
 10
4715.9516303675436575
 20
164.7378849061593087
 30
0.0
 40
0.6493531430192399
 50
179.693621681949196
 51
204.161651555125701
  0
ARC
  5
D193
  8
0
 10
4715.985392462173877
 20
164.7377043680386066
 30
0.0
 40
0.6831157203463595
 50
156.4516746676250989
 51
179.693621681949196
  0
ARC
  5
D194
  8
0
 10
4715.8382726607223958
 20
164.8018214785905968
 30
0.0
 40
0.5226313290659244
 50
129.3835909453015915
 51
156.4516746676250989
  0
ARC
  5
D195
  8
0
 10
4715.7700337535388826
 20
164.8849454088422988
 30
0.0
 40
0.4150853564124887
 50
103.5599498977666002
 51
129.3835909453015915
  0
ARC
  5
D196
  8
0
 10
4715.7591768024813064
 20
164.9299603184406067
 30
0.0
 40
0.3687796821115692
 50
71.7707762560223443
 51
103.5599498977666002
  0
ARC
  5
D197
  8
0
 10
4715.7388688555420231
 20
164.8682993613581118
 30
0.0
 40
0.43369875740646
 50
42.4451534309911978
 51
71.7707762560223443
  0
ARC
  5
D198
  8
0
 10
4715.6323057654153672
 20
164.7708397755359897
 30
0.0
 40
0.5781081166813017
 50
20.6983712470403809
 51
42.4451534309911978
  0
ARC
  5
D199
  8
0
 10
4715.5620535956477397
 20
164.7442959748883879
 30
0.0
 40
0.6532076553602691
 50
359.7422454599233106
 51
20.6983712470403809
  0
ARC
  5
D19A
  8
0
 10
4715.5351774038308577
 20
164.7444168826980047
 30
0.0
 40
0.6800841191391194
 50
336.3991017759831266
 51
359.7422454599233106
  0
ENDSEC
  0
EOF
