  0
SECTION
  2
HEADER
  9
$ACADVER
  1
AC1009
  9
$INSBASE
 10
4753.5958406846793878
 20
174.6040431392914911
 30
0.0
  9
$EXTMIN
 10
4747.3222225873541902
 20
165.9266487181405978
 30
0.0
  9
$EXTMAX
 10
4761.2651908034267763
 20
188.4949880211916025
 30
0.0
  9
$LIMMIN
 10
0.0
 20
0.0
  9
$LIMMAX
 10
11.6929133858000007
 20
8.2677165353999982
  9
$ORTHOMODE
 70
     0
  9
$REGENMODE
 70
     1
  9
$FILLMODE
 70
     1
  9
$QTEXTMODE
 70
     0
  9
$MIRRTEXT
 70
     0
  9
$DRAGMODE
 70
     2
  9
$LTSCALE
 40
0.6431102362
  9
$OSMODE
 70
  4095
  9
$ATTMODE
 70
     1
  9
$TEXTSIZE
 40
0.2
  9
$TRACEWID
 40
0.05
  9
$TEXTSTYLE
  7
STANDARD
  9
$CLAYER
  8
0
  9
$CELTYPE
  6
BYLAYER
  9
$CECOLOR
 62
   256
  9
$DIMSCALE
 40
1.0
  9
$DIMASZ
 40
0.1875
  9
$DIMEXO
 40
0.0625
  9
$DIMDLI
 40
0.4443307087
  9
$DIMRND
 40
0.0
  9
$DIMDLE
 40
0.0
  9
$DIMEXE
 40
0.125
  9
$DIMTP
 40
0.01
  9
$DIMTM
 40
0.01
  9
$DIMTXT
 40
2.0
  9
$DIMCEN
 40
0.1052362205
  9
$DIMTSZ
 40
0.0
  9
$DIMTOL
 70
     1
  9
$DIMLIM
 70
     0
  9
$DIMTIH
 70
     1
  9
$DIMTOH
 70
     1
  9
$DIMSE1
 70
     0
  9
$DIMSE2
 70
     0
  9
$DIMTAD
 70
     0
  9
$DIMZIN
 70
     0
  9
$DIMBLK
  1

  9
$DIMASO
 70
     1
  9
$DIMSHO
 70
     1
  9
$DIMPOST
  1
\X
  9
$DIMAPOST
  1

  9
$DIMALT
 70
     1
  9
$DIMALTD
 70
     2
  9
$DIMALTF
 40
25.3999999999999986
  9
$DIMLFAC
 40
1.0
  9
$DIMTOFL
 70
     0
  9
$DIMTVP
 40
0.0
  9
$DIMTIX
 70
     0
  9
$DIMSOXD
 70
     0
  9
$DIMSAH
 70
     0
  9
$DIMBLK1
  1

  9
$DIMBLK2
  1

  9
$DIMSTYLE
  2
STANDARD
  9
$DIMCLRD
 70
     0
  9
$DIMCLRE
 70
     0
  9
$DIMCLRT
 70
     0
  9
$DIMTFAC
 40
1.0
  9
$DIMGAP
 40
0.09
  9
$LUNITS
 70
     2
  9
$LUPREC
 70
     4
  9
$SKETCHINC
 40
0.1
  9
$FILLETRAD
 40
0.0
  9
$AUNITS
 70
     0
  9
$AUPREC
 70
     0
  9
$MENU
  1
.
  9
$ELEVATION
 40
0.0
  9
$PELEVATION
 40
0.0
  9
$THICKNESS
 40
0.0
  9
$LIMCHECK
 70
     0
  9
$BLIPMODE
 70
     0
  9
$CHAMFERA
 40
0.0
  9
$CHAMFERB
 40
0.0
  9
$SKPOLY
 70
     0
  9
$TDCREATE
 40
2458060.468368056230247
  9
$TDUPDATE
 40
2459894.4852083339355886
  9
$TDINDWG
 40
0.515909838
  9
$TDUSRTIMER
 40
0.515909838
  9
$USRTIMER
 70
     1
  9
$ANGBASE
 50
0.0
  9
$ANGDIR
 70
     0
  9
$PDMODE
 70
     0
  9
$PDSIZE
 40
0.3125
  9
$PLINEWID
 40
0.0
  9
$COORDS
 70
     1
  9
$SPLFRAME
 70
     0
  9
$SPLINETYPE
 70
     6
  9
$SPLINESEGS
 70
     8
  9
$ATTDIA
 70
     1
  9
$ATTREQ
 70
     1
  9
$HANDLING
 70
     1
  9
$HANDSEED
  5
D616
  9
$SURFTAB1
 70
     6
  9
$SURFTAB2
 70
     6
  9
$SURFTYPE
 70
     6
  9
$SURFU
 70
     6
  9
$SURFV
 70
     6
  9
$UCSNAME
  2

  9
$UCSORG
 10
0.0
 20
0.0
 30
0.0
  9
$UCSXDIR
 10
1.0
 20
0.0
 30
0.0
  9
$UCSYDIR
 10
0.0
 20
1.0
 30
0.0
  9
$PUCSNAME
  2

  9
$PUCSORG
 10
0.0
 20
0.0
 30
0.0
  9
$PUCSXDIR
 10
1.0
 20
0.0
 30
0.0
  9
$PUCSYDIR
 10
0.0
 20
1.0
 30
0.0
  9
$USERI1
 70
     0
  9
$USERI2
 70
     0
  9
$USERI3
 70
     0
  9
$USERI4
 70
     0
  9
$USERI5
 70
     0
  9
$USERR1
 40
0.0
  9
$USERR2
 40
0.0
  9
$USERR3
 40
0.0
  9
$USERR4
 40
0.0
  9
$USERR5
 40
0.0
  9
$WORLDVIEW
 70
     1
  9
$SHADEDGE
 70
     3
  9
$SHADEDIF
 70
    70
  9
$TILEMODE
 70
     1
  9
$MAXACTVP
 70
    64
  9
$PLIMCHECK
 70
     0
  9
$PEXTMIN
 10
1.0000000000000000E+20
 20
1.0000000000000000E+20
 30
1.0000000000000000E+20
  9
$PEXTMAX
 10
-1.0000000000000000E+20
 20
-1.0000000000000000E+20
 30
-1.0000000000000000E+20
  9
$PLIMMIN
 10
0.0
 20
0.0
  9
$PLIMMAX
 10
12.0
 20
9.0
  9
$UNITMODE
 70
     0
  9
$VISRETAIN
 70
     1
  9
$PLINEGEN
 70
     0
  9
$PSLTSCALE
 70
     1
  0
ENDSEC
  0
SECTION
  2
TABLES
  0
TABLE
  2
VPORT
 70
     1
  0
VPORT
  2
*ACTIVE
 70
     0
 10
0.0
 20
0.0
 11
1.0
 21
1.0
 12
950.0833208330316211
 22
48.587843306703391
 13
0.0
 23
0.0
 14
1.0
 24
1.0
 15
0.0
 25
0.0
 16
0.0
 26
0.0
 36
17.1152628219792007
 17
3803.5440673828129547
 27
125.9952621967499056
 37
0.0
 40
0.0730361369329273
 41
2.498684210526315
 42
50.0
 43
0.0
 44
0.0
 50
0.0
 51
0.0
 71
     0
 72
   100
 73
     1
 74
     1
 75
     0
 76
     0
 77
     0
 78
     0
  0
ENDTAB
  0
TABLE
  2
LTYPE
 70
     2
  0
LTYPE
  2
CONTINUOUS
 70
     0
  3
Solid line
 72
    65
 73
     0
 40
0.0
  0
LTYPE
  2
PHANTOM2
 70
     0
  3
___ _ _ ___ _ _ ___ _ _ ___ _ _
 72
    65
 73
     6
 40
1.25
 49
0.625
 49
-0.125
 49
0.125
 49
-0.125
 49
0.125
 49
-0.125
  0
ENDTAB
  0
TABLE
  2
LAYER
 70
     2
  0
LAYER
  2
0
 70
     0
 62
   255
  6
CONTINUOUS
  0
LAYER
  2
DEFPOINTS
 70
     0
 62
     7
  6
CONTINUOUS
  0
ENDTAB
  0
TABLE
  2
STYLE
 70
     1
  0
STYLE
  2
STANDARD
 70
     0
 40
0.0
 41
0.8
 50
0.0
 71
     0
 42
0.2
  3
txt
  4

  0
ENDTAB
  0
TABLE
  2
VIEW
 70
     0
  0
ENDTAB
  0
TABLE
  2
UCS
 70
     0
  0
ENDTAB
  0
TABLE
  2
APPID
 70
     9
  0
APPID
  2
ACAD
 70
     0
  0
APPID
  2
ACAD_MLEADERVER
 70
     0
  0
APPID
  2
ACAD_EXEMPT_FROM_CAD_STANDARDS
 70
     0
  0
APPID
  2
ACAD_NAV_VCDISPLAY
 70
     0
  0
APPID
  2
ACAECLAYERSTANDARD
 70
     0
  0
APPID
  2
ACCMTRANSPARENCY
 70
     0
  0
APPID
  2
ACAD_DSTYLE_DIMJAG
 70
     0
  0
APPID
  2
ACAD_DSTYLE_DIMTALN
 70
     0
  0
APPID
  2
ACDBATTR
 70
     0
  0
ENDTAB
  0
TABLE
  2
DIMSTYLE
 70
     1
  0
DIMSTYLE
  2
STANDARD
 70
     0
  3

  4

  5

  6

  7

 40
1.0
 41
0.1875
 42
0.0625
 43
0.38
 44
0.125
 45
0.0
 46
0.0
 47
0.01
 48
0.01
140
0.15625
141
0.09
142
0.0
143
25.3999999999999986
144
1.0
145
0.0
146
1.0
147
0.09
 71
     1
 72
     0
 73
     1
 74
     1
 75
     0
 76
     0
 77
     0
 78
     4
170
     0
171
     2
172
     0
173
     0
174
     0
175
     0
176
     0
177
     0
178
     0
  0
ENDTAB
  0
ENDSEC
  0
SECTION
  2
BLOCKS
  0
BLOCK
  8
0
  2
$MODEL_SPACE
 70
     0
 10
0.0
 20
0.0
 30
0.0
  3
$MODEL_SPACE
  1

  0
ENDBLK
  5
21
  8
0
  0
BLOCK
 67
     1
  8
0
  2
$PAPER_SPACE
 70
     0
 10
0.0
 20
0.0
 30
0.0
  3
$PAPER_SPACE
  1

  0
ENDBLK
  5
1D
 67
     1
  8
0
  0
BLOCK
  8
0
  2
_FILLED
 70
     0
 10
0.0
 20
0.0
 30
0.0
  3
_FILLED
  1

  0
SOLID
  5
CFCE
  8
0
  6
BYBLOCK
 62
     0
 10
0.0
 20
0.0
 30
0.0
 11
-1.0
 21
0.1666666667
 31
0.0
 12
-1.0
 22
-0.1666666667
 32
0.0
 13
-1.0
 23
-0.1666666667
 33
0.0
  0
ENDBLK
  5
CFCF
  8
0
  6
BYBLOCK
 62
     0
  0
ENDSEC
  0
SECTION
  2
ENTITIES
  0
ATTDEF
  5
3930
  8
DEFPOINTS
 10
4753.5863958020527207
 20
174.6012551294600996
 30
0.0
 40
0.001
  1
P26612-00
  3

  2
MODELNUMBER
 70
     0
1001
ACDBATTR
1070
     0
1070
     1
  0
ATTDEF
  5
3931
  8
DEFPOINTS
 10
4753.5863958020527207
 20
174.5995884627934913
 30
0.0
 40
0.001
  1
ONE
  3

  2
TRADENAME
 70
     0
1001
ACDBATTR
1070
     0
1070
     1
  0
ATTDEF
  5
3932
  8
DEFPOINTS
 10
4753.5863958020527207
 20
174.5979217961267977
 30
0.0
 40
0.001
  1
BATHROOM SINK FAUCET
  3

  2
PRODUCT
 70
     0
1001
ACDBATTR
1070
     0
1070
     1
  0
ARC
  5
D4D0
  8
0
 10
4752.5521442561548611
 20
174.903255737516389
 30
0.0
 40
0.0748031497750829
 50
90.000000057529661
 51
179.9999998658944094
  0
ARC
  5
D4D1
  8
0
 10
4752.4871836260790587
 20
174.6138856589915065
 30
0.0
 40
0.0098425196999998
 50
179.9999999999967031
 51
270.0
  0
LINE
  5
D4D2
  8
0
 10
4752.4773411063797539
 20
174.6138856589915065
 30
0.0
 11
4752.4773411063797539
 21
174.903255737516389
 31
0.0
  0
LINE
  5
D4D3
  8
0
 10
4752.4871836260790587
 20
174.6040431392914911
 30
0.0
 11
4754.7044977432788073
 21
174.6040431392914911
 31
0.0
  0
LINE
  5
D4D4
  8
0
 10
4754.639537113280312
 20
174.9780588872914961
 30
0.0
 11
4752.5521442561548611
 21
174.9780588872914961
 31
0.0
  0
ARC
  5
D4D5
  8
0
 10
4752.8911206339798809
 20
174.9879014069915115
 30
0.0
 40
0.0098425196999985
 50
179.9999999999934914
 51
270.0
  0
ARC
  5
D4D6
  8
0
 10
4754.6395371132039145
 20
174.903255737516389
 30
0.0
 40
0.0748031497750829
 50
0.00000013410562
 51
89.9999999424703248
  0
ARC
  5
D4D7
  8
0
 10
4754.7044977432788073
 20
174.6138856589915065
 30
0.0
 40
0.0098425196999998
 50
270.0
 51
0.0000000000032569
  0
LINE
  5
D4D8
  8
0
 10
4754.7143402629790216
 20
174.6138856589915065
 30
0.0
 11
4754.7143402629790216
 21
174.903255737516389
 31
0.0
  0
ARC
  5
D4D9
  8
0
 10
4754.3005576515943176
 20
174.9879088519074912
 30
0.0
 40
0.0098499650987315
 50
270.0179379192534839
 51
359.9566940286454724
  0
LINE
  5
D4DA
  8
0
 10
4754.3104076137269658
 20
188.0981376276623962
 30
0.0
 11
4754.3104076138042728
 21
181.4562655430536893
 31
0.0
  0
LINE
  5
D4DB
  8
0
 10
4754.3104076138142773
 20
180.650492754591312
 30
0.0
 11
4754.3104076138788514
 21
174.9879014069915115
 31
0.0
  0
ARC
  5
D4DC
  8
0
 10
4760.2227184092062089
 20
181.0533791488915085
 30
0.0
 40
5.9260219699243724
 50
176.1016834416342078
 51
183.8983165583657069
  0
ARC
  5
D4DD
  8
0
 10
4755.2977510827786318
 20
181.8803677214914956
 30
0.0
 40
0.0196850394000019
 50
0.0000000000065138
 51
90.0
  0
ARC
  5
D4DE
  8
0
 10
4755.2977510827786318
 20
181.7032023671914942
 30
0.0
 40
0.0196850394000028
 50
270.0
 51
359.9999999999935199
  0
ARC
  5
D4DF
  8
0
 10
4754.8449951772781787
 20
181.3980842568915079
 30
0.0
 40
0.2854330708999986
 50
90.0
 51
159.9999999999558895
  0
ARC
  5
D4E0
  8
0
 10
4754.8449951775392037
 20
181.3980842566193132
 30
0.0
 40
0.5019685042722033
 50
90.0000000297028038
 51
159.9999999761791969
  0
LINE
  5
D4E1
  8
0
 10
4754.3732990782373236
 20
181.5697675964752875
 30
0.0
 11
4754.3059703509634346
 21
181.3847834387073874
 31
0.0
  0
LINE
  5
D4E2
  8
0
 10
4754.5767758268793841
 20
181.4957081166915032
 30
0.0
 11
4754.3045777874531268
 21
180.7478501499489028
 31
0.0
  0
LINE
  5
D4E3
  8
0
 10
4754.8449951772781787
 20
181.9000527607915103
 30
0.0
 11
4755.2977510827786318
 21
181.9000527607915103
 31
0.0
  0
LINE
  5
D4E4
  8
0
 10
4755.3174361221790605
 20
181.8803677214914956
 30
0.0
 11
4755.3174361221790605
 21
181.7032023671914942
 31
0.0
  0
LINE
  5
D4E5
  8
0
 10
4755.2977510827786318
 20
181.6835173277914919
 30
0.0
 11
4754.8449951772781787
 21
181.6835173277914919
 31
0.0
  0
ARC
  5
D4E6
  8
0
 10
4750.2320698131652534
 20
188.4713659737971057
 30
0.0
 40
0.0236220473943787
 50
90.0000002074507393
 51
185.0001995833719093
  0
LINE
  5
D4E7
  8
0
 10
4750.2085376619643284
 20
188.4693070947396905
 30
0.0
 11
4750.220852199179717
 21
188.3285512902915002
 31
0.0
  0
ARC
  5
D4E8
  8
0
 10
4750.2443843397550154
 20
188.3306100473708113
 30
0.0
 40
0.0236220261792169
 50
184.9999070942027117
 51
270.0000468702139074
  0
LINE
  5
D4E9
  8
0
 10
4750.2443843590790493
 20
188.3069880211915006
 30
0.0
 11
4752.8419036768800652
 21
188.3069880211915006
 31
0.0
  0
LINE
  5
D4EA
  8
0
 10
4754.2867855635786327
 20
188.4949880211914888
 30
0.0
 11
4750.2320698131670724
 21
188.4949880211914888
 31
0.0
  0
LINE
  5
D4EB
  8
0
 10
4754.3104076137797165
 20
188.4713659739915101
 30
0.0
 11
4754.3104076137797165
 21
188.1898699109914901
 31
0.0
  0
LINE
  5
D4EC
  8
0
 10
4752.8911162752792734
 20
188.1800273912915031
 30
0.0
 11
4754.3005650941786371
 21
188.1800273912915031
 31
0.0
  0
LINE
  5
D4ED
  8
0
 10
4752.8812737555790591
 20
188.2676179424915119
 30
0.0
 11
4752.8812737555790591
 21
188.1898699109914901
 31
0.0
  0
LINE
  5
D4EE
  8
0
 10
4752.8812781142787571
 20
174.9879014069915115
 30
0.0
 11
4752.8812737555790591
 21
185.7004996989915071
 31
0.0
  0
LINE
  5
D4EF
  8
0
 10
4752.8812744715751251
 20
186.8144767215551099
 30
0.0
 11
4752.8812737555790591
 21
188.0981376274916101
 31
0.0
  0
LINE
  5
D4F0
  8
0
 10
4752.8911162765798508
 20
188.1079801471915971
 30
0.0
 11
4754.3005650941786371
 21
188.1079801471915971
 31
0.0
  0
ARC
  5
D4F1
  8
0
 10
4752.8911162752792734
 20
188.0981376274916101
 30
0.0
 40
0.0098425196999995
 50
89.9999924323992815
 51
180.0000000000065086
  0
ARC
  5
D4F2
  8
0
 10
4753.6110139122956753
 20
186.9114175860491116
 30
0.0
 40
1.372992432836827
 50
112.4857979856095938
 51
118.2442712267704934
  0
ARC
  5
D4F3
  8
0
 10
4752.9706053383633844
 20
188.1036079201946052
 30
0.0
 40
0.0196850393999943
 50
118.3078363950686054
 51
168.7836105428166036
  0
ARC
  5
D4F4
  8
0
 10
4754.1831331239827705
 20
188.1341870784515038
 30
0.0
 40
0.0098425197387337
 50
63.7053119459957529
 51
110.852655849393301
  0
ARC
  5
D4F5
  8
0
 10
4754.1831331239791325
 20
188.1341870784916068
 30
0.0
 40
0.0098425197000064
 50
110.8526559133530043
 51
157.9999999985903116
  0
ARC
  5
D4F6
  8
0
 10
4754.2198564326790802
 20
188.1041571044916054
 30
0.0
 40
0.0196850394000014
 50
11.2059961172069897
 51
61.6921636055229712
  0
LINE
  5
D4F7
  8
0
 10
4754.1874932428718239
 20
188.1430111680973027
 30
0.0
 11
4754.229191248209645
 21
188.1214880593173007
 31
0.0
  0
LINE
  5
D4F8
  8
0
 10
4754.1740072986249288
 20
188.1378741512673116
 30
0.0
 11
4754.1715048676796869
 21
188.1316170798916119
 31
0.0
  0
ARC
  5
D4F9
  8
0
 10
4754.1691299066569627
 20
188.1760807131649926
 30
0.0
 40
0.0445270156615529
 50
265.4628571810981725
 51
273.0574662071463194
  0
ARC
  5
D4FA
  8
0
 10
4754.1819067136775629
 20
188.3135457384589984
 30
0.0
 40
0.1825814756799839
 50
258.7918778256502037
 51
264.878361521502427
  0
ARC
  5
D4FB
  8
0
 10
4754.2378774345997954
 20
188.5937756012565103
 30
0.0
 40
0.4683461064121298
 50
254.5093097438036125
 51
258.7387847891798742
  0
ARC
  5
D4FC
  8
0
 10
4754.422229493760824
 20
189.2489908735144013
 30
0.0
 40
1.1490000951410591
 50
248.4882486662262977
 51
254.3767071046150079
  0
ARC
  5
D4FD
  8
0
 10
4752.8419036768800652
 20
188.2676179424915119
 30
0.0
 40
0.0393700786999984
 50
0.0
 51
90.0
  0
ARC
  5
D4FE
  8
0
 10
4752.8911162752792734
 20
188.1898699109914901
 30
0.0
 40
0.0098425196999994
 50
179.9999999999934914
 51
270.0
  0
ARC
  5
D4FF
  8
0
 10
4754.2867855665790557
 20
188.4713659739915101
 30
0.0
 40
0.0236220472000019
 50
0.0000000000032569
 51
90.0000072765652135
  0
ARC
  5
D500
  8
0
 10
4754.300565094275953
 20
188.1898699107946129
 30
0.0
 40
0.0098425195030689
 50
269.9999994357506807
 51
0.0000011463854912
  0
ARC
  5
D501
  8
0
 10
4754.3005650942495777
 20
188.0981376276623109
 30
0.0
 40
0.0098425195292871
 50
359.9999990062356119
 51
90.0000004116185437
  0
ARC
  5
D502
  8
0
 10
4752.7233544283517404
 20
186.815113465008892
 30
0.0
 40
0.1579213269126801
 50
270.1589237723393921
 51
359.7689810990034971
  0
ARC
  5
D503
  8
0
 10
4752.7237950017015464
 20
185.7005013933141981
 30
0.0
 40
0.1574787538869347
 50
359.9993835515251135
 51
90.0006326388201217
  0
ARC
  5
D504
  8
0
 10
4747.3419076267537093
 20
184.5272714857914877
 30
0.0
 40
0.0196850394000006
 50
180.0
 51
270.0
  0
ARC
  5
D505
  8
0
 10
4748.1017501465321402
 20
184.5272714857914877
 30
0.0
 40
0.0196850393999997
 50
270.0
 51
0.0000000000032569
  0
LINE
  5
D506
  8
0
 10
4747.3222225874542346
 20
185.0075927459351135
 30
0.0
 11
4747.3222225873541902
 21
184.5272714857956089
 31
0.0
  0
LINE
  5
D507
  8
0
 10
4747.3419076274531108
 20
184.5075864463915991
 30
0.0
 11
4748.1017501465321402
 21
184.5075864463915138
 31
0.0
  0
LINE
  5
D508
  8
0
 10
4748.1214351859307499
 20
184.5272714857914877
 30
0.0
 11
4748.1214351858534428
 21
185.0075801470543126
 31
0.0
  0
LINE
  5
D509
  8
0
 10
4748.9718225874548807
 20
186.6571927455914874
 30
0.0
 11
4752.7237924609789843
 21
186.6571927455914874
 31
0.0
  0
ARC
  5
D50A
  8
0
 10
4748.9718225874548807
 20
185.007592745591495
 30
0.0
 40
1.6495999999999991
 50
90.0
 51
179.9999999880650989
  0
LINE
  5
D50B
  8
0
 10
4752.7237932628786439
 20
185.8579801471915118
 30
0.0
 11
4748.9718351858527967
 21
185.8579801471915118
 31
0.0
  0
ARC
  5
D50C
  8
0
 10
4748.9718351858527967
 20
185.0075801471915042
 30
0.0
 40
0.8504
 50
90.0
 51
180.0000000092445873
  0
ARC
  5
D50D
  8
0
 10
4751.8337292102942229
 20
186.20145513337431
 30
0.0
 40
1.2136609014975981
 50
2.6508516322760669
 51
30.3303771566679004
  0
ARC
  5
D50E
  8
0
 10
4751.8516492188218763
 20
186.3106663892689028
 30
0.0
 40
1.1956210040457109
 50
329.4457373575461929
 51
357.4555008572233987
  0
ENDSEC
  0
EOF
