  0
SECTION
  2
HEADER
  9
$ACADVER
  1
AC1009
  9
$INSBASE
 10
3376.8123252959640013
 20
179.6519690502929905
 30
0.0
  9
$EXTMIN
 10
3375.4032225589958216
 20
179.6519690502929905
 30
0.0
  9
$EXTMAX
 10
3378.2214280329308167
 20
187.9884673712751919
 30
0.0
  9
$LIMMIN
 10
0.0
 20
0.0
  9
$LIMMAX
 10
11.6929133858000007
 20
8.2677165353999982
  9
$ORTHOMODE
 70
     0
  9
$REGENMODE
 70
     1
  9
$FILLMODE
 70
     1
  9
$QTEXTMODE
 70
     0
  9
$MIRRTEXT
 70
     0
  9
$DRAGMODE
 70
     2
  9
$LTSCALE
 40
0.6431102362
  9
$OSMODE
 70
  4095
  9
$ATTMODE
 70
     1
  9
$TEXTSIZE
 40
0.2
  9
$TRACEWID
 40
0.05
  9
$TEXTSTYLE
  7
STANDARD
  9
$CLAYER
  8
0
  9
$CELTYPE
  6
BYLAYER
  9
$CECOLOR
 62
   256
  9
$DIMSCALE
 40
1.0
  9
$DIMASZ
 40
0.1875
  9
$DIMEXO
 40
0.0625
  9
$DIMDLI
 40
0.4443307087
  9
$DIMRND
 40
0.0
  9
$DIMDLE
 40
0.0
  9
$DIMEXE
 40
0.125
  9
$DIMTP
 40
0.01
  9
$DIMTM
 40
0.01
  9
$DIMTXT
 40
2.0
  9
$DIMCEN
 40
0.1052362205
  9
$DIMTSZ
 40
0.0
  9
$DIMTOL
 70
     1
  9
$DIMLIM
 70
     0
  9
$DIMTIH
 70
     1
  9
$DIMTOH
 70
     1
  9
$DIMSE1
 70
     0
  9
$DIMSE2
 70
     0
  9
$DIMTAD
 70
     0
  9
$DIMZIN
 70
     0
  9
$DIMBLK
  1

  9
$DIMASO
 70
     1
  9
$DIMSHO
 70
     1
  9
$DIMPOST
  1
\X
  9
$DIMAPOST
  1

  9
$DIMALT
 70
     1
  9
$DIMALTD
 70
     2
  9
$DIMALTF
 40
25.3999999999999986
  9
$DIMLFAC
 40
1.0
  9
$DIMTOFL
 70
     0
  9
$DIMTVP
 40
0.0
  9
$DIMTIX
 70
     0
  9
$DIMSOXD
 70
     0
  9
$DIMSAH
 70
     0
  9
$DIMBLK1
  1

  9
$DIMBLK2
  1

  9
$DIMSTYLE
  2
STANDARD
  9
$DIMCLRD
 70
     0
  9
$DIMCLRE
 70
     0
  9
$DIMCLRT
 70
     0
  9
$DIMTFAC
 40
1.0
  9
$DIMGAP
 40
0.09
  9
$LUNITS
 70
     2
  9
$LUPREC
 70
     4
  9
$SKETCHINC
 40
0.1
  9
$FILLETRAD
 40
0.0
  9
$AUNITS
 70
     0
  9
$AUPREC
 70
     0
  9
$MENU
  1
.
  9
$ELEVATION
 40
0.0
  9
$PELEVATION
 40
0.0
  9
$THICKNESS
 40
0.0
  9
$LIMCHECK
 70
     0
  9
$BLIPMODE
 70
     0
  9
$CHAMFERA
 40
0.0
  9
$CHAMFERB
 40
0.0
  9
$SKPOLY
 70
     0
  9
$TDCREATE
 40
2458060.468368056230247
  9
$TDUPDATE
 40
2460248.8422916671261191
  9
$TDINDWG
 40
1.0043357638999999
  9
$TDUSRTIMER
 40
1.0043357638999999
  9
$USRTIMER
 70
     1
  9
$ANGBASE
 50
0.0
  9
$ANGDIR
 70
     0
  9
$PDMODE
 70
     0
  9
$PDSIZE
 40
0.3125
  9
$PLINEWID
 40
0.0
  9
$COORDS
 70
     1
  9
$SPLFRAME
 70
     0
  9
$SPLINETYPE
 70
     6
  9
$SPLINESEGS
 70
     8
  9
$ATTDIA
 70
     1
  9
$ATTREQ
 70
     1
  9
$HANDLING
 70
     1
  9
$HANDSEED
  5
2B7DA
  9
$SURFTAB1
 70
     6
  9
$SURFTAB2
 70
     6
  9
$SURFTYPE
 70
     6
  9
$SURFU
 70
     6
  9
$SURFV
 70
     6
  9
$UCSNAME
  2

  9
$UCSORG
 10
0.0
 20
0.0
 30
0.0
  9
$UCSXDIR
 10
1.0
 20
0.0
 30
0.0
  9
$UCSYDIR
 10
0.0
 20
1.0
 30
0.0
  9
$PUCSNAME
  2

  9
$PUCSORG
 10
0.0
 20
0.0
 30
0.0
  9
$PUCSXDIR
 10
1.0
 20
0.0
 30
0.0
  9
$PUCSYDIR
 10
0.0
 20
1.0
 30
0.0
  9
$USERI1
 70
     0
  9
$USERI2
 70
     0
  9
$USERI3
 70
     0
  9
$USERI4
 70
     0
  9
$USERI5
 70
     0
  9
$USERR1
 40
0.0
  9
$USERR2
 40
0.0
  9
$USERR3
 40
0.0
  9
$USERR4
 40
0.0
  9
$USERR5
 40
0.0
  9
$WORLDVIEW
 70
     1
  9
$SHADEDGE
 70
     3
  9
$SHADEDIF
 70
    70
  9
$TILEMODE
 70
     1
  9
$MAXACTVP
 70
    64
  9
$PLIMCHECK
 70
     0
  9
$PEXTMIN
 10
1.0000000000000000E+20
 20
1.0000000000000000E+20
 30
1.0000000000000000E+20
  9
$PEXTMAX
 10
-1.0000000000000000E+20
 20
-1.0000000000000000E+20
 30
-1.0000000000000000E+20
  9
$PLIMMIN
 10
0.0
 20
0.0
  9
$PLIMMAX
 10
12.0
 20
9.0
  9
$UNITMODE
 70
     0
  9
$VISRETAIN
 70
     1
  9
$PLINEGEN
 70
     0
  9
$PSLTSCALE
 70
     1
  0
ENDSEC
  0
SECTION
  2
TABLES
  0
TABLE
  2
VPORT
 70
     1
  0
VPORT
  2
*ACTIVE
 70
     0
 10
0.0
 20
0.0
 11
1.0
 21
1.0
 12
113.423287210025606
 22
32.098515635100533
 13
0.0
 23
0.0
 14
1.0
 24
1.0
 15
0.0
 25
0.0
 16
0.0
 26
0.0
 36
92.3385285193394054
 17
3263.3890380859379547
 27
151.7217025756835938
 37
0.0
 40
8.3932735649390047
 41
2.1579545454545448
 42
50.0
 43
0.0
 44
0.0
 50
0.0
 51
0.0
 71
     0
 72
   100
 73
     1
 74
     1
 75
     0
 76
     0
 77
     0
 78
     0
  0
ENDTAB
  0
TABLE
  2
LTYPE
 70
     2
  0
LTYPE
  2
CONTINUOUS
 70
     0
  3
Solid line
 72
    65
 73
     0
 40
0.0
  0
LTYPE
  2
PHANTOM2
 70
     0
  3
___ _ _ ___ _ _ ___ _ _ ___ _ _
 72
    65
 73
     6
 40
1.25
 49
0.625
 49
-0.125
 49
0.125
 49
-0.125
 49
0.125
 49
-0.125
  0
ENDTAB
  0
TABLE
  2
LAYER
 70
     2
  0
LAYER
  2
0
 70
     0
 62
   255
  6
CONTINUOUS
  0
LAYER
  2
DEFPOINTS
 70
     0
 62
     7
  6
CONTINUOUS
  0
ENDTAB
  0
TABLE
  2
STYLE
 70
     1
  0
STYLE
  2
STANDARD
 70
     0
 40
0.0
 41
0.8
 50
0.0
 71
     0
 42
0.2
  3
txt
  4

  0
ENDTAB
  0
TABLE
  2
VIEW
 70
     0
  0
ENDTAB
  0
TABLE
  2
UCS
 70
     0
  0
ENDTAB
  0
TABLE
  2
APPID
 70
    10
  0
APPID
  2
ACAD
 70
     0
  0
APPID
  2
ACAD_MLEADERVER
 70
     0
  0
APPID
  2
ACAD_EXEMPT_FROM_CAD_STANDARDS
 70
     0
  0
APPID
  2
ACAD_NAV_VCDISPLAY
 70
     0
  0
APPID
  2
ACAECLAYERSTANDARD
 70
     0
  0
APPID
  2
ACCMTRANSPARENCY
 70
     0
  0
APPID
  2
ACAD_DSTYLE_DIMJAG
 70
     0
  0
APPID
  2
ACAD_DSTYLE_DIMTALN
 70
     0
  0
APPID
  2
ACDBATTR
 70
     0
  0
APPID
  2
ACADANNOTATIVE
 70
     0
  0
ENDTAB
  0
TABLE
  2
DIMSTYLE
 70
     1
  0
DIMSTYLE
  2
STANDARD
 70
     0
  3

  4

  5

  6

  7

 40
1.0
 41
0.1875
 42
0.0625
 43
0.38
 44
0.125
 45
0.0
 46
0.0
 47
0.01
 48
0.01
140
0.15625
141
0.09
142
0.0
143
25.3999999999999986
144
1.0
145
0.0
146
1.0
147
0.09
 71
     1
 72
     0
 73
     1
 74
     1
 75
     0
 76
     0
 77
     0
 78
     4
170
     0
171
     2
172
     0
173
     0
174
     0
175
     0
176
     0
177
     0
178
     0
  0
ENDTAB
  0
ENDSEC
  0
SECTION
  2
BLOCKS
  0
BLOCK
  8
0
  2
$MODEL_SPACE
 70
     0
 10
0.0
 20
0.0
 30
0.0
  3
$MODEL_SPACE
  1

  0
ENDBLK
  5
21
  8
0
  0
BLOCK
 67
     1
  8
0
  2
$PAPER_SPACE
 70
     0
 10
0.0
 20
0.0
 30
0.0
  3
$PAPER_SPACE
  1

  0
ENDBLK
  5
1D
 67
     1
  8
0
  0
ENDSEC
  0
SECTION
  2
ENTITIES
  0
ATTDEF
  5
2143C
  8
DEFPOINTS
 10
3376.809340664973206
 20
179.6556654479601889
 30
0.0
 40
0.001
  1
P26619-00
  3

  2
MODELNUMBER
 70
     0
1001
ACDBATTR
1070
     0
1070
     1
  0
ATTDEF
  5
2143D
  8
DEFPOINTS
 10
3376.809340664973206
 20
179.6539987812934953
 30
0.0
 40
0.001
  1
SCRIPT
  3

  2
TRADENAME
 70
     0
1001
ACDBATTR
1070
     0
1070
     1
  0
ATTDEF
  5
2143E
  8
DEFPOINTS
 10
3376.809340664973206
 20
179.6523321146268017
 30
0.0
 40
0.001
  1
BATHROOM SINK FAUCET
  3

  2
PRODUCT
 70
     0
1001
ACDBATTR
1070
     0
1070
     1
  0
LINE
  5
2B659
  8
0
 10
3375.5282181202128413
 20
179.6519690502929905
 30
0.0
 11
3378.0964324717078853
 21
179.6519690502929905
 31
0.0
  0
LINE
  5
2B65A
  8
0
 10
3375.7109981890130257
 20
180.021969050292995
 30
0.0
 11
3377.9136524029131579
 21
180.021969050292995
 31
0.0
  0
ARC
  5
2B65B
  8
0
 10
3375.5282181202178435
 20
179.6719690503063021
 30
0.0
 40
0.0200000000133743
 50
188.9964438927391939
 51
269.9999999858521278
  0
ARC
  5
2B65C
  8
0
 10
3375.4393252961008329
 20
179.6578954656590099
 30
0.0
 40
0.0699999997889015
 50
8.9964438927375632
 51
74.0829752256511966
  0
ARC
  5
2B65D
  8
0
 10
3375.4688320873137855
 20
179.7900061114330015
 30
0.0
 40
0.0656095283177546
 50
113.0357464624006951
 51
260.9592804120267147
  0
LINE
  5
2B65E
  8
0
 10
3375.443158727914124
 20
179.8503839949929954
 30
0.0
 11
3375.6887073553230039
 21
180.0151822815930132
 31
0.0
  0
ARC
  5
2B65F
  8
0
 10
3375.7632484884420592
 20
180.0383947419215929
 30
0.0
 40
0.0426800055652699
 50
183.5537342254951056
 51
202.6348523576710079
  0
ARC
  5
2B660
  8
0
 10
3375.7590540505429999
 20
180.0350283485313128
 30
0.0
 40
0.0384102640194411
 50
140.812059565070399
 51
178.9246001563332129
  0
ARC
  5
2B661
  8
0
 10
3375.4176327218510778
 20
180.5154062312464021
 30
0.0
 40
0.5524131034925107
 50
304.3441087554787146
 51
339.9830476310623908
  0
ARC
  5
2B662
  8
0
 10
3370.4229573382831404
 20
181.0885764481654974
 30
0.0
 40
5.5895902868734044
 50
354.6095961860166881
 51
0.4353059053488361
  0
ARC
  5
2B663
  8
0
 10
3375.7109981890130257
 20
179.9819690502928893
 30
0.0
 40
0.04
 50
90.0
 51
123.867267603267706
  0
ARC
  5
2B664
  8
0
 10
3378.0964324717078853
 20
179.6719690503063021
 30
0.0
 40
0.0200000000133743
 50
270.0000000141478722
 51
351.0035561072609198
  0
ARC
  5
2B665
  8
0
 10
3378.1853252958258054
 20
179.6578954656590099
 30
0.0
 40
0.0699999997889015
 50
105.9170247743488034
 51
171.0035561072623977
  0
ARC
  5
2B666
  8
0
 10
3378.1558185046128528
 20
179.7900061114330015
 30
0.0
 40
0.0656095283177546
 50
279.0407195879731717
 51
66.9642535375993049
  0
LINE
  5
2B667
  8
0
 10
3378.181491864012969
 20
179.8503839949929954
 30
0.0
 11
3377.9359432366040892
 21
180.0151822815930132
 31
0.0
  0
ARC
  5
2B668
  8
0
 10
3377.9136524029131579
 20
179.9819690502928893
 30
0.0
 40
0.04
 50
56.1327323967323011
 51
90.0
  0
LINE
  5
2B669
  8
0
 10
3375.443158727914124
 20
179.8503839949929954
 30
0.0
 11
3378.1814918640138785
 21
179.8503839949929954
 31
0.0
  0
LINE
  5
2B66A
  8
0
 10
3375.4585224444231244
 20
179.7252116558867101
 30
0.0
 11
3378.1661281475039686
 21
179.7252116558867101
 31
0.0
  0
ARC
  5
2B66B
  8
0
 10
3374.9662449489160281
 20
180.6597249388051978
 30
0.0
 40
1.026107427795971
 50
341.0389250954063982
 51
354.6180518640621244
  0
ARC
  5
2B66C
  8
0
 10
-221206.0056776457058731
 20
5549.0033462757073721
 30
0.0
 40
224646.1593055613921024
 50
358.6307991931537913
 51
358.6314430159840185
  0
ARC
  5
2B66D
  8
0
 10
5070.8582630426371907
 20
143.1655803148333064
 30
0.0
 40
1695.2691532708290651
 50
178.596012827394901
 51
178.6314430159839901
  0
ARC
  5
2B66E
  8
0
 10
3397.426193454110944
 20
184.6027759702685103
 30
0.0
 40
21.3283758586383705
 50
177.7985296578451937
 51
179.7317398626462079
  0
ARC
  5
2B66F
  8
0
 10
3368.9645639847540224
 20
185.2071690965300945
 30
0.0
 40
7.1522247631905342
 50
1.721829673642655
 51
2.8998631785389128
  0
ARC
  5
2B670
  8
0
 10
3376.8378370793489012
 20
184.7442830983681006
 30
0.0
 40
2.165047884436571
 50
100.7560585255590979
 51
109.5922096311735032
  0
ARC
  5
2B671
  8
0
 10
3376.7910881481961951
 20
185.0164912938620034
 30
0.0
 40
1.888903837487935
 50
95.7016177137446959
 51
100.903902847262998
  0
ARC
  5
2B672
  8
0
 10
3376.8402919458931137
 20
184.2847111323546869
 30
0.0
 40
2.6220594783446098
 50
90.6111232045855957
 51
95.1828485144390299
  0
ARC
  5
2B673
  8
0
 10
3376.1336678250859222
 20
186.723327454655589
 30
0.0
 40
0.0644600436827421
 50
109.7877852914915024
 51
158.0910701292540068
  0
ARC
  5
2B674
  8
0
 10
3376.3218526452801598
 20
186.6585801496248962
 30
0.0
 40
0.2634086195811648
 50
160.2986973303889044
 51
176.4635056308825938
  0
ARC
  5
2B675
  8
0
 10
3383.180893569143791
 20
186.0119961060485139
 30
0.0
 40
7.1527259817215256
 50
174.682858720092014
 51
177.9778114569400032
  0
ARC
  5
2B676
  8
0
 10
3395.6147271617601291
 20
185.3714025229461981
 30
0.0
 40
19.6024556932222289
 50
177.3889914413053077
 51
179.2842428287580105
  0
ARC
  5
2B677
  8
0
 10
3376.8261304015632049
 20
186.9211284671808073
 30
0.0
 40
1.0674281789114339
 50
90.7410300328598254
 51
115.6915856187796976
  0
ARC
  5
2B678
  8
0
 10
3376.4003084414430305
 20
187.8081818015149054
 30
0.0
 40
0.0834672931164338
 50
116.2653608133395977
 51
178.6281334660874904
  0
ARC
  5
2B679
  8
0
 10
3378.5888835107180057
 20
187.7557694456320974
 30
0.0
 40
2.2726698622949151
 50
178.6281334660874904
 51
181.3589476765345125
  0
ARC
  5
2B67A
  8
0
 10
3377.1124921511091088
 20
187.7207456632409048
 30
0.0
 40
0.7958631342293824
 50
181.3589476765345125
 51
191.1729357370911089
  0
ARC
  5
2B67B
  8
0
 10
4316.6494263637168842
 20
294.1964463587003138
 30
0.0
 40
946.3441977920048203
 50
186.4695762452651877
 51
186.4929478428549032
  0
ARC
  5
2B67C
  8
0
 10
3375.0654176950511101
 20
187.0009111291174975
 30
0.0
 40
1.3224613598971049
 50
0.3975285195666274
 51
7.9129866164305236
  0
ARC
  5
2B67D
  8
0
 10
3375.5765336468848545
 20
187.0252822098557886
 30
0.0
 40
0.8114558705521554
 50
348.1261321147662215
 51
358.9269914658714811
  0
ARC
  5
2B67E
  8
0
 10
3376.8269175648920282
 20
189.2028932859400072
 30
0.0
 40
1.636427765880478
 50
253.6543157801413031
 51
269.4894177615527724
  0
ARC
  5
2B67F
  8
0
 10
3376.3869903817972045
 20
187.6994236669650036
 30
0.0
 40
0.0699238832650582
 50
185.4121275936307995
 51
252.8525263915605024
  0
ARC
  5
2B680
  8
0
 10
3377.8652332671399563
 20
180.0375036047346953
 30
0.0
 40
0.0388064489365019
 50
336.4025293238805716
 51
357.4088833040640907
  0
ARC
  5
2B681
  8
0
 10
3377.8330346855159405
 20
180.0330302866098862
 30
0.0
 40
0.0710174220853884
 50
2.194145613359237
 51
13.6246939879967908
  0
ARC
  5
2B682
  8
0
 10
3377.8830429520958205
 20
180.0435472734434086
 30
0.0
 40
0.0199998700161712
 50
18.0953579272082905
 51
51.9586482860805106
  0
ARC
  5
2B683
  8
0
 10
3378.2070178700760152
 20
180.5154062312464021
 30
0.0
 40
0.5524131034925107
 50
200.0169523689376092
 51
235.6558912445213139
  0
ARC
  5
2B684
  8
0
 10
3383.2016932536439526
 20
181.0885764481654974
 30
0.0
 40
5.5895902868734044
 50
179.5646940946510881
 51
185.3904038139831982
  0
ARC
  5
2B685
  8
0
 10
3378.658405643011065
 20
180.6597249388051978
 30
0.0
 40
1.026107427795971
 50
185.3819481359377903
 51
198.9610749045934881
  0
ARC
  5
2B686
  8
0
 10
227959.6303282376902644
 20
5549.0033462757073721
 30
0.0
 40
224646.1593055613921024
 50
181.3685569840160099
 51
181.369200806846095
  0
ARC
  5
2B687
  8
0
 10
1682.7663875492889929
 20
143.1655803148333064
 30
0.0
 40
1695.2691532708290651
 50
1.3685569840160059
 51
1.403987172605065
  0
ARC
  5
2B688
  8
0
 10
3393.3234782630888731
 20
185.0898029043299005
 30
0.0
 40
15.8016228898154001
 50
178.794419234348311
 51
181.4039871726050137
  0
ARC
  5
2B689
  8
0
 10
3381.2606003848768523
 20
185.3436596502841098
 30
0.0
 40
3.7360741682639689
 50
176.5116698091304954
 51
178.794419234348311
  0
ARC
  5
2B68A
  8
0
 10
3376.7868969515661774
 20
186.8716359034735888
 30
0.0
 40
1.117120910273697
 50
64.8716860070651649
 51
88.6956983412753743
  0
ARC
  5
2B68B
  8
0
 10
3377.2243421504831531
 20
187.8081818015149054
 30
0.0
 40
0.0834672931164338
 50
1.3718665339124541
 51
63.7346391866604165
  0
ARC
  5
2B68C
  8
0
 10
3375.0357670812090873
 20
187.7557694456320974
 30
0.0
 40
2.2726698622949151
 50
358.6410523234638958
 51
1.3718665339124541
  0
ARC
  5
2B68D
  8
0
 10
3376.5121584408170747
 20
187.7207456632409048
 30
0.0
 40
0.7958631342293824
 50
348.8270642629088911
 51
358.6410523234638958
  0
ARC
  5
2B68E
  8
0
 10
2436.9752242282088446
 20
294.1964463587003138
 30
0.0
 40
946.3441977920048203
 50
353.5070521571450968
 51
353.5304237547347839
  0
ARC
  5
2B68F
  8
0
 10
3378.559232896875983
 20
187.0009111291174975
 30
0.0
 40
1.3224613598971049
 50
172.0870133835695128
 51
179.6024714804333939
  0
ARC
  5
2B690
  8
0
 10
3378.0481169450408743
 20
187.0252822098557886
 30
0.0
 40
0.8114558705521554
 50
181.0730085341284905
 51
191.8738678852338069
  0
ARC
  5
2B691
  8
0
 10
3376.788942567407048
 20
189.2622137106851881
 30
0.0
 40
1.695844559897306
 50
270.7903611737099823
 51
286.0666277470662067
  0
ARC
  5
2B692
  8
0
 10
3377.2376602101298886
 20
187.6994236669650036
 30
0.0
 40
0.0699238832650582
 50
287.1474736084394976
 51
354.587872406369172
  0
LINE
  5
2B693
  8
0
 10
3377.2693792910968114
 20
185.6631689247930126
 30
0.0
 11
3376.3552713008289174
 21
185.6631689247930126
 31
0.0
  0
ARC
  5
2B694
  8
0
 10
3376.3755330065569069
 20
185.2657268583002121
 30
0.0
 40
0.3979582050128508
 50
92.9184280085388963
 51
103.7513523344197068
  0
ARC
  5
2B695
  8
0
 10
3376.3146195649710535
 20
185.5190340113333889
 30
0.0
 40
0.1374360493141067
 50
104.1873811997477048
 51
112.9062369291418975
  0
ARC
  5
2B696
  8
0
 10
3376.2880364665447814
 20
185.5810905566401914
 30
0.0
 40
0.0699271010902817
 50
112.6334485886795989
 51
122.7260540287576021
  0
ARC
  5
2B697
  8
0
 10
3376.2687667913460245
 20
185.6110761588402056
 30
0.0
 40
0.0342836343454238
 50
122.7260540287576021
 51
137.177169320901811
  0
ARC
  5
2B698
  8
0
 10
3376.2538902833171051
 20
185.6248629713342098
 30
0.0
 40
0.0140009646530363
 50
137.177169320901811
 51
176.0181214169749921
  0
ARC
  5
2B699
  8
0
 10
3376.2642809847961871
 20
185.6217023017127872
 30
0.0
 40
0.0251887732274328
 50
194.7574329413430974
 51
250.2320877956944116
  0
ARC
  5
2B69A
  8
0
 10
3376.3779399926738733
 20
185.9379579504526134
 30
0.0
 40
0.3612482998467714
 50
250.2320877956944116
 51
260.2900810632239086
  0
ARC
  5
2B69B
  8
0
 10
3376.3781249045350705
 20
186.054623708661012
 30
0.0
 40
0.4766727289333553
 50
262.6339724802035107
 51
270.1357683960977738
  0
LINE
  5
2B69C
  8
0
 10
3377.2453961621431517
 20
185.5779523179928958
 30
0.0
 11
3376.379254429842149
 21
185.5779523179930095
 31
0.0
  0
LINE
  5
2B69D
  8
0
 10
3376.4779594212159282
 20
185.6367518213930055
 30
0.0
 11
3377.1466911707138934
 21
185.6367518213930055
 31
0.0
  0
LINE
  5
2B69E
  8
0
 10
3376.3707880764668516
 20
185.6175366944929124
 30
0.0
 11
3377.2538625154597867
 21
185.6175366944929124
 31
0.0
  0
ARC
  5
2B69F
  8
0
 10
3376.417019728923151
 20
189.1667442203313101
 30
0.0
 40
3.5458043454818089
 50
269.3897482908017764
 51
270.3440190109860737
  0
ARC
  5
2B6A0
  8
0
 10
3376.381366543808781
 20
185.8194372705791864
 30
0.0
 40
0.1983075246517061
 50
250.2172196535969988
 51
269.3897482908017764
  0
ARC
  5
2B6A1
  8
0
 10
3376.3512267157148017
 20
185.7356416682955
 30
0.0
 40
0.109256347232925
 50
229.7824578582527977
 51
250.2172196535969988
  0
ARC
  5
2B6A2
  8
0
 10
3376.4772231611618736
 20
185.6052609313821904
 30
0.0
 40
0.0314994957505105
 50
88.66066314225003
 51
114.741172660872806
  0
LINE
  5
2B6A3
  8
0
 10
3376.4383095479129224
 20
185.6210037898929954
 30
0.0
 11
3376.4640399979180074
 21
185.633869014845402
 31
0.0
  0
ARC
  5
2B6A4
  8
0
 10
3376.2709802445438072
 20
185.6449361436430081
 30
0.0
 40
0.0098668584775286
 50
176.092779202097887
 51
197.2376648805503976
  0
ARC
  5
2B6A5
  8
0
 10
3376.2709536049610506
 20
185.6449278781203134
 30
0.0
 40
0.0098389660728641
 50
197.2376648805534955
 51
247.0180919043054928
  0
ARC
  5
2B6A6
  8
0
 10
3376.2989282295288831
 20
185.6862824787885131
 30
0.0
 40
0.0596129263744635
 50
237.7433719241817869
 51
252.4881699332065921
  0
ARC
  5
2B6A7
  8
0
 10
3376.3440948656871115
 20
185.8316109307143051
 30
0.0
 40
0.2117978885446215
 50
252.6657250069418126
 51
262.5779995265554021
  0
ARC
  5
2B6A8
  8
0
 10
3376.3726478329890597
 20
186.0261690442542033
 30
0.0
 40
0.4084266827290466
 50
262.1316909893021716
 51
266.7286521927887861
  0
ARC
  5
2B6A9
  8
0
 10
3376.4081124638350957
 20
186.8007955642378874
 30
0.0
 40
1.1838473984101201
 50
267.1544150834545235
 51
268.1932770052818
  0
LINE
  5
2B6AA
  8
0
 10
3376.2399231161130047
 20
185.6152860309929906
 30
0.0
 11
3376.2399231161130047
 21
185.6258352117918946
 31
0.0
  0
ARC
  5
2B6AB
  8
0
 10
3377.2491175853701861
 20
185.2657268583002121
 30
0.0
 40
0.3979582050128508
 50
76.2486476655802932
 51
87.0815719914611179
  0
ARC
  5
2B6AC
  8
0
 10
3377.3100310269560396
 20
185.5190340113333889
 30
0.0
 40
0.1374360493141067
 50
67.0937630708581167
 51
75.8126188002522525
  0
ARC
  5
2B6AD
  8
0
 10
3377.3366141253818569
 20
185.5810905566401914
 30
0.0
 40
0.0699271010902817
 50
57.2739459712424193
 51
67.3665514113204154
  0
ARC
  5
2B6AE
  8
0
 10
3377.3558838005810685
 20
185.6110761588402056
 30
0.0
 40
0.0342836343454238
 50
42.8228306790981179
 51
57.2739459712424193
  0
ARC
  5
2B6AF
  8
0
 10
3377.370760308609988
 20
185.6248629713342098
 30
0.0
 40
0.0140009646530363
 50
3.9818785830249408
 51
42.8228306790981179
  0
ARC
  5
2B6B0
  8
0
 10
3377.3603696071309059
 20
185.6217023017127872
 30
0.0
 40
0.0251887732274328
 50
289.7679122043056168
 51
345.2425670586569026
  0
ARC
  5
2B6B1
  8
0
 10
3377.2467105992532197
 20
185.9379579504526134
 30
0.0
 40
0.3612482998467714
 50
279.7099189367759777
 51
289.7679122043056168
  0
ARC
  5
2B6B2
  8
0
 10
3377.2465256873920225
 20
186.054623708661012
 30
0.0
 40
0.4766727289333553
 50
269.8642316039022262
 51
277.3660275197964893
  0
ARC
  5
2B6B3
  8
0
 10
3377.2076308630030326
 20
189.1667442203313101
 30
0.0
 40
3.5458043454818089
 50
269.6559809890139263
 51
270.6102517091982236
  0
ARC
  5
2B6B4
  8
0
 10
3377.2432840481169478
 20
185.8194372705791864
 30
0.0
 40
0.1983075246517061
 50
270.6102517091982236
 51
289.7827803464024896
  0
ARC
  5
2B6B5
  8
0
 10
3377.2734238762132009
 20
185.7356416682955
 30
0.0
 40
0.109256347232925
 50
289.7827803464031149
 51
310.2175421417471171
  0
ARC
  5
2B6B6
  8
0
 10
3377.1474274307652195
 20
185.6052609313821904
 30
0.0
 40
0.0314994957505105
 50
65.2588273391271514
 51
91.3393368577499558
  0
LINE
  5
2B6B7
  8
0
 10
3377.1863410440128064
 20
185.6210037898929954
 30
0.0
 11
3377.1606105940081761
 21
185.633869014845402
 31
0.0
  0
ARC
  5
2B6B8
  8
0
 10
3377.3536703473828311
 20
185.6449361436430081
 30
0.0
 40
0.0098668584775286
 50
342.762335119449574
 51
3.9072207979020939
  0
ARC
  5
2B6B9
  8
0
 10
3377.3536969869660425
 20
185.6449278781203134
 30
0.0
 40
0.0098389660728641
 50
292.9819080956946209
 51
342.7623351194465045
  0
ARC
  5
2B6BA
  8
0
 10
3377.3257223623968457
 20
185.6862824787885131
 30
0.0
 40
0.0596129263744635
 50
287.5118300667933795
 51
302.2566280758181279
  0
ARC
  5
2B6BB
  8
0
 10
3377.2805557262390721
 20
185.8316109307143051
 30
0.0
 40
0.2117978885446215
 50
277.4220004734444842
 51
287.3342749930582158
  0
ARC
  5
2B6BC
  8
0
 10
3377.2520027589380334
 20
186.0261690442542033
 30
0.0
 40
0.4084266827290466
 50
273.2713478072112139
 51
277.8683090106978284
  0
ARC
  5
2B6BD
  8
0
 10
3377.2165381280919974
 20
186.8007955642378874
 30
0.0
 40
1.1838473984101201
 50
271.8067229947182
 51
272.8455849165455902
  0
LINE
  5
2B6BE
  8
0
 10
3377.3847274758131789
 20
185.6152860309929906
 30
0.0
 11
3377.3847274758131789
 21
185.6258352117918946
 31
0.0
  0
ARC
  5
2B6C0
  8
0
 10
3376.8742640106947874
 20
192.1708903797467087
 30
0.0
 40
6.6468471640247619
 50
263.722504543591981
 51
269.466080952790719
  0
ARC
  5
2B6C1
  8
0
 10
3376.5243271591698431
 20
188.6622949728289029
 30
0.0
 40
3.121231278989832
 50
261.3797741016588247
 51
263.0652277535327244
  0
ARC
  5
2B6C2
  8
0
 10
3376.0570479799162058
 20
185.6197015684419966
 30
0.0
 40
0.0433824045811054
 50
184.5285303833975092
 51
269.2806991878392182
  0
ARC
  5
2B6C3
  8
0
 10
3376.9433152361179964
 20
174.0100341197974956
 30
0.0
 40
11.7360509819681909
 50
90.6395103920590941
 51
94.3508898464594949
  0
ARC
  5
2B6C4
  8
0
 10
3376.0593718356872159
 20
185.6311754754910055
 30
0.0
 40
0.0813433561651316
 50
94.517969037060908
 51
123.0453326185514982
  0
ARC
  5
2B6C5
  8
0
 10
3376.7868135125768276
 20
184.7442830983681006
 30
0.0
 40
2.165047884436571
 50
70.4077903688264541
 51
79.2439414744408595
  0
ARC
  5
2B6C6
  8
0
 10
3376.8335624437308979
 20
185.0164912938620034
 30
0.0
 40
1.888903837487935
 50
79.0960971527370305
 51
84.2983822862553183
  0
ARC
  5
2B6C7
  8
0
 10
3376.7843586460339793
 20
184.2847111323546869
 30
0.0
 40
2.6220594783446098
 50
84.8171514855609843
 51
89.3888767954143901
  0
ARC
  5
2B6C8
  8
0
 10
3377.4909827668398066
 20
186.723327454655589
 30
0.0
 40
0.0644600436827421
 50
21.9089298707460394
 51
70.2122147085085118
  0
ARC
  5
2B6C9
  8
0
 10
3377.3027979466460238
 20
186.6585801496248962
 30
0.0
 40
0.2634086195811648
 50
3.536494369117348
 51
19.70130266961106
  0
ARC
  5
2B6CA
  8
0
 10
3370.4437570227819378
 20
186.0119961060485139
 30
0.0
 40
7.1527259817215256
 50
2.022188543060027
 51
5.3171412799080189
  0
ARC
  5
2B6CB
  8
0
 10
3358.009923430166964
 20
185.3714025229461981
 30
0.0
 40
19.6024556932222289
 50
0.7157571712420024
 51
2.6110085586963421
  0
ARC
  5
2B6CC
  8
0
 10
3376.7503865812309414
 20
192.1708903797467087
 30
0.0
 40
6.6468471640247619
 50
270.533919047209281
 51
276.277495456408019
  0
ARC
  5
2B6CD
  8
0
 10
3377.1003234327558857
 20
188.6622949728289029
 30
0.0
 40
3.121231278989832
 50
276.9347722464672188
 51
278.6202258983411753
  0
ARC
  5
2B6CE
  8
0
 10
3377.5676026120099777
 20
185.6197015684419966
 30
0.0
 40
0.0433824045811054
 50
270.7193008121607818
 51
355.4714696166024055
  0
ARC
  5
2B6CF
  8
0
 10
3376.6813353558081872
 20
174.0100341197974956
 30
0.0
 40
11.7360509819681909
 50
85.6491101535405193
 51
89.3604896079408917
  0
ARC
  5
2B6D0
  8
0
 10
3377.5652787562398771
 20
185.6311754754910055
 30
0.0
 40
0.0813433561651316
 50
56.9546673814484805
 51
85.4820309629391062
  0
ENDSEC
  0
EOF
