  0
SECTION
  2
HEADER
  9
$ACADVER
  1
AC1009
  9
$INSBASE
 10
3428.2275663075961347
 20
173.4991857988092079
 30
0.0
  9
$EXTMIN
 10
3421.8090843796489935
 20
173.4975412714582035
 30
-0.0000000349181948
  9
$EXTMAX
 10
3429.6593069206119253
 20
181.8494409758446864
 30
0.0000000814935746
  9
$LIMMIN
 10
0.0
 20
0.0
  9
$LIMMAX
 10
11.6929133858000007
 20
8.2677165353999982
  9
$ORTHOMODE
 70
     0
  9
$REGENMODE
 70
     1
  9
$FILLMODE
 70
     1
  9
$QTEXTMODE
 70
     0
  9
$MIRRTEXT
 70
     0
  9
$DRAGMODE
 70
     2
  9
$LTSCALE
 40
0.6431102362
  9
$OSMODE
 70
  4095
  9
$ATTMODE
 70
     1
  9
$TEXTSIZE
 40
0.2
  9
$TRACEWID
 40
0.05
  9
$TEXTSTYLE
  7
STANDARD
  9
$CLAYER
  8
0
  9
$CELTYPE
  6
BYLAYER
  9
$CECOLOR
 62
   256
  9
$DIMSCALE
 40
1.0
  9
$DIMASZ
 40
0.1875
  9
$DIMEXO
 40
0.0625
  9
$DIMDLI
 40
0.4443307087
  9
$DIMRND
 40
0.0
  9
$DIMDLE
 40
0.0
  9
$DIMEXE
 40
0.125
  9
$DIMTP
 40
0.01
  9
$DIMTM
 40
0.01
  9
$DIMTXT
 40
2.0
  9
$DIMCEN
 40
0.1052362205
  9
$DIMTSZ
 40
0.0
  9
$DIMTOL
 70
     1
  9
$DIMLIM
 70
     0
  9
$DIMTIH
 70
     1
  9
$DIMTOH
 70
     1
  9
$DIMSE1
 70
     0
  9
$DIMSE2
 70
     0
  9
$DIMTAD
 70
     0
  9
$DIMZIN
 70
     0
  9
$DIMBLK
  1

  9
$DIMASO
 70
     1
  9
$DIMSHO
 70
     1
  9
$DIMPOST
  1
\X
  9
$DIMAPOST
  1

  9
$DIMALT
 70
     1
  9
$DIMALTD
 70
     2
  9
$DIMALTF
 40
25.3999999999999986
  9
$DIMLFAC
 40
1.0
  9
$DIMTOFL
 70
     0
  9
$DIMTVP
 40
0.0
  9
$DIMTIX
 70
     0
  9
$DIMSOXD
 70
     0
  9
$DIMSAH
 70
     0
  9
$DIMBLK1
  1

  9
$DIMBLK2
  1

  9
$DIMSTYLE
  2
STANDARD
  9
$DIMCLRD
 70
     0
  9
$DIMCLRE
 70
     0
  9
$DIMCLRT
 70
     0
  9
$DIMTFAC
 40
1.0
  9
$DIMGAP
 40
0.09
  9
$LUNITS
 70
     2
  9
$LUPREC
 70
     4
  9
$SKETCHINC
 40
0.1
  9
$FILLETRAD
 40
0.0
  9
$AUNITS
 70
     0
  9
$AUPREC
 70
     0
  9
$MENU
  1
.
  9
$ELEVATION
 40
0.0
  9
$PELEVATION
 40
0.0
  9
$THICKNESS
 40
0.0
  9
$LIMCHECK
 70
     0
  9
$BLIPMODE
 70
     0
  9
$CHAMFERA
 40
0.0
  9
$CHAMFERB
 40
0.0
  9
$SKPOLY
 70
     0
  9
$TDCREATE
 40
2458060.468368056230247
  9
$TDUPDATE
 40
2460248.8423611111938953
  9
$TDINDWG
 40
1.0013149306
  9
$TDUSRTIMER
 40
1.0013149306
  9
$USRTIMER
 70
     1
  9
$ANGBASE
 50
0.0
  9
$ANGDIR
 70
     0
  9
$PDMODE
 70
     0
  9
$PDSIZE
 40
0.3125
  9
$PLINEWID
 40
0.0
  9
$COORDS
 70
     1
  9
$SPLFRAME
 70
     0
  9
$SPLINETYPE
 70
     6
  9
$SPLINESEGS
 70
     8
  9
$ATTDIA
 70
     1
  9
$ATTREQ
 70
     1
  9
$HANDLING
 70
     1
  9
$HANDSEED
  5
2B997
  9
$SURFTAB1
 70
     6
  9
$SURFTAB2
 70
     6
  9
$SURFTYPE
 70
     6
  9
$SURFU
 70
     6
  9
$SURFV
 70
     6
  9
$UCSNAME
  2

  9
$UCSORG
 10
0.0
 20
0.0
 30
0.0
  9
$UCSXDIR
 10
1.0
 20
0.0
 30
0.0
  9
$UCSYDIR
 10
0.0
 20
1.0
 30
0.0
  9
$PUCSNAME
  2

  9
$PUCSORG
 10
0.0
 20
0.0
 30
0.0
  9
$PUCSXDIR
 10
1.0
 20
0.0
 30
0.0
  9
$PUCSYDIR
 10
0.0
 20
1.0
 30
0.0
  9
$USERI1
 70
     0
  9
$USERI2
 70
     0
  9
$USERI3
 70
     0
  9
$USERI4
 70
     0
  9
$USERI5
 70
     0
  9
$USERR1
 40
0.0
  9
$USERR2
 40
0.0
  9
$USERR3
 40
0.0
  9
$USERR4
 40
0.0
  9
$USERR5
 40
0.0
  9
$WORLDVIEW
 70
     1
  9
$SHADEDGE
 70
     3
  9
$SHADEDIF
 70
    70
  9
$TILEMODE
 70
     1
  9
$MAXACTVP
 70
    64
  9
$PLIMCHECK
 70
     0
  9
$PEXTMIN
 10
1.0000000000000000E+20
 20
1.0000000000000000E+20
 30
1.0000000000000000E+20
  9
$PEXTMAX
 10
-1.0000000000000000E+20
 20
-1.0000000000000000E+20
 30
-1.0000000000000000E+20
  9
$PLIMMIN
 10
0.0
 20
0.0
  9
$PLIMMAX
 10
12.0
 20
9.0
  9
$UNITMODE
 70
     0
  9
$VISRETAIN
 70
     1
  9
$PLINEGEN
 70
     0
  9
$PSLTSCALE
 70
     1
  0
ENDSEC
  0
SECTION
  2
TABLES
  0
TABLE
  2
VPORT
 70
     1
  0
VPORT
  2
*ACTIVE
 70
     0
 10
0.0
 20
0.0
 11
1.0
 21
1.0
 12
162.3451575641929026
 22
25.9517885479678512
 13
0.0
 23
0.0
 14
1.0
 24
1.0
 15
0.0
 25
0.0
 16
0.0
 26
0.0
 36
92.3385285193394054
 17
3263.3890380859379547
 27
151.7217025756835938
 37
0.0
 40
8.4087798385820776
 41
2.1579545454545448
 42
50.0
 43
0.0
 44
0.0
 50
0.0
 51
0.0
 71
     0
 72
   100
 73
     1
 74
     1
 75
     0
 76
     0
 77
     0
 78
     0
  0
ENDTAB
  0
TABLE
  2
LTYPE
 70
     2
  0
LTYPE
  2
CONTINUOUS
 70
     0
  3
Solid line
 72
    65
 73
     0
 40
0.0
  0
LTYPE
  2
PHANTOM2
 70
     0
  3
___ _ _ ___ _ _ ___ _ _ ___ _ _
 72
    65
 73
     6
 40
1.25
 49
0.625
 49
-0.125
 49
0.125
 49
-0.125
 49
0.125
 49
-0.125
  0
ENDTAB
  0
TABLE
  2
LAYER
 70
     2
  0
LAYER
  2
0
 70
     0
 62
   255
  6
CONTINUOUS
  0
LAYER
  2
DEFPOINTS
 70
     0
 62
     7
  6
CONTINUOUS
  0
ENDTAB
  0
TABLE
  2
STYLE
 70
     1
  0
STYLE
  2
STANDARD
 70
     0
 40
0.0
 41
0.8
 50
0.0
 71
     0
 42
0.2
  3
txt
  4

  0
ENDTAB
  0
TABLE
  2
VIEW
 70
     0
  0
ENDTAB
  0
TABLE
  2
UCS
 70
     0
  0
ENDTAB
  0
TABLE
  2
APPID
 70
    10
  0
APPID
  2
ACAD
 70
     0
  0
APPID
  2
ACAD_MLEADERVER
 70
     0
  0
APPID
  2
ACAD_EXEMPT_FROM_CAD_STANDARDS
 70
     0
  0
APPID
  2
ACAD_NAV_VCDISPLAY
 70
     0
  0
APPID
  2
ACAECLAYERSTANDARD
 70
     0
  0
APPID
  2
ACCMTRANSPARENCY
 70
     0
  0
APPID
  2
ACAD_DSTYLE_DIMJAG
 70
     0
  0
APPID
  2
ACAD_DSTYLE_DIMTALN
 70
     0
  0
APPID
  2
ACDBATTR
 70
     0
  0
APPID
  2
ACADANNOTATIVE
 70
     0
  0
ENDTAB
  0
TABLE
  2
DIMSTYLE
 70
     1
  0
DIMSTYLE
  2
STANDARD
 70
     0
  3

  4

  5

  6

  7

 40
1.0
 41
0.1875
 42
0.0625
 43
0.38
 44
0.125
 45
0.0
 46
0.0
 47
0.01
 48
0.01
140
0.15625
141
0.09
142
0.0
143
25.3999999999999986
144
1.0
145
0.0
146
1.0
147
0.09
 71
     1
 72
     0
 73
     1
 74
     1
 75
     0
 76
     0
 77
     0
 78
     4
170
     0
171
     2
172
     0
173
     0
174
     0
175
     0
176
     0
177
     0
178
     0
  0
ENDTAB
  0
ENDSEC
  0
SECTION
  2
BLOCKS
  0
BLOCK
  8
0
  2
$MODEL_SPACE
 70
     0
 10
0.0
 20
0.0
 30
0.0
  3
$MODEL_SPACE
  1

  0
ENDBLK
  5
21
  8
0
  0
BLOCK
 67
     1
  8
0
  2
$PAPER_SPACE
 70
     0
 10
0.0
 20
0.0
 30
0.0
  3
$PAPER_SPACE
  1

  0
ENDBLK
  5
1D
 67
     1
  8
0
  0
ENDSEC
  0
SECTION
  2
ENTITIES
  0
ATTDEF
  5
2143C
  8
DEFPOINTS
 10
3428.2235613355219357
 20
173.5037874217404976
 30
0.0
 40
0.001
  1
P26619-00
  3

  2
MODELNUMBER
 70
     0
1001
ACDBATTR
1070
     0
1070
     1
  0
ATTDEF
  5
2143D
  8
DEFPOINTS
 10
3428.2235613355219357
 20
173.5021207550738893
 30
0.0
 40
0.001
  1
SCRIPT
  3

  2
TRADENAME
 70
     0
1001
ACDBATTR
1070
     0
1070
     1
  0
ATTDEF
  5
2143E
  8
DEFPOINTS
 10
3428.2235613355219357
 20
173.5004540884071957
 30
0.0
 40
0.001
  1
BATHROOM SINK FAUCET
  3

  2
PRODUCT
 70
     0
1001
ACDBATTR
1070
     0
1070
     1
  0
LINE
  5
2B7F4
  8
0
 10
3426.9434591318490675
 20
173.4991857988092079
 30
0.0
 11
3429.511673483343202
 21
173.4991857988092079
 31
0.0
  0
LINE
  5
2B7F5
  8
0
 10
3427.1262392006487971
 20
173.8691857988092124
 30
0.0
 11
3429.3288934145489293
 21
173.8691857988092124
 31
0.0
  0
LINE
  5
2B7F6
  8
0
 10
3427.5475663075490047
 20
179.557590767376098
 30
0.0
 11
3428.907566307549132
 21
179.557590767376098
 31
0.0
  0
LINE
  5
2B7F7
  8
0
 10
3427.5996435514489349
 20
179.4559259563091871
 30
0.0
 11
3428.8554890637487915
 21
179.4559259563091871
 31
0.0
  0
LINE
  5
2B7F8
  8
0
 10
3427.5896204834489254
 20
179.4479259563092057
 30
0.0
 11
3428.8655674921487844
 21
179.4479259563092057
 31
0.0
  0
LINE
  5
2B7F9
  8
0
 10
3425.6631157547808471
 20
181.491878921498909
 30
0.0
 11
3425.780288481496882
 21
181.7971221654767078
 31
0.0
  0
LINE
  5
2B7FA
  8
0
 10
3425.6989959156840087
 20
181.4137472441479133
 30
0.0
 11
3427.4025559838901245
 21
180.803810153674192
 31
0.0
  0
LINE
  5
2B7FB
  8
0
 10
3425.85923255521584
 20
181.8311766535638014
 30
0.0
 11
3427.4747731755960558
 21
181.1675553479385883
 31
0.0
  0
ARC
  5
2B7FC
  8
0
 10
3426.9434591318540697
 20
173.5191857988224911
 30
0.0
 40
0.0200000000133743
 50
188.9964438927391939
 51
269.9999999858521278
  0
ARC
  5
2B7FD
  8
0
 10
3426.8545663077361496
 20
173.5051122141753126
 30
0.0
 40
0.0699999997889015
 50
8.9964438927375632
 51
74.0829752256511966
  0
ARC
  5
2B7FE
  8
0
 10
3426.8840730989491021
 20
173.6372228599491905
 30
0.0
 40
0.0656095283177546
 50
113.0357464624006951
 51
260.9592804120267147
  0
LINE
  5
2B7FF
  8
0
 10
3426.858399739548986
 20
173.6976007435092129
 30
0.0
 11
3427.1039483669578658
 21
173.8623990301092022
 31
0.0
  0
ARC
  5
2B800
  8
0
 10
3427.1752608270489873
 20
173.8847476464092097
 30
0.0
 40
0.0393700786999892
 50
161.9046420727916882
 51
203.2828723060254958
  0
ARC
  5
2B801
  8
0
 10
3427.1568486514661345
 20
173.8907640219595976
 30
0.0
 40
0.0199998700161712
 50
128.0413517139195108
 51
161.9046420727916882
  0
ARC
  5
2B802
  8
0
 10
3426.6706801036411889
 20
174.5121065332656087
 30
0.0
 40
0.7689401614500418
 50
308.0413517139205055
 51
332.9134776784018186
  0
ARC
  5
2B803
  8
0
 10
3425.5625748608958929
 20
174.9067266373297116
 30
0.0
 40
1.941249172868992
 50
337.440503949672916
 51
2.0588763083399959
  0
ARC
  5
2B804
  8
0
 10
122301.719822628700058
 20
-500.3220901611002205
 30
0.0
 40
118876.1353483965067426
 50
179.673653316222186
 51
179.6745186464191022
  0
ARC
  5
2B805
  8
0
 10
3423.7443139573338158
 20
176.7763935749775044
 30
0.0
 40
3.7684721638847289
 50
359.9303039612378825
 51
12.9046663972248208
  0
ARC
  5
2B806
  8
0
 10
3425.1550426939429599
 20
177.0642670032625006
 30
0.0
 40
2.329338395991897
 50
13.7521958993911593
 51
33.4997305799337681
  0
ARC
  5
2B807
  8
0
 10
3425.4806736771188298
 20
177.2917512324808058
 30
0.0
 40
1.932268144344814
 50
33.2040992377869699
 51
54.8190002103521792
  0
ARC
  5
2B808
  8
0
 10
3420.1418745916389526
 20
169.026262873557414
 30
0.0
 40
11.7707119240121205
 50
56.7599201882387305
 51
63.0793638712721716
  0
ARC
  5
2B809
  8
0
 10
3422.0940707849658793
 20
173.0507135834403982
 30
0.0
 40
7.2989589000976727
 50
62.4399939436007685
 51
71.0336551465552333
  0
LINE
  5
2B80A
  8
0
 10
3422.0037632484090864
 20
179.5472187499217966
 30
0.0
 11
3422.6549233392679525
 21
179.3727411519747932
 31
0.0
  0
ARC
  5
2B80B
  8
0
 10
3423.6747328717560777
 20
179.0003512017163985
 30
0.0
 40
1.795435022214134
 50
122.148075369158704
 51
160.7404850609989069
  0
ARC
  5
2B80C
  8
0
 10
3422.0128219042071578
 20
179.581026156730502
 30
0.0
 40
0.035
 50
160.7404850610004132
 51
255.0000182698377102
  0
ARC
  5
2B80D
  8
0
 10
3423.564413969178986
 20
179.0781663963838923
 30
0.0
 40
1.6716579990474829
 50
94.1433442573968051
 51
120.3655602440388037
  0
ARC
  5
2B80E
  8
0
 10
3423.6556722690088463
 20
178.0679493924961889
 30
0.0
 40
2.6858888175943041
 50
79.6578320614616331
 51
94.5279572836310393
  0
ARC
  5
2B80F
  8
0
 10
3423.4230788581789966
 20
176.6671631381626071
 30
0.0
 40
4.1057359274921854
 50
72.4940803304241825
 51
79.9741031609520832
  0
ARC
  5
2B810
  8
0
 10
3421.2688668318191958
 20
170.6844245622500864
 30
0.0
 40
10.4624888390763804
 50
64.3424357928825117
 51
71.098536609411255
  0
ARC
  5
2B811
  8
0
 10
3410.410369706885831
 20
152.1930488336801091
 30
0.0
 40
31.8820114583079999
 50
59.8077069783109323
 51
61.1397086035953592
  0
ARC
  5
2B812
  8
0
 10
3428.4385866212560359
 20
183.1782130059480096
 30
0.0
 40
3.96623820459725
 50
239.8077069783109039
 51
247.7492676508830129
  0
ARC
  5
2B813
  8
0
 10
3428.8728208157431254
 20
184.2395840475483908
 30
0.0
 40
5.1130022708330554
 50
247.7492676508830129
 51
249.3237322987745017
  0
ARC
  5
2B814
  8
0
 10
3427.7737704008209221
 20
182.3526710526921875
 30
0.0
 40
2.9816226720415768
 50
256.2975473416848899
 51
265.7248216872554281
  0
ARC
  5
2B815
  8
0
 10
3427.5146850617547898
 20
179.4304027939705009
 30
0.0
 40
0.0629466951269752
 50
305.7932654333675941
 51
358.9111217191256742
  0
ARC
  5
2B816
  8
0
 10
3427.7876435514490367
 20
179.4675049817091974
 30
0.0
 40
0.1980000000000324
 50
152.9364352455069138
 51
179.9999999999984084
  0
ARC
  5
2B817
  8
0
 10
3425.7192238877742057
 20
181.470340875813605
 30
0.0
 40
0.0601
 50
158.9998652901988123
 51
250.3318463374419025
  0
ARC
  5
2B818
  8
0
 10
3425.8363966144911501
 20
181.775584119791489
 30
0.0
 40
0.0601
 50
67.6684397259887049
 51
158.9998652901988123
  0
ARC
  5
2B819
  8
0
 10
3427.5234407405728234
 20
180.2200492785694905
 30
0.0
 40
0.4745209774348028
 50
279.3338339735873888
 51
347.5934271036409768
  0
ARC
  5
2B81A
  8
0
 10
3427.5213674304332017
 20
180.2205023453120134
 30
0.0
 40
0.4766432110916886
 50
347.5937827552604062
 51
25.9502786332919015
  0
ARC
  5
2B81B
  8
0
 10
3427.5267576403011844
 20
180.2231255384099029
 30
0.0
 40
0.4706485881303418
 50
25.9502786332919015
 51
53.1152598394282407
  0
ARC
  5
2B81C
  8
0
 10
3427.2151147579302233
 20
179.8078258714967887
 30
0.0
 40
0.989874068505658
 50
53.1152598394282407
 51
63.8428900151055529
  0
ARC
  5
2B81D
  8
0
 10
3426.6347596890809655
 20
178.6836360043539003
 30
0.0
 40
2.2549167553965308
 50
63.1990332887370272
 51
70.0927376086431053
  0
LINE
  5
2B81E
  8
0
 10
3428.9225663075490047
 20
179.5725907673761128
 30
0.0
 11
3428.9225663075490047
 21
179.8078810833592058
 31
0.0
  0
ARC
  5
2B81F
  8
0
 10
3428.907566307549132
 20
179.5725907673761128
 30
0.0
 40
0.015
 50
269.9999999999478746
 51
0.0000000000097707
  0
LINE
  5
2B820
  8
0
 10
3427.532566307549132
 20
179.5725907673761128
 30
0.0
 11
3427.532566307549132
 21
179.6703765849539138
 31
0.0
  0
ARC
  5
2B821
  8
0
 10
3427.5475663075490047
 20
179.5725907673761128
 30
0.0
 40
0.015
 50
180.0000000000065086
 51
270.0
  0
ARC
  5
2B822
  8
0
 10
3427.6137742436872031
 20
179.6717006305894131
 30
0.0
 40
0.081218729297841
 50
99.4768466222687664
 51
180.9340898099731021
  0
ARC
  5
2B823
  8
0
 10
3427.1935693536370309
 20
179.7601908533677886
 30
0.0
 40
1.7296545391127289
 50
1.579965923964213
 51
5.0906417102996864
  0
ARC
  5
2B824
  8
0
 10
3424.0167476984520363
 20
178.7133793076004054
 30
0.0
 40
5.0445226833143293
 50
13.7648954100653995
 51
16.6705268188792814
  0
ARC
  5
2B825
  8
0
 10
3427.874939541448839
 20
179.6933076198920105
 30
0.0
 40
1.080527928358934
 50
25.6177560142876217
 51
45.0079448634927886
  0
ARC
  5
2B826
  8
0
 10
3426.9946701809972183
 20
178.8237170532489984
 30
0.0
 40
2.3178775549933341
 50
44.8170484776174405
 51
58.3740225166010802
  0
ARC
  5
2B827
  8
0
 10
3426.1186406246611114
 20
177.4700035358530101
 30
0.0
 40
3.93008110562441
 50
57.848008709563878
 51
63.9250949481428066
  0
ARC
  5
2B828
  8
0
 10
3424.8645690542748525
 20
174.884905876128812
 30
0.0
 40
6.803296990473747
 50
64.0079351119212987
 51
67.4389565046353994
  0
LINE
  5
2B829
  8
0
 10
3427.5896435514491714
 20
179.4675049817091974
 30
0.0
 11
3427.5896435514491714
 21
179.4659259563092064
 31
0.0
  0
ARC
  5
2B82A
  8
0
 10
3427.5996435514489349
 20
179.4659259563092064
 30
0.0
 40
0.01
 50
180.0000000000146088
 51
269.9999999999739089
  0
LINE
  5
2B82B
  8
0
 10
3427.5776204834492091
 20
179.4292065948091874
 30
0.0
 11
3427.5776204834492091
 21
179.4359259563092053
 31
0.0
  0
ARC
  5
2B82C
  8
0
 10
3427.5896204834489254
 20
179.4359259563092053
 30
0.0
 40
0.012
 50
90.0
 51
179.9999999999951115
  0
ARC
  5
2B82D
  8
0
 10
3428.6674890636491
 20
179.4675049817091974
 30
0.0
 40
0.1980000000000324
 50
0.0000000000016284
 51
27.0635647544930613
  0
LINE
  5
2B82E
  8
0
 10
3428.8654890636498749
 20
179.4675049817091974
 30
0.0
 11
3428.8654890636498749
 21
179.4659259563092064
 31
0.0
  0
ARC
  5
2B82F
  8
0
 10
3428.8554890636492019
 20
179.4659259563092064
 30
0.0
 40
0.01
 50
270.0000000000259774
 51
359.9999999999852776
  0
LINE
  5
2B830
  8
0
 10
3428.8775674921489554
 20
179.4137848592091871
 30
0.0
 11
3428.8775121316489276
 21
179.4359259563092053
 31
0.0
  0
ARC
  5
2B831
  8
0
 10
3428.8655121316492114
 20
179.4359259563092053
 30
0.0
 40
0.012
 50
0.0000000000048853
 51
90.0
  0
LINE
  5
2B832
  8
0
 10
3428.9427468306489573
 20
176.7018010303092126
 30
0.0
 11
3428.9278209646490723
 21
179.3244403392091897
 31
0.0
  0
ARC
  5
2B833
  8
0
 10
3428.9226986531580224
 20
176.7017340227108093
 30
0.0
 40
0.020048289471986
 50
270.1395562481224033
 51
0.1915006132789112
  0
LINE
  5
2B834
  8
0
 10
3428.9227474854142201
 20
176.6816857927101125
 30
0.0
 11
3428.9148161619541497
 21
176.6816857988092124
 31
0.0
  0
ARC
  5
2B835
  8
0
 10
3429.1354711550980028
 20
176.5820666689834866
 30
0.0
 40
0.2421003862582283
 50
155.702247486140493
 51
177.5547257983058103
  0
ARC
  5
2B836
  8
0
 10
3430.4399865629789019
 20
176.5263586216308056
 30
0.0
 40
1.5478047310242311
 50
177.5547257983058103
 51
182.3295813993547085
  0
ARC
  5
2B837
  8
0
 10
-357421.4063032654230483
 20
-2530.1740250074190044
 30
0.0
 40
360860.4504879530286416
 50
0.429586193455954
 51
0.4297516049057175
  0
ARC
  5
2B838
  8
0
 10
10280.9571517549702548
 20
226.3749083920154987
 30
0.0
 40
6852.2453158217149394
 50
180.4260552795821013
 51
180.429582185685689
  0
ARC
  5
2B839
  8
0
 10
3429.3021192861460804
 20
175.0028156569468081
 30
0.0
 40
0.3976981446177276
 50
180.429582185685689
 51
183.6369356511740989
  0
ARC
  5
2B83A
  8
0
 10
3429.2794105835491791
 20
175.001372248799413
 30
0.0
 40
0.3749436153820146
 50
183.6369356511740989
 51
190.3162784814188058
  0
ARC
  5
2B83B
  8
0
 10
3429.1030418341938457
 20
174.965115365048689
 30
0.0
 40
0.1949758881708745
 50
189.1153754618707126
 51
205.334162129369588
  0
ARC
  5
2B83C
  8
0
 10
3432.4088799638370801
 20
174.8690784314287043
 30
0.0
 40
3.455589613015098
 50
180.1218690970833052
 51
184.4640396296607889
  0
ARC
  5
2B83D
  8
0
 10
3428.9332982129531047
 20
174.8616857988091908
 30
0.0
 40
0.02
 50
0.1218690970866017
 51
90.0
  0
ARC
  5
2B83E
  8
0
 10
3430.1824481958310571
 20
174.6952604055225038
 30
0.0
 40
1.222383146134107
 50
184.4640396296607889
 51
201.7232849535386094
  0
ARC
  5
2B83F
  8
0
 10
3429.7261145537381708
 20
174.5134483363989091
 30
0.0
 40
0.7311642322213086
 50
201.7232849535386094
 51
224.3085207779894859
  0
ARC
  5
2B840
  8
0
 10
3429.9771506314141334
 20
174.7584970795095956
 30
0.0
 40
1.0819747206562369
 50
224.3085207779894859
 51
231.9711301530091134
  0
ARC
  5
2B841
  8
0
 10
3429.2979242873821022
 20
173.8900293487587021
 30
0.0
 40
0.0205608233439693
 50
17.3566516167679517
 51
51.9711301530091276
  0
ARC
  5
2B842
  8
0
 10
3429.2808493757120232
 20
173.8846925795212996
 30
0.0
 40
0.0384503094860286
 50
336.2157329379165844
 51
17.3566516167679517
  0
ARC
  5
2B843
  8
0
 10
3427.1262392006487971
 20
173.829185798809192
 30
0.0
 40
0.04
 50
90.0
 51
123.867267603267706
  0
ARC
  5
2B844
  8
0
 10
3429.511673483343202
 20
173.5191857988224911
 30
0.0
 40
0.0200000000133743
 50
270.0000000141478722
 51
351.0035561072609198
  0
ARC
  5
2B845
  8
0
 10
3429.6005663074620315
 20
173.5051122141753126
 30
0.0
 40
0.0699999997889015
 50
105.9170247743488034
 51
171.0035561072623977
  0
ARC
  5
2B846
  8
0
 10
3429.571059516249079
 20
173.6372228599491905
 30
0.0
 40
0.0656095283177546
 50
279.0407195879731717
 51
66.9642535375993049
  0
LINE
  5
2B847
  8
0
 10
3429.5967328756491952
 20
173.6976007435092129
 30
0.0
 11
3429.3511842482398606
 21
173.8623990301092022
 31
0.0
  0
ARC
  5
2B848
  8
0
 10
3429.3288934145489293
 20
173.829185798809192
 30
0.0
 40
0.04
 50
56.1327323967323011
 51
90.0
  0
LINE
  5
2B849
  8
0
 10
3426.858399739548986
 20
173.6976007435092129
 30
0.0
 11
3429.5967328756491952
 21
173.6976007435092129
 31
0.0
  0
LINE
  5
2B84A
  8
0
 10
3426.8737634560579863
 20
173.5724284044030128
 30
0.0
 11
3429.5813691591388306
 21
173.5724284044030128
 31
0.0
  0
LINE
  5
2B84B
  8
0
 10
3429.6511096146491582
 20
175.3821197972092136
 30
0.0
 11
3429.6511096146491582
 21
175.0980683261091997
 31
0.0
  0
LINE
  5
2B84C
  8
0
 10
3429.6116096146488417
 20
175.4216197972091891
 30
0.0
 11
3428.9012828509507926
 21
175.4216197972091891
 31
0.0
  0
LINE
  5
2B84D
  8
0
 10
3429.6116096146488417
 20
175.0585683261091958
 30
0.0
 11
3428.9039921944809066
 21
175.0585683261091958
 31
0.0
  0
ARC
  5
2B84E
  8
0
 10
3429.6116096146488417
 20
175.3821197972092136
 30
0.0
 40
0.0395
 50
0.0000000000016284
 51
90.0
  0
ARC
  5
2B84F
  8
0
 10
3429.6116096146488417
 20
175.0980683261091997
 30
0.0
 40
0.0395
 50
270.0
 51
0.0
  0
LINE
  5
2B850
  8
0
 10
3428.9268172489478275
 20
174.8816857988092011
 30
0.0
 11
3428.9332982129531047
 21
174.8816857988092011
 31
0.0
  0
ARC
  5
2B851
  8
0
 10
3428.9377579910610621
 20
179.4141172724640967
 30
0.0
 40
0.0602607819424732
 50
180.3160013281766112
 51
238.5771502183075938
  0
ARC
  5
2B852
  8
0
 10
3428.882944873778797
 20
179.3243994475004115
 30
0.0
 40
0.0448761095011652
 50
0.0522086847097274
 51
58.5771502183075583
  0
ARC
  5
2B853
  8
0
 10
3428.4526623623492014
 20
179.4611070587091888
 30
0.0
 40
0.020000000000026
 50
318.7721493725084088
 51
344.9662100975812109
  0
ARC
  5
2B854
  8
0
 10
3428.0024702528489797
 20
179.4611070587091888
 30
0.0
 40
0.020000000000036
 50
195.0337894640275067
 51
221.271930285470404
  0
ARC
  5
2B855
  8
0
 10
-324253.8967767764115706
 20
-807371.2887454178417102
 30
0.0
 40
871502.0981247446034104
 50
67.9141249226406245
 51
67.9142234671418663
  0
ARC
  5
2B856
  8
0
 10
3422.0727344479601015
 20
168.3678943222047906
 30
0.0
 40
13.8090233075577995
 50
65.6673059194312714
 51
67.9141249226406245
  0
ARC
  5
2B857
  8
0
 10
3427.0394001377640052
 20
179.351125013667712
 30
0.0
 40
1.7550146591385289
 50
52.781518572637097
 51
65.6673059194312714
  0
ARC
  5
2B858
  8
0
 10
3427.3282320993198482
 20
179.6818916269581905
 30
0.0
 40
1.3172522437970859
 50
39.3060486666701507
 51
54.0839481427972402
  0
ARC
  5
2B859
  8
0
 10
3427.6422749548610227
 20
179.9194639287082111
 30
0.0
 40
0.9238846201704669
 50
6.1297631117539932
 51
40.2429858860770793
  0
ARC
  5
2B85A
  8
0
 10
3426.5312620561021504
 20
179.8151768079578972
 30
0.0
 40
2.039736005589774
 50
358.0448800092225952
 51
5.7099929136809164
  0
LINE
  5
2B85B
  8
0
 10
3428.5698106443351207
 20
179.7455878295639877
 30
0.0
 11
3428.5698106443351207
 21
179.5725873736091955
 31
0.0
  0
ARC
  5
2B85C
  8
0
 10
3428.555388408890849
 20
179.5708383286734886
 30
0.0
 40
0.0145273376071703
 50
294.2299584296661124
 51
6.91500348125171
  0
ARC
  5
2B85D
  8
0
 10
27200.7332843510484963
 20
65806.2868810400250368
 30
0.0
 40
69798.7368014877429232
 50
250.0852546323700949
 51
250.0864850513659974
  0
ARC
  5
2B85E
  8
0
 10
3424.7559501981190806
 20
174.2495125545486871
 30
0.0
 40
7.1471004615828271
 50
66.2277744648095421
 51
70.0864850513660116
  0
ARC
  5
2B85F
  8
0
 10
3427.2453649562989995
 20
179.9011898330828103
 30
0.0
 40
0.971451354084705
 50
39.7270019784773396
 51
66.2277744648095421
  0
ARC
  5
2B860
  8
0
 10
3427.1955378639308947
 20
179.8597829009787858
 30
0.0
 40
1.0362377196266881
 50
31.8220993738165703
 51
39.7270019784773396
  0
ARC
  5
2B861
  8
0
 10
3427.5661219745229573
 20
180.089752718166892
 30
0.0
 40
0.6000970314991326
 50
6.7757366045399543
 51
31.8220993738165703
  0
ARC
  5
2B862
  8
0
 10
3427.7987604838172047
 20
180.1173932682947054
 30
0.0
 40
0.3658222440852314
 50
334.1584506960239196
 51
6.7757366045399543
  0
ARC
  5
2B863
  8
0
 10
3427.8108206273300311
 20
180.111552373850401
 30
0.0
 40
0.3524221280609352
 50
300.5130402044662219
 51
334.1584506960239196
  0
ARC
  5
2B864
  8
0
 10
3427.7235810786141883
 20
180.2595786887796123
 30
0.0
 40
0.524243339707341
 50
290.1464197681547716
 51
300.5130402044662219
  0
ARC
  5
2B865
  8
0
 10
3427.3334873697672265
 20
187.9135376400170117
 30
0.0
 40
8.1660900402777692
 50
271.8730857168870898
 51
274.007147214166082
  0
LINE
  5
2B866
  8
0
 10
3425.7547796448020563
 20
181.5698980249891008
 30
0.0
 11
3425.7962009859488717
 21
181.6778043078091969
 31
0.0
  0
ARC
  5
2B867
  8
0
 10
3425.8563848533790406
 20
181.665697125788995
 30
0.0
 40
0.0645520406758828
 50
72.3668820064845733
 51
150.8510629135286933
  0
ARC
  5
2B868
  8
0
 10
3425.7532216461831922
 20
181.6963089039246029
 30
0.0
 40
0.0467936290894945
 50
336.7058836655107825
 51
1.0167350547970171
  0
ARC
  5
2B869
  8
0
 10
3425.708473152697934
 20
181.5860902463608113
 30
0.0
 40
0.0490558787906651
 50
317.5575060764064119
 51
340.7265458233356981
  0
ARC
  5
2B86A
  8
0
 10
3425.8071715165888236
 20
181.5384052331147018
 30
0.0
 40
0.0641754069634596
 50
166.8686307743712973
 51
245.9060895146917005
  0
ARC
  5
2B86B
  8
0
 10
3423.734921847635178
 20
178.9708676254668944
 30
0.0
 40
1.7298125380336651
 50
128.621524792304001
 51
160.106194562591412
  0
ARC
  5
2B86C
  8
0
 10
3423.5642705037330416
 20
179.0959272033117031
 30
0.0
 40
1.5265900504017269
 50
97.3460651849594143
 51
126.5467343984400941
  0
ARC
  5
2B86D
  8
0
 10
3423.6699220281329872
 20
178.6702718195803072
 30
0.0
 40
1.9629065574131761
 50
85.1776323964852793
 51
98.8161730453037563
  0
ARC
  5
2B86E
  8
0
 10
3423.5696952497328311
 20
177.0355384210567991
 30
0.0
 40
3.6004748046461721
 50
72.9639547798193462
 51
85.7752693712132981
  0
ARC
  5
2B86F
  8
0
 10
3422.0879588784778207
 20
172.5261531139321107
 30
0.0
 40
8.3466476674248611
 50
63.9686741187843211
 51
72.3077646647717245
  0
ARC
  5
2B870
  8
0
 10
3415.9492312005440908
 20
159.2459325094050087
 30
0.0
 40
22.9758248235937188
 50
63.2832892715230102
 51
64.7472714846512645
  0
ARC
  5
2B871
  8
0
 10
3428.3157580690608484
 20
183.6180688792888986
 30
0.0
 40
4.3549979576258444
 50
242.1114207488064949
 51
249.1822397355120131
  0
ARC
  5
2B872
  8
0
 10
3427.6403525818132039
 20
181.8673479780501054
 30
0.0
 40
2.4785517492932958
 50
249.3928686874315019
 51
256.6363793482644837
  0
ARC
  5
2B873
  8
0
 10
3423.6174655393378998
 20
179.131003553225213
 30
0.0
 40
1.143899608140724
 50
120.2840120281135938
 51
147.5298534862922963
  0
ARC
  5
2B874
  8
0
 10
3423.6352135148740672
 20
179.030370149308709
 30
0.0
 40
1.240256208467682
 50
87.6236685569814711
 51
118.6474060046918027
  0
ARC
  5
2B875
  8
0
 10
3423.5594697916008045
 20
177.4624136751415051
 30
0.0
 40
2.8100251085407781
 50
70.1304653456711975
 51
87.4061797701086647
  0
ARC
  5
2B876
  8
0
 10
3422.4877277537821101
 20
174.1962870252093865
 30
0.0
 40
6.2468143346549532
 50
60.7492063463858329
 51
71.0674218691022759
  0
ARC
  5
2B877
  8
0
 10
3398.36844138121387
 20
127.3891327609585034
 30
0.0
 40
58.8994048156840222
 50
61.4629098417635689
 51
62.5274471535355616
  0
ARC
  5
2B878
  8
0
 10
3424.5796533057059605
 20
175.8445622081430884
 30
0.0
 40
3.8110468097120771
 50
45.956987310872087
 51
59.6324404685671823
  0
ARC
  5
2B879
  8
0
 10
3425.7960347430321235
 20
177.1144966017351976
 30
0.0
 40
2.052586390395438
 50
24.4093515203475206
 51
45.7197434956901105
  0
ARC
  5
2B87A
  8
0
 10
3418.0843216649750502
 20
174.2594723241629993
 30
0.0
 40
10.2716348124492907
 50
18.2841945963417913
 51
21.1329244488407717
  0
ARC
  5
2B87B
  8
0
 10
3425.5407805860590997
 20
176.6931988814712895
 30
0.0
 40
2.4282696674550039
 50
5.1654618824948368
 51
18.9558779788204106
  0
ARC
  5
2B87C
  8
0
 10
-627772.9605541079072282
 20
-2871.2980665672512259
 30
0.0
 40
631208.2799422666430473
 50
0.2765162581122004
 51
0.2766919351962898
  0
ARC
  5
2B87D
  8
0
 10
3418.7973808430938334
 20
174.7853852444945915
 30
0.0
 40
9.1731415526509288
 50
357.7281861593045846
 51
1.193601257375456
  0
ARC
  5
2B87E
  8
0
 10
3421.7545953556041241
 20
174.8849462758780078
 30
0.0
 40
6.2259705985445359
 50
350.6102807696249215
 51
355.7334879420906759
  0
ARC
  5
2B87F
  8
0
 10
8073.7559223165062576
 20
156.3536820357942929
 30
0.0
 40
4645.2297908798682329
 50
179.7166639772106009
 51
179.7702993766887971
  0
ARC
  5
2B880
  8
0
 10
3440.4098424595399592
 20
174.7799931831245885
 30
0.0
 40
11.8480110563208108
 50
179.0496315630770994
 51
181.0310187458593987
  0
ARC
  5
2B881
  8
0
 10
3431.181601416311878
 20
174.5916317382564102
 30
0.0
 40
2.617969557467859
 50
180.5433859118384134
 51
196.0190285042284017
  0
ARC
  5
2B882
  8
0
 10
3428.5292340307501036
 20
179.3279281900265119
 30
0.0
 40
0.0537639863970977
 50
357.0548882653322948
 51
40.6430290981016071
  0
ARC
  5
2B883
  8
0
 10
3428.6998238750770724
 20
179.4259270720314134
 30
0.0
 40
0.1442676043208026
 50
171.2289405930561941
 51
205.8839621672601936
  0
ARC
  5
2B884
  8
0
 10
3422.139867268379021
 20
179.5461665438882051
 30
0.0
 40
0.0342285050071098
 50
157.1019835181105009
 51
253.1029244084809875
  0
ARC
  5
2B886
  8
0
 10
3424.0738638328539309
 20
178.8284003902334121
 30
0.0
 40
1.6914365186673139
 50
147.1817763486708088
 51
158.5253710404136029
  0
ARC
  5
2B887
  8
0
 10
3422.4655197101178601
 20
179.4611214370713981
 30
0.0
 40
0.0368883177710509
 50
264.8235195783959739
 51
338.5253710404151093
  0
ARC
  5
2B888
  8
0
 10
3423.6897258236249399
 20
177.8836452470723941
 30
0.0
 40
2.2106628827041801
 50
69.4333308653420858
 51
95.6012137632771868
  0
ARC
  5
2B889
  8
0
 10
3423.6023809005450858
 20
179.1911873116789877
 30
0.0
 40
0.9017573346350106
 50
98.1876679548900171
 51
135.2275048119271901
  0
ARC
  5
2B88A
  8
0
 10
3423.9773821426520044
 20
178.9049477518572075
 30
0.0
 40
1.3709243639645741
 50
137.7738587168063873
 51
159.0976372493377937
  0
ARC
  5
2B88B
  8
0
 10
3422.6639819950669335
 20
179.4065485587834132
 30
0.0
 40
0.035
 50
255.0000182698377102
 51
339.0976372493378221
  0
LINE
  5
2B88C
  8
0
 10
3425.8326118068312098
 20
181.7257121923408079
 30
0.0
 11
3425.8125914315619411
 21
181.8307685674708125
 31
0.0
  0
LINE
  5
2B88D
  8
0
 10
3425.7496821640202143
 20
181.5098840620285046
 30
0.0
 11
3425.664607589966181
 21
181.4452596076295094
 31
0.0
  0
ENDSEC
  0
EOF
