  0
SECTION
  2
HEADER
  9
$ACADVER
  1
AC1009
  9
$INSBASE
 10
2917.2564921986181616
 20
77.5937395020174705
 30
0.0
  9
$EXTMIN
 10
2911.0673583529019197
 20
77.5881348308787153
 30
-0.0000000349181948
  9
$EXTMAX
 10
2919.0846156310221886
 20
86.9701575767092976
 30
0.0000000814935746
  9
$LIMMIN
 10
0.0
 20
0.0
  9
$LIMMAX
 10
11.6929133858000007
 20
8.2677165353999982
  9
$ORTHOMODE
 70
     1
  9
$REGENMODE
 70
     1
  9
$FILLMODE
 70
     1
  9
$QTEXTMODE
 70
     0
  9
$MIRRTEXT
 70
     0
  9
$DRAGMODE
 70
     2
  9
$LTSCALE
 40
0.6431102362
  9
$OSMODE
 70
  4095
  9
$ATTMODE
 70
     1
  9
$TEXTSIZE
 40
0.2
  9
$TRACEWID
 40
0.05
  9
$TEXTSTYLE
  7
STANDARD
  9
$CLAYER
  8
0
  9
$CELTYPE
  6
BYLAYER
  9
$CECOLOR
 62
   256
  9
$DIMSCALE
 40
1.0
  9
$DIMASZ
 40
0.1875
  9
$DIMEXO
 40
0.0625
  9
$DIMDLI
 40
0.4443307087
  9
$DIMRND
 40
0.0
  9
$DIMDLE
 40
0.0
  9
$DIMEXE
 40
0.125
  9
$DIMTP
 40
0.01
  9
$DIMTM
 40
0.01
  9
$DIMTXT
 40
2.0
  9
$DIMCEN
 40
0.1052362205
  9
$DIMTSZ
 40
0.0
  9
$DIMTOL
 70
     1
  9
$DIMLIM
 70
     0
  9
$DIMTIH
 70
     1
  9
$DIMTOH
 70
     1
  9
$DIMSE1
 70
     0
  9
$DIMSE2
 70
     0
  9
$DIMTAD
 70
     0
  9
$DIMZIN
 70
     0
  9
$DIMBLK
  1

  9
$DIMASO
 70
     1
  9
$DIMSHO
 70
     1
  9
$DIMPOST
  1
\X
  9
$DIMAPOST
  1

  9
$DIMALT
 70
     1
  9
$DIMALTD
 70
     2
  9
$DIMALTF
 40
25.3999999999999986
  9
$DIMLFAC
 40
1.0
  9
$DIMTOFL
 70
     0
  9
$DIMTVP
 40
0.0
  9
$DIMTIX
 70
     0
  9
$DIMSOXD
 70
     0
  9
$DIMSAH
 70
     0
  9
$DIMBLK1
  1

  9
$DIMBLK2
  1

  9
$DIMSTYLE
  2
STANDARD
  9
$DIMCLRD
 70
     0
  9
$DIMCLRE
 70
     0
  9
$DIMCLRT
 70
     0
  9
$DIMTFAC
 40
1.0
  9
$DIMGAP
 40
0.09
  9
$LUNITS
 70
     2
  9
$LUPREC
 70
     4
  9
$SKETCHINC
 40
0.1
  9
$FILLETRAD
 40
0.0
  9
$AUNITS
 70
     0
  9
$AUPREC
 70
     0
  9
$MENU
  1
.
  9
$ELEVATION
 40
0.0
  9
$PELEVATION
 40
0.0
  9
$THICKNESS
 40
0.0
  9
$LIMCHECK
 70
     0
  9
$BLIPMODE
 70
     0
  9
$CHAMFERA
 40
0.0
  9
$CHAMFERB
 40
0.0
  9
$SKPOLY
 70
     0
  9
$TDCREATE
 40
2458060.468368056230247
  9
$TDUPDATE
 40
2459808.5030208327807486
  9
$TDINDWG
 40
0.4910255787
  9
$TDUSRTIMER
 40
0.4910255787
  9
$USRTIMER
 70
     1
  9
$ANGBASE
 50
0.0
  9
$ANGDIR
 70
     0
  9
$PDMODE
 70
     0
  9
$PDSIZE
 40
0.3125
  9
$PLINEWID
 40
0.0
  9
$COORDS
 70
     1
  9
$SPLFRAME
 70
     0
  9
$SPLINETYPE
 70
     6
  9
$SPLINESEGS
 70
     8
  9
$ATTDIA
 70
     1
  9
$ATTREQ
 70
     1
  9
$HANDLING
 70
     1
  9
$HANDSEED
  5
315B1
  9
$SURFTAB1
 70
     6
  9
$SURFTAB2
 70
     6
  9
$SURFTYPE
 70
     6
  9
$SURFU
 70
     6
  9
$SURFV
 70
     6
  9
$UCSNAME
  2

  9
$UCSORG
 10
0.0
 20
0.0
 30
0.0
  9
$UCSXDIR
 10
1.0
 20
0.0
 30
0.0
  9
$UCSYDIR
 10
0.0
 20
1.0
 30
0.0
  9
$PUCSNAME
  2

  9
$PUCSORG
 10
0.0
 20
0.0
 30
0.0
  9
$PUCSXDIR
 10
1.0
 20
0.0
 30
0.0
  9
$PUCSYDIR
 10
0.0
 20
1.0
 30
0.0
  9
$USERI1
 70
     0
  9
$USERI2
 70
     0
  9
$USERI3
 70
     0
  9
$USERI4
 70
     0
  9
$USERI5
 70
     0
  9
$USERR1
 40
0.0
  9
$USERR2
 40
0.0
  9
$USERR3
 40
0.0
  9
$USERR4
 40
0.0
  9
$USERR5
 40
0.0
  9
$WORLDVIEW
 70
     1
  9
$SHADEDGE
 70
     3
  9
$SHADEDIF
 70
    70
  9
$TILEMODE
 70
     1
  9
$MAXACTVP
 70
    64
  9
$PLIMCHECK
 70
     0
  9
$PEXTMIN
 10
1.0000000000000000E+20
 20
1.0000000000000000E+20
 30
1.0000000000000000E+20
  9
$PEXTMAX
 10
-1.0000000000000000E+20
 20
-1.0000000000000000E+20
 30
-1.0000000000000000E+20
  9
$PLIMMIN
 10
0.0
 20
0.0
  9
$PLIMMAX
 10
12.0
 20
9.0
  9
$UNITMODE
 70
     0
  9
$VISRETAIN
 70
     1
  9
$PLINEGEN
 70
     0
  9
$PSLTSCALE
 70
     1
  0
ENDSEC
  0
SECTION
  2
TABLES
  0
TABLE
  2
VPORT
 70
     1
  0
VPORT
  2
*ACTIVE
 70
     0
 10
0.0
 20
0.0
 11
1.0
 21
1.0
 12
-888.4680803908504458
 22
-43.7161159929558991
 13
0.0
 23
0.0
 14
1.0
 24
1.0
 15
0.0
 25
0.0
 16
0.0
 26
0.0
 36
17.1152628219792007
 17
3803.5440673828129547
 27
125.9952621967499056
 37
0.0
 40
9.4491971330322428
 41
2.2831541218637992
 42
50.0
 43
0.0
 44
0.0
 50
0.0
 51
0.0
 71
     0
 72
   100
 73
     1
 74
     1
 75
     0
 76
     0
 77
     0
 78
     1
  0
ENDTAB
  0
TABLE
  2
LTYPE
 70
     2
  0
LTYPE
  2
CONTINUOUS
 70
     0
  3
Solid line
 72
    65
 73
     0
 40
0.0
  0
LTYPE
  2
PHANTOM2
 70
     0
  3
___ _ _ ___ _ _ ___ _ _ ___ _ _
 72
    65
 73
     6
 40
1.25
 49
0.625
 49
-0.125
 49
0.125
 49
-0.125
 49
0.125
 49
-0.125
  0
ENDTAB
  0
TABLE
  2
LAYER
 70
     2
  0
LAYER
  2
0
 70
     0
 62
   255
  6
CONTINUOUS
  0
LAYER
  2
DEFPOINTS
 70
     0
 62
     7
  6
CONTINUOUS
  0
ENDTAB
  0
TABLE
  2
STYLE
 70
     1
  0
STYLE
  2
STANDARD
 70
     0
 40
0.0
 41
0.8
 50
0.0
 71
     0
 42
0.2
  3
txt
  4

  0
ENDTAB
  0
TABLE
  2
VIEW
 70
     0
  0
ENDTAB
  0
TABLE
  2
UCS
 70
     0
  0
ENDTAB
  0
TABLE
  2
APPID
 70
    11
  0
APPID
  2
ACAD
 70
     0
  0
APPID
  2
ACAD_MLEADERVER
 70
     0
  0
APPID
  2
ACAD_EXEMPT_FROM_CAD_STANDARDS
 70
     0
  0
APPID
  2
ACAD_NAV_VCDISPLAY
 70
     0
  0
APPID
  2
ACAECLAYERSTANDARD
 70
     0
  0
APPID
  2
ACCMTRANSPARENCY
 70
     0
  0
APPID
  2
ACAD_DSTYLE_DIMJAG
 70
     0
  0
APPID
  2
ACAD_DSTYLE_DIMTALN
 70
     0
  0
APPID
  2
ACDBATTR
 70
     0
  0
APPID
  2
DCO15
 70
     0
  0
APPID
  2
ACAD_DSTYLE_DIMRADIAL_EXTENSION
 70
     0
  0
ENDTAB
  0
TABLE
  2
DIMSTYLE
 70
     1
  0
DIMSTYLE
  2
STANDARD
 70
     0
  3

  4

  5

  6

  7

 40
1.0
 41
0.1875
 42
0.0625
 43
0.38
 44
0.125
 45
0.0
 46
0.0
 47
0.01
 48
0.01
140
0.15625
141
0.09
142
0.0
143
25.3999999999999986
144
1.0
145
0.0
146
1.0
147
0.09
 71
     1
 72
     0
 73
     1
 74
     1
 75
     0
 76
     0
 77
     0
 78
     4
170
     0
171
     2
172
     0
173
     0
174
     0
175
     0
176
     0
177
     0
178
     0
  0
ENDTAB
  0
ENDSEC
  0
SECTION
  2
BLOCKS
  0
BLOCK
  8
0
  2
$MODEL_SPACE
 70
     0
 10
0.0
 20
0.0
 30
0.0
  3
$MODEL_SPACE
  1

  0
ENDBLK
  5
21
  8
0
  0
BLOCK
 67
     1
  8
0
  2
$PAPER_SPACE
 70
     0
 10
0.0
 20
0.0
 30
0.0
  3
$PAPER_SPACE
  1

  0
ENDBLK
  5
1D
 67
     1
  8
0
  0
ENDSEC
  0
SECTION
  2
ENTITIES
  0
ATTDEF
  5
2EEE9
  8
DEFPOINTS
 10
2917.2570389361239904
 20
77.5976857389528476
 30
0.0
 40
0.001
  1
P26623-CPH
  3

  2
MODELNUMBER
 70
     0
1001
ACDBATTR
1070
     0
1070
     1
  0
ATTDEF
  5
2EEEA
  8
DEFPOINTS
 10
2917.2570389361239904
 20
77.5960190722861824
 30
0.0
 40
0.001
  1

  3

  2
TRADENAME
 70
     0
1001
ACDBATTR
1070
     0
1070
     1
  0
ATTDEF
  5
2EEEB
  8
DEFPOINTS
 10
2917.2570389361239904
 20
77.5943524056195173
 30
0.0
 40
0.001
  1
BATHROOM SINK FAUCET
  3

  2
PRODUCT
 70
     0
1001
ACDBATTR
1070
     0
1070
     1
  0
LINE
  5
31156
  8
0
 10
2916.0955122950181249
 20
77.5937395020174705
 30
0.0
 11
2918.4174721022181984
 21
77.5937395020174705
 31
0.0
  0
LINE
  5
31157
  8
0
 10
2916.1822217631188323
 20
77.9808080846174647
 30
0.0
 11
2918.3307626341179457
 21
77.9808080846174647
 31
0.0
  0
LINE
  5
31158
  8
0
 10
2916.3976862250178783
 20
78.1776584783174684
 30
0.0
 11
2918.1152981722179902
 21
78.1776584783174684
 31
0.0
  0
LINE
  5
31159
  8
0
 10
2916.0813701594179292
 20
77.8882407522174702
 30
0.0
 11
2918.4316142378179393
 21
77.8882407522174702
 31
0.0
  0
LINE
  5
3115A
  8
0
 10
2916.3165196606191785
 20
78.1047761852174744
 30
0.0
 11
2918.1964647366180543
 21
78.1047761852174744
 31
0.0
  0
LINE
  5
3115B
  8
0
 10
2914.3345801358568679
 20
86.9615888024174666
 30
0.0
 11
2916.253337468618156
 21
86.9615888024174666
 31
0.0
  0
LINE
  5
3115C
  8
0
 10
2916.8038681725138304
 20
86.2949281768174643
 30
0.0
 11
2916.263337468618829
 21
86.2949281768174643
 31
0.0
  0
LINE
  5
3115D
  8
0
 10
2917.7522731261028639
 20
85.8229281768174701
 30
0.0
 11
2916.7606511691337801
 21
85.8229281768174701
 31
0.0
  0
LINE
  5
3115E
  8
0
 10
2917.799635012725048
 20
85.7837860412174678
 30
0.0
 11
2916.7132892825111412
 21
85.7837860412174678
 31
0.0
  0
LINE
  5
3115F
  8
0
 10
2917.8832597528257793
 20
85.7189281768174851
 30
0.0
 11
2916.6296645424099552
 21
85.7189281768174851
 31
0.0
  0
LINE
  5
31160
  8
0
 10
2917.9456349423780921
 20
85.6647860412174538
 30
0.0
 11
2916.5672893528580971
 21
85.6647860412174538
 31
0.0
  0
LINE
  5
31161
  8
0
 10
2917.9414921986190166
 20
85.5080484783174768
 30
0.0
 11
2916.5714320966180821
 21
85.5080484783174768
 31
0.0
  0
LINE
  5
31162
  8
0
 10
2917.9314921986187983
 20
85.4288284783174561
 30
0.0
 11
2916.5813147858220873
 21
85.4288284783174561
 31
0.0
  0
LINE
  5
31163
  8
0
 10
2912.1736835873289237
 20
84.4443234688341136
 30
0.0
 11
2916.4832027022789589
 21
84.4443234688341136
 31
0.0
  0
LINE
  5
31164
  8
0
 10
2916.5614921986179979
 20
78.1976584783174644
 30
0.0
 11
2916.5614921986179979
 21
83.3030455382593402
 31
0.0
  0
LINE
  5
31165
  8
0
 10
2916.5614921986179979
 20
84.5226114184755488
 30
0.0
 11
2916.5614921986179979
 21
85.4104353125139113
 31
0.0
  0
LINE
  5
31166
  8
0
 10
2916.5614921986179979
 20
85.5169537510685842
 30
0.0
 11
2916.5614921986179979
 21
85.6521975125719734
 31
0.0
  0
LINE
  5
31167
  8
0
 10
2917.9514921986178706
 20
85.6506450693868686
 30
0.0
 11
2917.9514921986178706
 21
85.5180484783174535
 31
0.0
  0
LINE
  5
31168
  8
0
 10
2917.9514921986178706
 20
85.4088284783174743
 30
0.0
 11
2917.9514921986178706
 21
82.7650785100636028
 31
0.0
  0
ARC
  5
31169
  8
0
 10
2916.5814921986179797
 20
78.1976584783174786
 30
0.0
 40
0.0200000000000156
 50
180.0000000000391083
 51
269.9999999999739089
  0
ARC
  5
3116A
  8
0
 10
2916.3976862250178783
 20
78.1576584783174724
 30
0.0
 40
0.0199999999999967
 50
90.0
 51
134.9999996910067921
  0
LINE
  5
3116B
  8
0
 10
2916.3835440894708881
 20
78.1718006140174708
 30
0.0
 11
2916.3165196602831202
 21
78.1047761855526659
 31
0.0
  0
ARC
  5
3116C
  8
0
 10
2916.3306617946532242
 20
78.0906340510301504
 30
0.0
 40
0.0199999983347893
 50
134.9999996910067921
 51
180.0000040470154943
  0
LINE
  5
3116D
  8
0
 10
2916.3106617963180724
 20
78.0906340496174636
 30
0.0
 11
2916.3106618026631622
 21
78.0008080846174749
 31
0.0
  0
ARC
  5
3116E
  8
0
 10
2916.2906618040760804
 20
78.0008080832048023
 30
0.0
 40
0.019999998587327
 50
269.9999777766378202
 51
0.0000040470179776
  0
ARC
  5
3116F
  8
0
 10
2916.1822217631188323
 20
77.9608080846174687
 30
0.0
 40
0.0199999999999983
 50
89.9999999999739515
 51
134.999999690999914
  0
LINE
  5
31170
  8
0
 10
2916.1680796275709326
 20
77.9749502203174529
 30
0.0
 11
2916.0813704390261591
 21
77.8882410327083932
 31
0.0
  0
ARC
  5
31171
  8
0
 10
2916.0955132494900681
 20
77.8740982220919733
 30
0.0
 40
0.0200009544759208
 50
134.999999690999914
 51
179.9988701081450984
  0
LINE
  5
31172
  8
0
 10
2916.075512295018143
 20
77.8740986165174718
 30
0.0
 11
2916.0755071606499769
 21
77.6137395020680856
 31
0.0
  0
ARC
  5
31173
  8
0
 10
2916.0955067670620338
 20
77.613739107669204
 30
0.0
 40
0.0199996064156988
 50
179.9988701081460079
 51
270.015836741103783
  0
ARC
  5
31174
  8
0
 10
2911.8887845091180679
 20
82.6526196457174933
 30
0.0
 40
0.021196200000023
 50
270.0000000000259774
 51
284.9999999999951115
  0
LINE
  5
31175
  8
0
 10
2911.894270489362043
 20
82.6321456887182961
 30
0.0
 11
2912.0177388641509424
 21
82.6652289400336286
 31
0.0
  0
ARC
  5
31176
  8
0
 10
2912.0122837055751006
 20
82.6855878690012247
 30
0.0
 40
0.0210771142188128
 50
284.999999999995282
 51
330.2289061066721274
  0
ARC
  5
31177
  8
0
 10
2912.5809095713020724
 20
82.3603136234659701
 30
0.0
 40
0.634009681543232
 50
149.3555274457224868
 51
150.2289061066720137
  0
ARC
  5
31178
  8
0
 10
2912.0394764507250329
 20
82.6831833992708454
 30
0.0
 40
0.0040454595337837
 50
163.6133176969040051
 51
175.8764908448461028
  0
LINE
  5
31179
  8
0
 10
2912.0355953194748508
 20
82.684324698118985
 30
0.0
 11
2912.0540643114381965
 21
82.716070848971043
 31
0.0
  0
ARC
  5
3117A
  8
0
 10
2875.0844324869722186
 20
104.383322654847106
 30
0.0
 40
42.8511782574978071
 50
329.6261816385321026
 51
330.3370886545224039
  0
LINE
  5
3117B
  8
0
 10
2912.3200517775280787
 20
83.1764338187964825
 30
0.0
 11
2911.3994759270181021
 21
83.7079285339174533
 31
0.0
  0
LINE
  5
3117C
  8
0
 10
2911.3994759270181021
 20
83.7079285339174533
 30
0.0
 11
2911.110033481254959
 21
83.2065995120179451
 31
0.0
  0
ARC
  5
3117D
  8
0
 10
2911.128389928919205
 20
83.1960014120174662
 30
0.0
 40
0.0211961999999997
 50
149.9999999985357988
 51
194.9999999999992042
  0
LINE
  5
3117E
  8
0
 10
2911.1079159719188283
 20
83.1905154317736617
 30
0.0
 11
2911.1409992232502191
 21
83.0670470569260431
 31
0.0
  0
ARC
  5
3117F
  8
0
 10
2911.1614731802687857
 20
83.0725330371749777
 30
0.0
 40
0.0211962000198099
 50
195.0000000000007105
 51
239.9999998227958997
  0
LINE
  5
31180
  8
0
 10
2911.1508750802017857
 20
83.0541765895269037
 30
0.0
 11
2911.8781864094589764
 21
82.6342631978568818
 31
0.0
  0
ARC
  5
31181
  8
0
 10
2911.8893740193811936
 20
82.6548197280522032
 30
0.0
 40
0.0234037080274975
 50
241.4433630624280056
 51
268.5566380020839006
  0
LINE
  5
31182
  8
0
 10
2911.1079159719188283
 20
83.1905154318174738
 30
0.0
 11
2912.0177388642177903
 21
82.6652289400174709
 31
0.0
  0
ARC
  5
31183
  8
0
 10
2911.427040161334844
 20
83.7151823253628038
 30
0.0
 40
0.0202378218919033
 50
151.0731872401406122
 51
232.4870037370066029
  0
LINE
  5
31184
  8
0
 10
2911.4093272451332268
 20
83.7249711983602367
 30
0.0
 11
2911.6518697092860748
 21
84.1450611574537675
 31
0.0
  0
ARC
  5
31185
  8
0
 10
2912.1864699494981323
 20
83.8174622796325934
 30
0.0
 40
0.6269915801545066
 50
91.1685250645120391
 51
148.5003561323181032
  0
ARC
  5
31186
  8
0
 10
2916.4827184028181364
 20
83.3025596825174546
 30
0.0
 40
0.0787752941000016
 50
0.3533805905742522
 51
89.9745568810643874
  0
LINE
  5
31187
  8
0
 10
2916.4827533842621961
 20
83.3813349688504388
 30
0.0
 11
2912.566540461617933
 21
83.3813334783174867
 31
0.0
  0
ARC
  5
31188
  8
0
 10
2912.5742564229658456
 20
83.1459397672519742
 30
0.0
 40
0.2355201376908337
 50
91.8774237563560234
 51
148.1278609449632881
  0
LINE
  5
31189
  8
0
 10
2912.3742459983081972
 20
83.2703003931998893
 30
0.0
 11
2912.3299182177379407
 21
83.1935224250497072
 31
0.0
  0
ARC
  5
3118A
  8
0
 10
2912.3125493617671964
 20
83.2035350608895214
 30
0.0
 40
0.0200482175370331
 50
250.3952264214991885
 51
329.9024974426142762
  0
ARC
  5
3118B
  8
0
 10
2914.4169417721309401
 20
82.5675210626023244
 30
0.0
 40
2.7910488642539479
 50
37.8611827623213131
 51
42.2553335541266577
  0
ARC
  5
3118C
  8
0
 10
2915.7736755767350587
 20
83.6222340741852435
 30
0.0
 40
1.0725768239346221
 50
25.4500178798730907
 51
37.8611827623213131
  0
ARC
  5
3118D
  8
0
 10
2916.3860067794771567
 20
83.9136456532549602
 30
0.0
 40
0.3944395146324732
 50
6.8597716683499259
 51
25.4500178798730907
  0
ARC
  5
3118E
  8
0
 10
2916.3879008665721813
 20
83.913873513747717
 30
0.0
 40
0.3925317708534321
 50
347.3232721969303043
 51
6.8597716683507359
  0
ARC
  5
3118F
  8
0
 10
2916.2656269990229703
 20
83.941376937572997
 30
0.0
 40
0.5178606861423543
 50
324.697284607294705
 51
347.3232721969303043
  0
ARC
  5
31190
  8
0
 10
2912.0538113874249575
 20
86.9238083053476629
 30
0.0
 40
5.6787024401186352
 50
322.7734017915373101
 51
324.697284607294705
  0
ARC
  5
31191
  8
0
 10
2915.6957213688910997
 20
84.1567824919176957
 30
0.0
 40
1.104870330684804
 50
315.4246889509096263
 51
322.7734017915373101
  0
ARC
  5
31192
  8
0
 10
2916.4827184028181364
 20
84.5230972742174771
 30
0.0
 40
0.0787752940999991
 50
270.3522486360147923
 51
359.6466194094022057
  0
LINE
  5
31193
  8
0
 10
2914.2634374686181218
 20
86.8883733353174676
 30
0.0
 11
2914.2634374686181218
 21
86.3714830183174769
 31
0.0
  0
LINE
  5
31194
  8
0
 10
2914.3239752662179853
 20
86.3026609494174721
 30
0.0
 11
2914.3239752662179853
 21
86.9571954042174582
 31
0.0
  0
ARC
  5
31195
  8
0
 10
2914.2834374686181036
 20
86.8883733353174676
 30
0.0
 40
0.0199999999999854
 50
135.0000000961121032
 51
180.0000000000048885
  0
LINE
  5
31196
  8
0
 10
2914.269295332971069
 20
86.9025154709174643
 30
0.0
 11
2914.3239445348981462
 21
86.9571646730283874
 31
0.0
  0
ARC
  5
31197
  8
0
 10
2914.3346254924458663
 20
86.946483715516564
 30
0.0
 40
0.0151051549976827
 50
90.1720435859938618
 51
135.0000000961096873
  0
ARC
  5
31198
  8
0
 10
2914.2834374686181036
 20
86.3714830183174627
 30
0.0
 40
0.0199999999999996
 50
179.9999999999951115
 51
225.0000000961327942
  0
LINE
  5
31199
  8
0
 10
2914.2692953330188175
 20
86.3573408826700017
 30
0.0
 11
2914.3239752663362196
 21
86.3026609495354933
 31
0.0
  0
ARC
  5
3119A
  8
0
 10
2914.3345818681659694
 20
86.3132675514005285
 30
0.0
 40
0.015000000183051
 50
225.0000000961339026
 51
269.9999990547730135
  0
LINE
  5
3119B
  8
0
 10
2914.3345818681659694
 20
86.2982675512174637
 30
0.0
 11
2916.253337468618156
 21
86.2982675512174637
 31
0.0
  0
LINE
  5
3119C
  8
0
 10
2916.253337468618156
 20
86.2982675512174637
 30
0.0
 11
2916.253337468618156
 21
86.9615888025174684
 31
0.0
  0
ARC
  5
3119D
  8
0
 10
2916.2633820442838442
 20
86.9548368073838702
 30
0.0
 40
0.010091467883096
 50
90.2530856642987942
 51
174.4744036640537956
  0
LINE
  5
3119E
  8
0
 10
2916.263337468618829
 20
86.964928176817466
 30
0.0
 11
2917.4734915469180123
 21
86.964928176817466
 31
0.0
  0
ARC
  5
3119F
  8
0
 10
2917.47350900481797
 20
86.8469449830174653
 30
0.0
 40
0.1179744561000016
 50
0.0000000000008142
 51
90.0
  0
LINE
  5
311A0
  8
0
 10
2917.5914834609179707
 20
86.8469449830174653
 30
0.0
 11
2917.5914834609179707
 21
85.8329281767798449
 31
0.0
  0
ARC
  5
311A1
  8
0
 10
2917.5814834571351639
 20
85.8329281767798449
 30
0.0
 40
0.0100000037830306
 50
270.0500849957862215
 51
0.0000000000056996
  0
ARC
  5
311A2
  8
0
 10
2917.7522074632602198
 20
85.8029274243560138
 30
0.0
 40
0.0200008602473338
 50
45.0005839946211523
 51
90.1881024331087247
  0
LINE
  5
311A3
  8
0
 10
2917.7663500630192175
 20
85.8170703124174565
 30
0.0
 11
2917.7996346734707913
 21
85.7837863804734297
 31
0.0
  0
ARC
  5
311A4
  8
0
 10
2917.7854938488108019
 20
85.7696452675466787
 30
0.0
 40
0.0199983498533271
 50
359.9960980382642219
 51
45.0005839946205768
  0
LINE
  5
311A5
  8
0
 10
2917.8054921986181398
 20
85.7696439056174569
 30
0.0
 11
2917.8054901068130675
 21
85.7389281768887059
 31
0.0
  0
ARC
  5
311A6
  8
0
 10
2917.8254887451871582
 20
85.7389268149398305
 30
0.0
 40
0.0199986384205393
 50
179.9960980382649893
 51
270.0098940242131107
  0
ARC
  5
311A7
  8
0
 10
2917.8832149877780466
 20
85.6989453888229349
 30
0.0
 40
0.0199828381353741
 50
44.9794180302381505
 51
89.8716473380531511
  0
LINE
  5
311A8
  8
0
 10
2917.897350063041813
 20
85.7130703124411468
 30
0.0
 11
2917.9456346382457923
 21
85.6647863452468954
 31
0.0
  0
ARC
  5
311A9
  8
0
 10
2917.9315019230730286
 20
85.6506485416594359
 30
0.0
 40
0.0199902758468035
 50
359.9900478329161047
 51
45.0103126753890734
  0
ARC
  5
311AA
  8
0
 10
2917.9414921986190166
 20
85.5180484783174535
 30
0.0
 40
0.0099999999999962
 50
270.0
 51
0.0000000000252409
  0
ARC
  5
311AB
  8
0
 10
2917.9315508540162227
 20
85.408887133715524
 30
0.0
 40
0.019941430866141
 50
359.8314708897722198
 51
90.1685291102139246
  0
ARC
  5
311AC
  8
0
 10
2917.8345727010178052
 20
85.4192948850174787
 30
0.0
 40
0.0199999999999951
 50
28.4710366909935004
 51
50.6167805540028013
  0
ARC
  5
311AD
  8
0
 10
2917.2564922554979603
 20
84.7151078468052248
 30
0.0
 40
0.9310743033798446
 50
50.6167805540028013
 51
51.9456832273409077
  0
ARC
  5
311AE
  8
0
 10
2917.8254949335178026
 20
85.4419766670071965
 30
0.0
 40
0.0079804135855914
 50
51.9456832273394014
 51
83.8218998065931515
  0
ARC
  5
311AF
  8
0
 10
2917.8561657087211643
 20
85.7919492155248946
 30
0.0
 40
0.3433352231689478
 50
262.5537251123926126
 51
265.018712802746677
  0
ARC
  5
311B0
  8
0
 10
2917.8044695898038299
 20
85.3805304659708071
 30
0.0
 40
0.0713432885812437
 50
84.2069461567522239
 51
101.0516871634622049
  0
ARC
  5
311B1
  8
0
 10
2917.7860789725341419
 20
85.4746884161422287
 30
0.0
 40
0.0245938490873117
 50
264.0470368658188818
 51
281.0516871634878271
  0
ARC
  5
311B2
  8
0
 10
2917.8010111728608535
 20
85.5664428328863664
 30
0.0
 40
0.1175233000559379
 50
250.0044301990365057
 51
261.4448717251414109
  0
ARC
  5
311B3
  8
0
 10
2918.1328229615778582
 20
86.3497727392344387
 30
0.0
 40
0.9680937975268534
 50
240.3965988089410928
 51
247.4022650583333984
  0
LINE
  5
311B4
  8
0
 10
2916.5614320966187734
 20
85.6506450693868686
 30
0.0
 11
2916.5614320966187734
 21
85.5180484783174535
 31
0.0
  0
ARC
  5
311B5
  8
0
 10
2916.7606934254131374
 20
85.8029836722817265
 30
0.0
 40
0.0199445492997472
 50
90.1213919749382057
 51
135.0661264643269988
  0
LINE
  5
311B6
  8
0
 10
2916.7465742322178812
 20
85.8170703124174565
 30
0.0
 11
2916.7132896217658526
 21
85.7837863804734297
 31
0.0
  0
ARC
  5
311B7
  8
0
 10
2916.7274304464249326
 20
85.7696452675466787
 30
0.0
 40
0.0199983498533271
 50
134.9994160053794019
 51
180.0039019617358065
  0
LINE
  5
311B8
  8
0
 10
2916.7074320966180494
 20
85.7696439056174569
 30
0.0
 11
2916.7074341884231217
 21
85.7389281768887059
 31
0.0
  0
ARC
  5
311B9
  8
0
 10
2916.687435550049031
 20
85.7389268149398305
 30
0.0
 40
0.0199986384205393
 50
269.9901059757868893
 51
0.0039019617349978
  0
ARC
  5
311BA
  8
0
 10
2916.6297093074590521
 20
85.6989453888229349
 30
0.0
 40
0.0199828381353741
 50
90.1283526619468347
 51
135.0205819697617926
  0
LINE
  5
311BB
  8
0
 10
2916.6155742321939215
 20
85.7130703124411468
 30
0.0
 11
2916.5672896569908517
 21
85.6647863452468954
 31
0.0
  0
ARC
  5
311BC
  8
0
 10
2916.5814223721640701
 20
85.6506485416594359
 30
0.0
 40
0.0199902758468035
 50
134.9896873246109124
 51
180.0099521670838101
  0
ARC
  5
311BD
  8
0
 10
2916.5714320966180821
 20
85.5180484783174535
 30
0.0
 40
0.0099999999999962
 50
179.9999999999747047
 51
270.0
  0
ARC
  5
311BE
  8
0
 10
2916.5815387445541091
 20
85.408722799975294
 30
0.0
 40
0.0201069256504497
 50
90.6381957982215738
 51
179.6988624230866947
  0
ARC
  5
311BF
  8
0
 10
2916.6783515942188387
 20
85.4192948850174787
 30
0.0
 40
0.0199999999999951
 50
129.3832194459970992
 51
151.5289633090065138
  0
ARC
  5
311C0
  8
0
 10
2917.2539136396458161
 20
84.718212158661828
 30
0.0
 40
0.9270769853322371
 50
121.5740561010927934
 51
129.3846519339622887
  0
ARC
  5
311C1
  8
0
 10
2916.9314921986187983
 20
85.8329281768174752
 30
0.0
 40
0.0100000000000034
 50
180.0000000000154046
 51
269.9999999999739089
  0
LINE
  5
311C2
  8
0
 10
2916.9214921986181253
 20
85.8329281768174752
 30
0.0
 11
2916.9214921986181253
 21
86.1769280591201152
 31
0.0
  0
ARC
  5
311C3
  8
0
 10
2916.8034914796621706
 20
86.1769280591200868
 30
0.0
 40
0.1180007189558605
 50
0.000000000014656
 51
89.817094782007544
  0
LINE
  5
311C4
  8
0
 10
2917.5569295427330871
 20
86.9303655209325683
 30
0.0
 11
2916.8870636631368143
 21
86.260233880185595
 31
0.0
  0
ARC
  5
311C5
  8
0
 10
2916.2633390779110414
 20
86.3049321207826949
 30
0.0
 40
0.010003944094682
 50
181.2378997613637068
 51
269.9907830674376896
  0
LINE
  5
311C6
  8
0
 10
2918.8688108293181358
 20
83.0668587281174666
 30
0.0
 11
2918.2962496260188345
 21
83.0668587281174666
 31
0.0
  0
ARC
  5
311C7
  8
0
 10
2918.2962496260188345
 20
82.7616485296805848
 30
0.0
 40
0.3052101984368871
 50
90.0
 51
159.9524460148234937
  0
LINE
  5
311C8
  8
0
 10
2918.009532592846881
 20
82.8662745690754008
 30
0.0
 11
2917.946268577983119
 21
82.6929059626266962
 31
0.0
  0
ARC
  5
311C9
  8
0
 10
2915.0167225976770169
 20
82.9412125400850755
 30
0.0
 40
2.9400503069065138
 50
355.15522349084398
 51
356.5654387323164087
  0
ARC
  5
311CA
  8
0
 10
2922.1613829423968127
 20
82.3356353724195174
 30
0.0
 40
4.2302282893141721
 50
175.1552234908440084
 51
183.9544105903827926
  0
ARC
  5
311CB
  8
0
 10
2922.0420994988239727
 20
82.3004450641873291
 30
0.0
 40
4.1088899393110747
 50
183.5795780677063078
 51
185.4069952088829893
  0
LINE
  5
311CC
  8
0
 10
2917.9411551375937961
 20
82.0453024357125145
 30
0.0
 11
2918.2130089262250294
 21
82.7922152146345525
 31
0.0
  0
ARC
  5
311CD
  8
0
 10
2918.296125707228839
 20
82.7619632060300461
 30
0.0
 40
0.0884510220918291
 50
89.9197292943788966
 51
160.0000156126270099
  0
LINE
  5
311CE
  8
0
 10
2918.2962496260188345
 20
82.8504141413174722
 30
0.0
 11
2918.8688102674159381
 21
82.8504141413174722
 31
0.0
  0
ARC
  5
311CF
  8
0
 10
2918.8688108292490142
 20
82.8700991808679248
 30
0.0
 40
0.0196850395584828
 50
269.99836471382838
 51
314.9999998323128807
  0
LINE
  5
311D0
  8
0
 10
2918.8827302541681092
 20
82.8561797558674726
 30
0.0
 11
2918.9007265841210028
 21
82.8741760857147938
 31
0.0
  0
ARC
  5
311D1
  8
0
 10
2918.8868071595447873
 20
82.8880955103720538
 30
0.0
 40
0.0196850390731109
 50
314.999999832313506
 51
0.0000007143063744
  0
LINE
  5
311D2
  8
0
 10
2918.9064921986191621
 20
82.8880955106174753
 30
0.0
 11
2918.9064921968588351
 21
83.0292682050174733
 31
0.0
  0
ARC
  5
311D3
  8
0
 10
2918.8868071526171661
 20
83.0292682047720518
 30
0.0
 40
0.0196850442414913
 50
0.0000007143080028
 51
44.9999867029892968
  0
LINE
  5
311D4
  8
0
 10
2918.9007265841178196
 20
83.043187629812806
 30
0.0
 11
2918.8827302583308665
 21
83.0611839639529848
 31
0.0
  0
ARC
  5
311D5
  8
0
 10
2918.8691396118701959
 20
83.0477565667506923
 30
0.0
 40
0.0191049906267739
 50
44.6538098831688117
 51
90.9860660461668687
  0
LINE
  5
311D6
  8
0
 10
2918.882730254118087
 20
83.0611839681658353
 30
0.0
 11
2918.882730254118087
 21
82.8561797558174646
 31
0.0
  0
LINE
  5
311D7
  8
0
 10
2917.9514921986178706
 20
78.1976584783174644
 30
0.0
 11
2917.9514921986178706
 21
81.9132649396021577
 31
0.0
  0
ARC
  5
311D8
  8
0
 10
2918.1152981722179902
 20
78.1576584783174724
 30
0.0
 40
0.0199999999999967
 50
45.0000003089931795
 51
90.0
  0
LINE
  5
311D9
  8
0
 10
2918.1294403077658899
 20
78.1718006140174708
 30
0.0
 11
2918.1964647369532031
 21
78.1047761855526659
 31
0.0
  0
ARC
  5
311DA
  8
0
 10
2918.1823226025840086
 20
78.0906340510301504
 30
0.0
 40
0.0199999983347893
 50
359.9999959529844773
 51
45.0000003089931795
  0
LINE
  5
311DB
  8
0
 10
2918.2023226009177961
 20
78.0906340496174636
 30
0.0
 11
2918.2023225945740705
 21
78.0008080846174749
 31
0.0
  0
ARC
  5
311DC
  8
0
 10
2918.2223225931611523
 20
78.0008080832048023
 30
0.0
 40
0.019999998587327
 50
179.9999959529820046
 51
270.0000222233621798
  0
ARC
  5
311DD
  8
0
 10
2918.3307626341179457
 20
77.9608080846174687
 30
0.0
 40
0.0199999999999983
 50
45.0000003090001002
 51
90.0000000000260485
  0
LINE
  5
311DE
  8
0
 10
2918.3449047696658454
 20
77.9749502203174529
 30
0.0
 11
2918.4316139582101641
 21
77.8882410327083932
 31
0.0
  0
ARC
  5
311DF
  8
0
 10
2918.4174711477458004
 20
77.8740982220919733
 30
0.0
 40
0.0200009544759208
 50
0.001129891854843
 51
45.0000003090001002
  0
LINE
  5
311E0
  8
0
 10
2918.4374721022181802
 20
77.8740986165174718
 30
0.0
 11
2918.4374772365868012
 21
77.6137395020680856
 31
0.0
  0
ARC
  5
311E1
  8
0
 10
2918.417477630175199
 20
77.613739107669204
 30
0.0
 40
0.0199996064156988
 50
269.984163258896217
 51
0.0011298918540287
  0
ARC
  5
311E2
  8
0
 10
2914.3714033253559137
 20
86.8390112270922145
 30
0.0
 40
0.1211548750578817
 50
96.4823597030368063
 51
105.0137073212007977
  0
ARC
  5
311E3
  8
0
 10
2914.4037028609182016
 20
86.5547437385950502
 30
0.0
 40
0.4072514759010585
 50
92.5599160507958345
 51
96.4823597030368063
  0
ARC
  5
311E4
  8
0
 10
2914.4467864155508323
 20
86.3208321282559865
 30
0.0
 40
0.6409691355479664
 50
91.4752685158839256
 51
94.6388277345839555
  0
ARC
  5
311E5
  8
0
 10
2914.4197074879130014
 20
86.6545622944778131
 30
0.0
 40
0.3061421770030091
 50
94.6388277345839555
 51
100.6492593758001988
  0
ARC
  5
311E6
  8
0
 10
2914.328569406492079
 20
87.1392493320688146
 30
0.0
 40
0.1870390009567899
 50
273.9979761083342851
 51
280.6492593758002272
  0
ARC
  5
311E7
  8
0
 10
2914.3407957497202005
 20
86.9643156782997124
 30
0.0
 40
0.0116786100763445
 50
244.1863527123751112
 51
273.9979761083342851
  0
ARC
  5
311E8
  8
0
 10
2914.3415708503957831
 20
86.9477495084777559
 30
0.0
 40
0.0084251503494634
 50
100.6200137276798046
 51
134.0747145563275069
  0
ARC
  5
311E9
  8
0
 10
2914.3856774206337832
 20
86.8692228548748773
 30
0.0
 40
0.0772786435193237
 50
113.0832384918605982
 51
125.5651390194572059
  0
ARC
  5
311EA
  8
0
 10
2914.4382244021358019
 20
86.7459282458506067
 30
0.0
 40
0.2113038123476711
 50
100.8577386015901993
 51
113.0832384918605982
  0
ARC
  5
311EB
  8
0
 10
2914.4736428303899629
 20
86.5612695316814467
 30
0.0
 40
0.3993285601297734
 50
94.7465528535766168
 51
100.8577386015900004
  0
ARC
  5
311EC
  8
0
 10
2914.5070853937741049
 20
86.1585072791700668
 30
0.0
 40
0.8034768461508754
 50
91.7973997984450989
 51
94.7465528535766168
  0
ARC
  5
311ED
  8
0
 10
2914.5595224917010455
 20
86.2178716441641768
 30
0.0
 40
0.7442136650510796
 50
92.0930305036400085
 51
98.7559330244184963
  0
ARC
  5
311EE
  8
0
 10
2914.5037711296718044
 20
86.5798447580507968
 30
0.0
 40
0.3779722835212068
 50
98.7559330244184963
 51
112.1372405649281063
  0
ARC
  5
311EF
  8
0
 10
2914.307231112133195
 20
87.0629633880398046
 30
0.0
 40
0.1435941927181814
 50
286.1032534205572233
 51
292.13724056492822
  0
ARC
  5
311F0
  8
0
 10
2914.343724112046857
 20
86.9365573638987144
 30
0.0
 40
0.0120258759320724
 50
248.9383726942567989
 51
286.1032534205576781
  0
ARC
  5
311F1
  8
0
 10
2914.3403873804618343
 20
86.9278927484643447
 30
0.0
 40
0.0027409775323043
 50
154.5580524652793031
 51
248.9383726942836859
  0
ARC
  5
311F2
  8
0
 10
2914.3440683928661201
 20
86.9261415715398869
 30
0.0
 40
0.0068173083498595
 50
119.3205766741016021
 51
154.5580524652851864
  0
ARC
  5
311F3
  8
0
 10
2914.4428498052188843
 20
86.7792719445668439
 30
0.0
 40
0.1539557295511759
 50
118.8495214935337998
 51
130.6705401566923115
  0
ARC
  5
311F4
  8
0
 10
2914.5157728814301663
 20
86.6468965077840068
 30
0.0
 40
0.3050882254196816
 50
107.0786014380640978
 51
118.8495214935337998
  0
ARC
  5
311F5
  8
0
 10
2914.5494975072051602
 20
86.537127042922009
 30
0.0
 40
0.4199215211130093
 50
97.8579431498708772
 51
107.0786014380640978
  0
ARC
  5
311F6
  8
0
 10
2914.6159295646848477
 20
86.0557819874934466
 30
0.0
 40
0.9058292084843252
 50
92.360868025996183
 51
97.8579431498708772
  0
ARC
  5
311F7
  8
0
 10
2914.6281024108097881
 20
85.7605270503343604
 30
0.0
 40
1.2013349717100319
 50
91.221995899495667
 51
92.360868025996183
  0
ARC
  5
311F8
  8
0
 10
2914.6845634007709123
 20
85.9592398948275616
 30
0.0
 40
1.002388058617367
 50
90.5063988184222836
 51
96.6294271335898145
  0
ARC
  5
311F9
  8
0
 10
2914.6532961618231639
 20
86.2549483824563623
 30
0.0
 40
0.7050538060779047
 50
96.8797696125938756
 51
103.3595278291165016
  0
ARC
  5
311FA
  8
0
 10
2914.622879559051853
 20
86.3830251555942255
 30
0.0
 40
0.5734147938454937
 50
103.3595278291166011
 51
112.3915570696044028
  0
ARC
  5
311FB
  8
0
 10
2914.5114962484381067
 20
86.6533743899935303
 30
0.0
 40
0.2810195982219918
 50
112.3915570696044028
 51
122.2998838030602968
  0
ARC
  5
311FC
  8
0
 10
2914.3053134216629587
 20
86.9795248352233443
 30
0.0
 40
0.1048372029105855
 50
295.9480172443413721
 51
302.2998838030601974
  0
ARC
  5
311FD
  8
0
 10
2914.3445259064210404
 20
86.8989418518893615
 30
0.0
 40
0.0152200384616963
 50
266.3498716285599812
 51
295.9480172443413721
  0
ARC
  5
311FE
  8
0
 10
2914.3439951501559335
 20
86.8906218862896083
 30
0.0
 40
0.0068831607611613
 50
222.5489271084792904
 51
266.3498716285599812
  0
ARC
  5
311FF
  8
0
 10
2914.3416005119847796
 20
86.888423839855335
 30
0.0
 40
0.0036326684758868
 50
152.0873326453865957
 51
222.5489271084786083
  0
ARC
  5
31200
  8
0
 10
2914.3523986945701836
 20
86.8847573054317763
 30
0.0
 40
0.0150012050619112
 50
131.2102156422282917
 51
159.0362965031027898
  0
ARC
  5
31201
  8
0
 10
2914.7279174254058489
 20
86.0688434937713964
 30
0.0
 40
0.8920018605503337
 50
91.4423351746777655
 51
100.8879353180188048
  0
ARC
  5
31202
  8
0
 10
2914.6859318539618471
 20
86.2852332836616256
 30
0.0
 40
0.6715769053704391
 50
100.8575469420399031
 51
116.6439973692751977
  0
ARC
  5
31203
  8
0
 10
2914.6925897794708362
 20
86.2719631754291214
 30
0.0
 40
0.6864235798999772
 50
116.6439973692751977
 51
120.0352135524272938
  0
ARC
  5
31204
  8
0
 10
2914.7083894622301159
 20
86.3260544131632059
 30
0.0
 40
0.6271082435358859
 50
117.4725403712412941
 51
123.6463192443211057
  0
ARC
  5
31205
  8
0
 10
2914.6806900206847786
 20
86.3793268659372302
 30
0.0
 40
0.5670648151987125
 50
107.889758295378499
 51
117.4725403712412941
  0
ARC
  5
31206
  8
0
 10
2914.7289005969169011
 20
86.2299727750593661
 30
0.0
 40
0.7240071744347106
 50
99.5270962263501957
 51
107.889758295378499
  0
ARC
  5
31207
  8
0
 10
2914.8082178688378008
 20
85.7573645725241533
 30
0.0
 40
1.2032250191865861
 50
93.4686501492530937
 51
99.5270962263501957
  0
ARC
  5
31208
  8
0
 10
2914.8358224153248557
 20
85.3019449586394671
 30
0.0
 40
1.659480469233648
 50
91.6223212820579533
 51
93.4686501492530937
  0
ARC
  5
31209
  8
0
 10
2914.7788826067621812
 20
87.3123598180456213
 30
0.0
 40
0.3517405650438581
 50
271.6223212820580102
 51
274.2551138577741767
  0
ARC
  5
3120A
  8
0
 10
2914.366066085995044
 20
86.8382157550776697
 30
0.0
 40
0.0327815371919154
 50
121.346541429698803
 51
146.5718599232646966
  0
ARC
  5
3120B
  8
0
 10
2914.345290253343137
 20
86.851929537577405
 30
0.0
 40
0.0078877015527149
 50
146.5718599232627071
 51
208.7946835994505932
  0
ARC
  5
3120C
  8
0
 10
2914.3464480179441125
 20
86.8525658841647754
 30
0.0
 40
0.0092088207186124
 50
208.7946835994470121
 51
264.9017876853246207
  0
ARC
  5
3120D
  8
0
 10
2914.3475548742289902
 20
86.864972337484275
 30
0.0
 40
0.0216645509181784
 50
264.9017876853246207
 51
285.7593394202331751
  0
ARC
  5
3120E
  8
0
 10
2914.3480035478701211
 20
86.8633824527927061
 30
0.0
 40
0.020012569874638
 50
285.7593394202331751
 51
310.2378432673976931
  0
ARC
  5
3120F
  8
0
 10
2916.2063389281129275
 20
83.9674982928159608
 30
0.0
 40
3.255364029749368
 50
122.3836784065829022
 51
124.2912147746828992
  0
ARC
  5
31210
  8
0
 10
2915.2139910693390448
 20
85.5321733388643537
 30
0.0
 40
1.402538546186477
 50
115.6778360875814968
 51
122.3836784065829022
  0
ARC
  5
31211
  8
0
 10
2915.2630176908928661
 20
85.4302026165344444
 30
0.0
 40
1.5156828692146791
 50
105.1181759761898036
 51
115.6778360875814968
  0
ARC
  5
31212
  8
0
 10
2915.3281206643810037
 20
85.1892242432460449
 30
0.0
 40
1.765300523938208
 50
96.5456396554055232
 51
105.1181759761898036
  0
ARC
  5
31213
  8
0
 10
2915.4430153007037916
 20
84.1878990863747845
 30
0.0
 40
2.7731957800234288
 50
92.9195466060976969
 51
96.5456396554055232
  0
ARC
  5
31214
  8
0
 10
2919.7677746949939319
 20
-0.6115563409463505
 30
0.0
 40
87.6828606279589167
 50
92.8665500806557134
 51
92.9195466060976969
  0
ARC
  5
31215
  8
0
 10
2915.4069659467968449
 20
83.292605712774602
 30
0.0
 40
3.6697099014093149
 50
91.1403544889346193
 51
93.9572591468513139
  0
ARC
  5
31216
  8
0
 10
2915.283452070266776
 20
85.0780757028802554
 30
0.0
 40
1.879972836010247
 50
93.9572591468513139
 51
101.3166682647536021
  0
ARC
  5
31217
  8
0
 10
2915.1975601351778096
 20
85.5072729948463888
 30
0.0
 40
1.4422654680755089
 50
101.3166682647536021
 51
117.0985709035441005
  0
ARC
  5
31218
  8
0
 10
2915.1024788761378659
 20
85.6930894954099074
 30
0.0
 40
1.233535456571762
 50
117.0985709035441005
 51
126.7537067279007061
  0
ARC
  5
31219
  8
0
 10
2914.8906285959810702
 20
86.0698668993500746
 30
0.0
 40
0.8323048263865288
 50
122.5207865843050001
 51
129.4888777398734021
  0
ARC
  5
3121A
  8
0
 10
2914.9918135490970599
 20
85.9111654233661
 30
0.0
 40
1.0205189417359819
 50
111.6003556344951022
 51
122.5207865843050001
  0
ARC
  5
3121B
  8
0
 10
2915.0962368592799976
 20
85.6474270309880978
 30
0.0
 40
1.3041774817513381
 50
102.2284916086553039
 51
111.6003556344951022
  0
ARC
  5
3121C
  8
0
 10
2915.1405173151729286
 20
85.4431137462542409
 30
0.0
 40
1.513234117840347
 50
96.1003070100764774
 51
102.2284916086553039
  0
ARC
  5
3121D
  8
0
 10
2915.2319608077809789
 20
84.587498837859016
 30
0.0
 40
2.373721644657838
 50
92.8008260794359359
 51
96.1003070100764774
  0
ARC
  5
3121E
  8
0
 10
2917.0166864115531098
 20
48.1069116235872798
 30
0.0
 40
38.8979394867806718
 50
92.7025232216259383
 51
92.8008260794359359
  0
ARC
  5
3121F
  8
0
 10
2915.1248759912818969
 20
84.6995949720976853
 30
0.0
 40
2.2623892207016998
 50
91.0712068578278036
 51
97.1042623995019341
  0
ARC
  5
31220
  8
0
 10
2914.9822333244001129
 20
85.8441045335173243
 30
0.0
 40
1.109024982225399
 50
97.1042623995019341
 51
112.5002914684982045
  0
ARC
  5
31221
  8
0
 10
2914.9631002329879266
 20
85.960038661280862
 30
0.0
 40
0.994952082175928
 50
114.037457660395205
 51
126.2989346591315041
  0
ARC
  5
31222
  8
0
 10
2914.5494191886309636
 20
86.5053304068854061
 30
0.0
 40
0.3107621045673794
 50
124.3460442967187021
 51
131.0101892445244971
  0
ARC
  5
31223
  8
0
 10
2914.8400337455618683
 20
86.1603339322288235
 30
0.0
 40
0.7869798133732143
 50
118.6678899591534986
 51
127.4645342846764038
  0
ARC
  5
31224
  8
0
 10
2914.8241867077617826
 20
86.1893176889585249
 30
0.0
 40
0.7539466972444093
 50
107.621791795259
 51
118.6678899591534986
  0
ARC
  5
31225
  8
0
 10
2914.8988795348900567
 20
85.9541664141950719
 30
0.0
 40
1.000675577692578
 50
97.865934742006786
 51
107.621791795259
  0
ARC
  5
31226
  8
0
 10
2914.9836576086891
 20
85.3405240850662068
 30
0.0
 40
1.6201465050941071
 50
92.5692457762634149
 51
97.865934742006786
  0
ARC
  5
31227
  8
0
 10
2915.2722324507640224
 20
78.909439525569482
 30
0.0
 40
8.0577022563770697
 50
92.127257204019088
 51
92.5692457762634149
  0
ARC
  5
31228
  8
0
 10
2914.87868384318881
 20
85.8629451879971128
 30
0.0
 40
1.0986452256546539
 50
89.901876096243825
 51
109.9505443379194958
  0
ARC
  5
31229
  8
0
 10
2914.6699761814861631
 20
86.4379084643427547
 30
0.0
 40
0.4869740254170803
 50
109.9505443379194958
 51
129.3302175732571868
  0
ARC
  5
3122A
  8
0
 10
2914.4901861834259762
 20
86.6573327109134368
 30
0.0
 40
0.2032991351193475
 50
129.3302175732571868
 51
135.7996234901910952
  0
ARC
  5
3122B
  8
0
 10
2914.3670894703709564
 20
86.7770406075981811
 30
0.0
 40
0.0315936276546677
 50
135.7996234901910952
 51
160.2124294123985919
  0
ARC
  5
3122C
  8
0
 10
2914.3447293052749956
 20
86.7850852833972226
 30
0.0
 40
0.0078303410177799
 50
160.2124294124039068
 51
225.4920940397927041
  0
ARC
  5
3122D
  8
0
 10
2914.3444998621148443
 20
86.784851864775419
 30
0.0
 40
0.007503036240637
 50
225.4920940397938125
 51
274.2708975832276792
  0
ARC
  5
3122E
  8
0
 10
2914.3431300866509446
 20
86.803193896612072
 30
0.0
 40
0.0258961440997655
 50
274.2708975832276792
 51
288.2549247371251795
  0
ARC
  5
3122F
  8
0
 10
2914.3311652401339416
 20
86.8216665423330056
 30
0.0
 40
0.0475153709114045
 50
294.9944545910029774
 51
309.4709333347262827
  0
ARC
  5
31230
  8
0
 10
2914.3718809374249759
 20
86.7108105940920524
 30
0.0
 40
0.039218369411171
 50
132.2748909784278908
 51
162.0008685939444888
  0
ARC
  5
31231
  8
0
 10
2914.3479106762561059
 20
86.7185986023230839
 30
0.0
 40
0.0140146694307423
 50
162.0008685939444888
 51
236.8507438982614133
  0
ARC
  5
31232
  8
0
 10
2914.3468672851340671
 20
86.7170010473313511
 30
0.0
 40
0.0121065690705047
 50
236.8507438982618964
 51
286.0640050007098125
  0
ARC
  5
31233
  8
0
 10
2914.3444526318589851
 20
86.7253865784076652
 30
0.0
 40
0.0208328329831755
 50
286.0640050007098125
 51
307.8002739329652968
  0
ARC
  5
31234
  8
0
 10
2914.2893621619641635
 20
86.7986486123565442
 30
0.0
 40
0.1124949093766204
 50
307.1008371552384801
 51
309.780815982234401
  0
ARC
  5
31235
  8
0
 10
2914.4858778119378258
 20
86.5203930869697899
 30
0.0
 40
0.2017303000786256
 50
127.040254491965797
 51
134.7766974442525907
  0
ARC
  5
31236
  8
0
 10
2914.3610011569039671
 20
86.6462469351953359
 30
0.0
 40
0.0244357144715912
 50
134.7766974442531023
 51
159.2937889798602953
  0
ARC
  5
31237
  8
0
 10
2914.3467305754061272
 20
86.6516411065145462
 30
0.0
 40
0.0091796802385046
 50
159.2937889798610911
 51
229.8913526863682932
  0
ARC
  5
31238
  8
0
 10
2914.3453887602418035
 20
86.6500481377976968
 30
0.0
 40
0.0070968894981455
 50
229.8913526863678101
 51
288.2165352969494165
  0
ARC
  5
31239
  8
0
 10
2914.3170057099569021
 20
86.7362917825537352
 30
0.0
 40
0.0978909631164295
 50
288.2165352969761898
 51
294.4344375334318897
  0
ARC
  5
3123A
  8
0
 10
2913.9721086417580409
 20
87.2403725180025162
 30
0.0
 40
0.7074011907806513
 50
303.0107718359229239
 51
304.4492813293456948
  0
ARC
  5
3123B
  8
0
 10
2916.2652209583661715
 20
83.3622061132170842
 30
0.0
 40
3.7750425526730389
 50
115.6958856603232988
 51
120.0473408546457961
  0
ARC
  5
3123C
  8
0
 10
2915.4580293319831981
 20
85.0397346914222254
 30
0.0
 40
1.9134141116573029
 50
106.7942193032764067
 51
115.6958856603232988
  0
ARC
  5
3123D
  8
0
 10
2915.4657287916829773
 20
85.0142235486532343
 30
0.0
 40
1.940061814842639
 50
98.19068603404925
 51
106.7942193032764067
  0
ARC
  5
3123E
  8
0
 10
2915.5397429284757891
 20
84.5000089127345149
 30
0.0
 40
2.4595758033340771
 50
92.5968761027361893
 51
98.19068603404925
  0
ARC
  5
3123F
  8
0
 10
2914.4674232825991567
 20
108.142766905864903
 30
0.0
 40
21.2074872790313407
 50
272.5968761027361893
 51
272.8542469783060938
  0
ARC
  5
31240
  8
0
 10
2915.0425172914360701
 20
98.1452106678958387
 30
0.0
 40
11.1989582304980893
 50
272.3877524565997987
 51
272.9988836088397761
  0
ARC
  5
31241
  8
0
 10
2915.6004034371549096
 20
84.766095616709876
 30
0.0
 40
2.1917832166532119
 50
92.3877524565997845
 51
102.5616396555119962
  0
ARC
  5
31242
  8
0
 10
2915.581337029252154
 20
84.851662881671345
 30
0.0
 40
2.104117460834336
 50
102.5616396555119962
 51
112.5492654339578991
  0
ARC
  5
31243
  8
0
 10
2917.8271168676660636
 20
79.8692084515569292
 30
0.0
 40
7.5686350984960011
 50
113.7865544517603951
 51
116.7148615685307931
  0
ARC
  5
31244
  8
0
 10
2913.1392286056170633
 20
90.1234245653534742
 30
0.0
 40
3.7443144715954069
 50
291.0904354623941117
 51
295.8777140650058186
  0
ARC
  5
31245
  8
0
 10
2915.7064553030199932
 20
84.6857933147558555
 30
0.0
 40
2.2694307949781698
 50
106.5130285488873056
 51
114.2753574207242053
  0
ARC
  5
31246
  8
0
 10
2915.6848842699978377
 20
84.7436992476286122
 30
0.0
 40
2.2077860155839311
 50
98.4305482527936988
 51
106.4034464203362944
  0
ARC
  5
31247
  8
0
 10
2915.7886826218809802
 20
84.03744050734349
 30
0.0
 40
2.9216311924333178
 50
92.9903228075579023
 51
98.4135225283550028
  0
ARC
  5
31248
  8
0
 10
2915.9345461971051918
 20
81.1148047384073436
 30
0.0
 40
5.8479006454804283
 50
91.1196692631127974
 51
92.9236886615433946
  0
ARC
  5
31249
  8
0
 10
2915.7975904849031394
 20
94.2916761162567241
 30
0.0
 40
7.3329952865836017
 50
270.7559258552597043
 51
271.6136392392892276
  0
ARC
  5
3124A
  8
0
 10
2915.9322388725749988
 20
84.0865261712524301
 30
0.0
 40
2.8730429059925959
 50
90.7559258552597186
 51
94.0151419677253557
  0
ARC
  5
3124B
  8
0
 10
2916.0865321629271421
 20
81.8883776471454041
 30
0.0
 40
5.076599883581669
 50
94.0151419677253557
 51
97.0928474239619419
  0
ARC
  5
3124C
  8
0
 10
2915.7096212003179971
 20
84.9174825838614851
 30
0.0
 40
2.0241355363087798
 50
97.0928474239619419
 51
107.5434581716593954
  0
ARC
  5
3124D
  8
0
 10
2915.9630365523848923
 20
84.1158723507098358
 30
0.0
 40
2.8648485114415041
 50
107.5434581716593954
 51
116.2917038421445994
  0
ARC
  5
3124E
  8
0
 10
2914.2439667271360122
 20
87.5954141450546757
 30
0.0
 40
1.0161838464077551
 50
288.1747614912658833
 51
296.2917038421446136
  0
ARC
  5
3124F
  8
0
 10
2934.4614656726212161
 20
42.5570260790788808
 30
0.0
 40
48.3218057277327802
 50
113.9784695007999034
 51
114.2069091894340005
  0
ARC
  5
31250
  8
0
 10
2916.230312160232188
 20
83.5463135960881971
 30
0.0
 40
3.460946958151264
 50
108.9835242991971995
 51
113.9784695007999034
  0
ARC
  5
31251
  8
0
 10
2915.787329322430196
 20
84.8340319549798352
 30
0.0
 40
2.099164168418171
 50
97.6290578448741257
 51
108.9835242991971995
  0
ARC
  5
31252
  8
0
 10
2916.4415505868860237
 20
79.9497682775147922
 30
0.0
 40
7.0270478048152167
 50
95.4092583975719748
 51
97.6290578448741257
  0
ARC
  5
31253
  8
0
 10
2916.0588640731562009
 20
83.9911983070695243
 30
0.0
 40
2.967539749449668
 50
90.5272209792183986
 51
95.4092583975719748
  0
ARC
  5
31254
  8
0
 10
2916.017469619791882
 20
88.4896166675455191
 30
0.0
 40
1.531069062909665
 50
270.5272209792183844
 51
273.6118898130993102
  0
ARC
  5
31255
  8
0
 10
2916.4037955306671392
 20
79.0130768596534239
 30
0.0
 40
7.9471957142279059
 50
91.0848011451779342
 51
93.1382525494209972
  0
ARC
  5
31256
  8
0
 10
2916.1737071953170926
 20
83.2096494153166049
 30
0.0
 40
3.7443202869746028
 50
93.1382525494209972
 51
103.3494086090061046
  0
ARC
  5
31257
  8
0
 10
2915.8186474300891859
 20
84.7058934874561373
 30
0.0
 40
2.206525189994295
 50
103.3494086090061046
 51
119.3110413107857966
  0
ARC
  5
31258
  8
0
 10
2915.4212962720039286
 20
85.5221455870259746
 30
0.0
 40
1.2702393821702049
 50
110.7070733550932999
 51
119.2957731865948006
  0
ARC
  5
31259
  8
0
 10
2916.9845582123439272
 20
81.3866370053285664
 30
0.0
 40
5.6913500032030724
 50
107.1090374353544945
 51
110.7070733550932999
  0
ARC
  5
3125A
  8
0
 10
2915.8934373049351052
 20
84.9313913760202865
 30
0.0
 40
1.982464943899827
 50
98.2388642434224266
 51
107.1090374353544945
  0
ARC
  5
3125B
  8
0
 10
2916.2423178319349972
 20
83.2741892124045648
 30
0.0
 40
3.6741400694508219
 50
96.4521548520102954
 51
99.9202108910259597
  0
ARC
  5
3125C
  8
0
 10
2916.3457712647427797
 20
82.3359451009478676
 30
0.0
 40
4.6180675554849522
 50
93.7873488442644856
 51
96.4194553017353826
  0
ARC
  5
3125D
  8
0
 10
2916.4772119024910353
 20
80.4879789650192947
 30
0.0
 40
6.4706863844409526
 50
91.9827294819741041
 51
93.8678272014242339
  0
ARC
  5
3125E
  8
0
 10
2916.4208644204481971
 20
81.9966272154089353
 30
0.0
 40
4.951110143084799
 50
91.9390438745339509
 51
95.2263160202072783
  0
ARC
  5
3125F
  8
0
 10
2916.2905749831570574
 20
83.4210185525064389
 30
0.0
 40
3.520772414201125
 50
95.2263160202072783
 51
106.3428042423139033
  0
ARC
  5
31260
  8
0
 10
2916.0981723305981177
 20
84.0771642526532901
 30
0.0
 40
2.83699908879787
 50
106.3428042423139033
 51
115.8667214807533981
  0
ARC
  5
31261
  8
0
 10
2916.2370810821162195
 20
85.4864665252221982
 30
0.0
 40
1.166510444877157
 50
89.2015052362032463
 51
101.4086723729485016
  0
ARC
  5
31262
  8
0
 10
2916.2921231004188485
 20
85.5269953605447881
 30
0.0
 40
1.1655153723672551
 50
91.9070242452280581
 51
108.8611421153190975
  0
ARC
  5
31263
  8
0
 10
2916.3384107836977819
 20
84.8352349983186969
 30
0.0
 40
1.8853801857938599
 50
92.5862144548819828
 51
107.8429662951970016
  0
ARC
  5
31264
  8
0
 10
2916.6301502059041013
 20
83.6701335223863225
 30
0.0
 40
3.1088076220516441
 50
96.9618319487198619
 51
107.8115995496012971
  0
ARC
  5
31265
  8
0
 10
2916.5151863982619034
 20
83.9017962462775984
 30
0.0
 40
2.8911315259184742
 50
95.1963826437506668
 51
109.3312003997125004
  0
ARC
  5
31266
  8
0
 10
2916.7248859347291727
 20
83.2784469441684365
 30
0.0
 40
3.5709468579507662
 50
97.5959079582982838
 51
110.1919818983450057
  0
ARC
  5
31267
  8
0
 10
2916.9348605221762227
 20
81.3724401345318711
 30
0.0
 40
5.5128933602248171
 50
97.1012703483965538
 51
102.6636245164138046
  0
ARC
  5
31268
  8
0
 10
2916.2641574810800194
 20
84.3574191831668543
 30
0.0
 40
2.45349105092901
 50
102.6636245164138046
 51
112.1446925756755064
  0
ARC
  5
31269
  8
0
 10
2917.0739278498958811
 20
80.4443042753484576
 30
0.0
 40
6.4796186542118006
 50
97.2755761078722401
 51
101.2164764702535962
  0
ARC
  5
3126A
  8
0
 10
2916.3444915749978463
 20
84.1226746972511137
 30
0.0
 40
2.7296204888969942
 50
101.2164764702535962
 51
113.287079114239603
  0
ARC
  5
3126B
  8
0
 10
2916.6149311320091329
 20
82.5998760332817028
 30
0.0
 40
4.3026378110010626
 50
94.8208231524138938
 51
101.5802725951407979
  0
ARC
  5
3126C
  8
0
 10
2916.4337750199820221
 20
83.483945053110304
 30
0.0
 40
3.400199132339035
 50
101.5802725951407979
 51
112.2961876581733947
  0
ARC
  5
3126D
  8
0
 10
2916.5137148873641308
 20
83.1454681085429286
 30
0.0
 40
3.773782346578693
 50
93.9563460018899548
 51
103.2777878823076065
  0
ARC
  5
3126E
  8
0
 10
2916.3154840672577848
 20
83.9854979701399742
 30
0.0
 40
2.9106800198441589
 50
103.2777878823076065
 51
114.6974746117326021
  0
ARC
  5
3126F
  8
0
 10
2916.3576080749130597
 20
83.7237591463510142
 30
0.0
 40
3.1982188475418858
 50
91.8683288533921854
 51
102.9618452451230013
  0
ARC
  5
31270
  8
0
 10
2916.4409757914258989
 20
83.3615536155320029
 30
0.0
 40
3.5698948122107792
 50
102.9618452451230013
 51
113.7177457651313972
  0
ARC
  5
31271
  8
0
 10
2915.4429075680532151
 20
85.8116796264190924
 30
0.0
 40
0.9546442100893195
 50
110.2378914246848041
 51
121.0048066056647968
  0
ARC
  5
31272
  8
0
 10
2916.4084002713948394
 20
83.1928929308624419
 30
0.0
 40
3.74574075392845
 50
103.9660685579799946
 51
110.2378914246848041
  0
ARC
  5
31273
  8
0
 10
2916.3803414236008393
 20
83.305715420712616
 30
0.0
 40
3.629481504165188
 50
96.2243178786374784
 51
103.9660685579799946
  0
ARC
  5
31274
  8
0
 10
2916.7369708144938159
 20
80.035812692566509
 30
0.0
 40
6.918774494153463
 50
94.0083349601302558
 51
96.2243178786374784
  0
ARC
  5
31275
  8
0
 10
2914.3714033253559137
 20
86.4208451265427442
 30
0.0
 40
0.1211548750578817
 50
254.9862926787992023
 51
263.5176402969631795
  0
ARC
  5
31276
  8
0
 10
2914.4037028609182016
 20
86.7051126150398943
 30
0.0
 40
0.4072514759010585
 50
263.5176402969631795
 51
267.4400839492041086
  0
ARC
  5
31277
  8
0
 10
2914.4467864155508323
 20
86.9390242253789438
 30
0.0
 40
0.6409691355479664
 50
265.3611722654159735
 51
268.5247314841161028
  0
ARC
  5
31278
  8
0
 10
2914.4197074879130014
 20
86.605294059157103
 30
0.0
 40
0.3061421770030091
 50
259.3507406241997728
 51
265.3611722654159735
  0
ARC
  5
31279
  8
0
 10
2914.328569406492079
 20
86.1206070215661157
 30
0.0
 40
0.1870390009567899
 50
79.3507406241997444
 51
86.0020238916657291
  0
ARC
  5
3127A
  8
0
 10
2914.3407957497202005
 20
86.2955406753352179
 30
0.0
 40
0.0116786100763445
 50
86.0020238916657291
 51
115.8136472876248035
  0
ARC
  5
3127B
  8
0
 10
2914.3415708503957831
 20
86.3121068451571887
 30
0.0
 40
0.0084251503494634
 50
225.9252854436724931
 51
259.3799862723201954
  0
ARC
  5
3127C
  8
0
 10
2914.3856774206337832
 20
86.390633498760053
 30
0.0
 40
0.0772786435193237
 50
234.4348609805427088
 51
246.9167615081393024
  0
ARC
  5
3127D
  8
0
 10
2914.4382244021358019
 20
86.5139281077843521
 30
0.0
 40
0.2113038123476711
 50
246.9167615081393024
 51
259.142261398409687
  0
ARC
  5
3127E
  8
0
 10
2914.4736428303899629
 20
86.6985868219534836
 30
0.0
 40
0.3993285601297734
 50
259.1422613984099144
 51
265.2534471464234116
  0
ARC
  5
3127F
  8
0
 10
2914.5070853937741049
 20
87.1013490744648493
 30
0.0
 40
0.8034768461508754
 50
265.2534471464234116
 51
268.2026002015549011
  0
ARC
  5
31280
  8
0
 10
2914.5595224917010455
 20
87.0419847094707535
 30
0.0
 40
0.7442136650510796
 50
261.2440669755815179
 51
267.9069694963599773
  0
ARC
  5
31281
  8
0
 10
2914.5037711296718044
 20
86.6800115955841335
 30
0.0
 40
0.3779722835212068
 50
247.8627594350718084
 51
261.2440669755815179
  0
ARC
  5
31282
  8
0
 10
2914.307231112133195
 20
86.1968929655951257
 30
0.0
 40
0.1435941927181814
 50
67.8627594350718368
 51
73.8967465794427625
  0
ARC
  5
31283
  8
0
 10
2914.343724112046857
 20
86.3232989897362302
 30
0.0
 40
0.0120258759320724
 50
73.8967465794422935
 51
111.0616273057432011
  0
ARC
  5
31284
  8
0
 10
2914.3403873804618343
 20
86.3319636051705857
 30
0.0
 40
0.0027409775323043
 50
111.0616273057162999
 51
205.4419475347206969
  0
ARC
  5
31285
  8
0
 10
2914.3440683928661201
 20
86.3337147820950435
 30
0.0
 40
0.0068173083498595
 50
205.4419475347148136
 51
240.6794233258983127
  0
ARC
  5
31286
  8
0
 10
2914.4428498052188843
 20
86.4805844090681006
 30
0.0
 40
0.1539557295511759
 50
229.3294598433076885
 51
241.150478506466186
  0
ARC
  5
31287
  8
0
 10
2914.5157728814301663
 20
86.6129598458509236
 30
0.0
 40
0.3050882254196816
 50
241.150478506466186
 51
252.921398561935888
  0
ARC
  5
31288
  8
0
 10
2914.5494975072051602
 20
86.7227293107128929
 30
0.0
 40
0.4199215211130093
 50
252.921398561935888
 51
262.1420568501291086
  0
ARC
  5
31289
  8
0
 10
2914.6159295646848477
 20
87.2040743661414979
 30
0.0
 40
0.9058292084843252
 50
262.1420568501291086
 51
267.639131974003817
  0
ARC
  5
3128A
  8
0
 10
2914.6281024108097881
 20
87.4993293033005841
 30
0.0
 40
1.2013349717100319
 50
267.639131974003817
 51
268.7780041005042904
  0
ARC
  5
3128B
  8
0
 10
2914.6845634007709123
 20
87.3006164588073545
 30
0.0
 40
1.002388058617367
 50
263.3705728664102139
 51
269.4936011815776737
  0
ARC
  5
3128C
  8
0
 10
2914.6532961618231639
 20
87.0049079711785822
 30
0.0
 40
0.7050538060779047
 50
256.6404721708835268
 51
263.1202303874060817
  0
ARC
  5
3128D
  8
0
 10
2914.622879559051853
 20
86.8768311980407049
 30
0.0
 40
0.5734147938454937
 50
247.6084429303955972
 51
256.6404721708832994
  0
ARC
  5
3128E
  8
0
 10
2914.5114962484381067
 20
86.6064819636414143
 30
0.0
 40
0.2810195982219918
 50
237.700116196939689
 51
247.6084429303955972
  0
ARC
  5
3128F
  8
0
 10
2914.3053134216629587
 20
86.2803315184116002
 30
0.0
 40
0.1048372029105855
 50
57.7001161969397316
 51
64.0519827556585568
  0
ARC
  5
31290
  8
0
 10
2914.3445259064210404
 20
86.360914501745583
 30
0.0
 40
0.0152200384616963
 50
64.0519827556585568
 51
93.6501283714399761
  0
ARC
  5
31291
  8
0
 10
2914.3439951501559335
 20
86.3692344673453363
 30
0.0
 40
0.0068831607611613
 50
93.6501283714399761
 51
137.4510728915207096
  0
ARC
  5
31292
  8
0
 10
2914.3416005119847796
 20
86.3714325137796237
 30
0.0
 40
0.0036326684758868
 50
137.4510728915213065
 51
207.9126673546132906
  0
ARC
  5
31293
  8
0
 10
2914.3523986945701836
 20
86.3750990482031682
 30
0.0
 40
0.0150012050619112
 50
200.9637034968970966
 51
228.7897843577717083
  0
ARC
  5
31294
  8
0
 10
2914.7279174254058489
 20
87.1910128598635339
 30
0.0
 40
0.8920018605503337
 50
259.1120646819812237
 51
268.5576648253223198
  0
ARC
  5
31295
  8
0
 10
2914.6859318539618471
 20
86.9746230699733189
 30
0.0
 40
0.6715769053704391
 50
243.3560026307247881
 51
259.1424530579600969
  0
ARC
  5
31296
  8
0
 10
2914.6925897794708362
 20
86.9878931782058089
 30
0.0
 40
0.6864235798999772
 50
239.9647864475726919
 51
243.3560026307243902
  0
ARC
  5
31297
  8
0
 10
2914.7083894622301159
 20
86.9338019404717386
 30
0.0
 40
0.6271082435358859
 50
236.3536807556787949
 51
242.5274596287586917
  0
ARC
  5
31298
  8
0
 10
2914.6806900206847786
 20
86.8805294876977143
 30
0.0
 40
0.5670648151987125
 50
242.5274596287586917
 51
252.110241704621501
  0
ARC
  5
31299
  8
0
 10
2914.7289005969169011
 20
87.0298835785755784
 30
0.0
 40
0.7240071744347106
 50
252.110241704621501
 51
260.4729037736498185
  0
ARC
  5
3129A
  8
0
 10
2914.8082178688378008
 20
87.502491781110777
 30
0.0
 40
1.2032250191865861
 50
260.4729037736498185
 51
266.5313498507468921
  0
ARC
  5
3129B
  8
0
 10
2914.8358224153248557
 20
87.9579113949954632
 30
0.0
 40
1.659480469233648
 50
266.5313498507468921
 51
268.3776787179421035
  0
ARC
  5
3129C
  8
0
 10
2914.7788826067621812
 20
85.9474965355893232
 30
0.0
 40
0.3517405650438581
 50
85.7448861422257949
 51
88.3776787179420609
  0
ARC
  5
3129D
  8
0
 10
2914.366066085995044
 20
86.4216405985572749
 30
0.0
 40
0.0327815371919154
 50
213.4281400767353034
 51
238.6534585703012112
  0
ARC
  5
3129E
  8
0
 10
2914.345290253343137
 20
86.4079268160575396
 30
0.0
 40
0.0078877015527149
 50
151.2053164005494068
 51
213.4281400767372929
  0
ARC
  5
3129F
  8
0
 10
2914.3464480179441125
 20
86.4072904694701691
 30
0.0
 40
0.0092088207186124
 50
95.0982123146753935
 51
151.2053164005529879
  0
ARC
  5
312A0
  8
0
 10
2914.3475548742289902
 20
86.3948840161506553
 30
0.0
 40
0.0216645509181784
 50
74.2406605797668249
 51
95.0982123146753935
  0
ARC
  5
312A1
  8
0
 10
2914.3480035478701211
 20
86.3964739008422384
 30
0.0
 40
0.020012569874638
 50
49.7621567326022927
 51
74.2406605797668249
  0
ARC
  5
312A2
  8
0
 10
2916.2063389281129275
 20
89.2923580608189837
 30
0.0
 40
3.255364029749368
 50
235.7087852253170865
 51
237.6163215934170978
  0
ARC
  5
312A3
  8
0
 10
2915.2139910693390448
 20
87.7276830147705766
 30
0.0
 40
1.402538546186477
 50
237.6163215934170978
 51
244.322163912418489
  0
ARC
  5
312A4
  8
0
 10
2915.2630176908928661
 20
87.8296537371005002
 30
0.0
 40
1.5156828692146791
 50
244.322163912418489
 51
254.8818240238101964
  0
ARC
  5
312A5
  8
0
 10
2915.3281206643810037
 20
88.0706321103888854
 30
0.0
 40
1.765300523938208
 50
254.8818240238101964
 51
263.4543603445944768
  0
ARC
  5
312A6
  8
0
 10
2915.4430153007037916
 20
89.0719572672601601
 30
0.0
 40
2.7731957800234288
 50
263.4543603445944768
 51
267.0804533939023031
  0
ARC
  5
312A7
  8
0
 10
2919.7677746949939319
 20
173.871412694581295
 30
0.0
 40
87.6828606279589167
 50
267.0804533939023031
 51
267.1334499193442866
  0
ARC
  5
312A8
  8
0
 10
2915.4069659467968449
 20
89.9672506408603283
 30
0.0
 40
3.6697099014093149
 50
266.0427408531487004
 51
268.8596455110654233
  0
ARC
  5
312A9
  8
0
 10
2915.283452070266776
 20
88.1817806507546749
 30
0.0
 40
1.879972836010247
 50
258.6833317352463268
 51
266.0427408531487004
  0
ARC
  5
312AA
  8
0
 10
2915.1975601351778096
 20
87.7525833587885558
 30
0.0
 40
1.4422654680755089
 50
242.9014290964557858
 51
258.6833317352463268
  0
ARC
  5
312AB
  8
0
 10
2915.1024788761378659
 20
87.5667668582250229
 30
0.0
 40
1.233535456571762
 50
233.2462932720993081
 51
242.9014290964557858
  0
ARC
  5
312AC
  8
0
 10
2914.8906285959810702
 20
87.1899894542848557
 30
0.0
 40
0.8323048263865288
 50
230.5111222601265979
 51
237.4792134156948862
  0
ARC
  5
312AD
  8
0
 10
2914.9918135490970599
 20
87.3486909302688446
 30
0.0
 40
1.0205189417359819
 50
237.4792134156948862
 51
248.399644365504912
  0
ARC
  5
312AE
  8
0
 10
2915.0962368592799976
 20
87.6124293226468467
 30
0.0
 40
1.3041774817513381
 50
248.399644365504912
 51
257.7715083913445824
  0
ARC
  5
312AF
  8
0
 10
2915.1405173151729286
 20
87.8167426073807036
 30
0.0
 40
1.513234117840347
 50
257.7715083913445824
 51
263.8996929899234942
  0
ARC
  5
312B0
  8
0
 10
2916.5944775158877746
 20
103.4286195425052028
 30
0.0
 40
17.1925419990457087
 50
264.6106797737401166
 51
265.1251765802390992
  0
ARC
  5
312B1
  8
0
 10
2915.1248759912818969
 20
88.560261381537245
 30
0.0
 40
2.2623892207016998
 50
262.8957376004980233
 51
268.9287931421721964
  0
ARC
  5
312B2
  8
0
 10
2914.9822333244001129
 20
87.4157518201176345
 30
0.0
 40
1.109024982225399
 50
247.4997085315017955
 51
262.8957376004980233
  0
ARC
  5
312B3
  8
0
 10
2914.9631002329879266
 20
87.2998176923540825
 30
0.0
 40
0.994952082175928
 50
233.7010653408684959
 51
245.962542339604795
  0
ARC
  5
312B4
  8
0
 10
2914.5494191886309636
 20
86.7545259467495384
 30
0.0
 40
0.3107621045673794
 50
228.9898107554753892
 51
235.6539557032812979
  0
ARC
  5
312B5
  8
0
 10
2914.8400337455618683
 20
87.099522421406121
 30
0.0
 40
0.7869798133732143
 50
232.5354657153235962
 51
241.3321100408464019
  0
ARC
  5
312B6
  8
0
 10
2914.8241867077617826
 20
87.0705386646764055
 30
0.0
 40
0.7539466972444093
 50
241.3321100408464019
 51
252.3782082047409006
  0
ARC
  5
312B7
  8
0
 10
2914.8988795348900567
 20
87.3056899394398584
 30
0.0
 40
1.000675577692578
 50
252.3782082047409006
 51
262.1340652579931998
  0
ARC
  5
312B8
  8
0
 10
2914.9836576086891
 20
87.9193322685687235
 30
0.0
 40
1.6201465050941071
 50
262.1340652579931998
 51
267.4307542237365851
  0
ARC
  5
312B9
  8
0
 10
2915.2722324507640224
 20
94.3504168280654767
 30
0.0
 40
8.0577022563770697
 50
267.4307542237365851
 51
267.872742795980912
  0
ARC
  5
312BA
  8
0
 10
2914.87868384318881
 20
87.3969111656378317
 30
0.0
 40
1.0986452256546539
 50
250.0494556620805042
 51
270.098123903756175
  0
ARC
  5
312BB
  8
0
 10
2914.6699761814861631
 20
86.8219478892921757
 30
0.0
 40
0.4869740254170803
 50
230.6697824267426995
 51
250.0494556620805042
  0
ARC
  5
312BC
  8
0
 10
2914.4901861834259762
 20
86.6025236427215077
 30
0.0
 40
0.2032991351193475
 50
224.2003765098089048
 51
230.6697824267426995
  0
ARC
  5
312BD
  8
0
 10
2914.3670894703709564
 20
86.4828157460367635
 30
0.0
 40
0.0315936276546677
 50
199.7875705876014081
 51
224.2003765098089048
  0
ARC
  5
312BE
  8
0
 10
2914.3447293052749956
 20
86.4747710702377361
 30
0.0
 40
0.0078303410177799
 50
134.5079059602072959
 51
199.787570587596008
  0
ARC
  5
312BF
  8
0
 10
2914.3444998621148443
 20
86.4750044888595255
 30
0.0
 40
0.007503036240637
 50
85.7291024167723066
 51
134.5079059602055906
  0
ARC
  5
312C0
  8
0
 10
2914.3431300866509446
 20
86.4566624570228726
 30
0.0
 40
0.0258961440997655
 50
71.7450752628748347
 51
85.7291024167723066
  0
ARC
  5
312C1
  8
0
 10
2914.3311652401339416
 20
86.4381898113019247
 30
0.0
 40
0.0475153709114045
 50
50.5290666652737031
 51
65.0055454089970226
  0
ARC
  5
312C2
  8
0
 10
2914.3718809374249759
 20
86.5490457595428779
 30
0.0
 40
0.039218369411171
 50
197.9991314060555112
 51
227.7251090215721092
  0
ARC
  5
312C3
  8
0
 10
2914.3479106762561059
 20
86.5412577513118606
 30
0.0
 40
0.0140146694307423
 50
123.1492561017385015
 51
197.9991314060555112
  0
ARC
  5
312C4
  8
0
 10
2914.3468672851340671
 20
86.5428553063035793
 30
0.0
 40
0.0121065690705047
 50
73.9359949992901591
 51
123.1492561017381036
  0
ARC
  5
312C5
  8
0
 10
2914.3444526318589851
 20
86.5344697752272936
 30
0.0
 40
0.0208328329831755
 50
52.1997260670347103
 51
73.9359949992901591
  0
ARC
  5
312C6
  8
0
 10
2914.2893621619641635
 20
86.4612077412783862
 30
0.0
 40
0.1124949093766204
 50
50.2191840177656204
 51
52.8991628447614985
  0
ARC
  5
312C7
  8
0
 10
2914.4858778119378258
 20
86.7394632666651546
 30
0.0
 40
0.2017303000786256
 50
225.2233025557474093
 51
232.9597455080341035
  0
ARC
  5
312C8
  8
0
 10
2914.3610011569039671
 20
86.6136094184396228
 30
0.0
 40
0.0244357144715912
 50
200.706211020139591
 51
225.2233025557468125
  0
ARC
  5
312C9
  8
0
 10
2914.3467305754061272
 20
86.6082152471203841
 30
0.0
 40
0.0091796802385046
 50
130.1086473136315931
 51
200.7062110201387952
  0
ARC
  5
312CA
  8
0
 10
2914.3453887602418035
 20
86.6098082158372478
 30
0.0
 40
0.0070968894981455
 50
71.7834647030506687
 51
130.1086473136321899
  0
ARC
  5
312CB
  8
0
 10
2914.3170057099569021
 20
86.5235645710812236
 30
0.0
 40
0.0978909631164295
 50
65.5655624665681529
 51
71.7834647030238671
  0
ARC
  5
312CC
  8
0
 10
2913.9721086417580409
 20
86.0194838356324283
 30
0.0
 40
0.7074011907806513
 50
55.5507186706543692
 51
56.9892281640770904
  0
ARC
  5
312CD
  8
0
 10
2916.2652209583661715
 20
89.8976502404178461
 30
0.0
 40
3.7750425526730389
 50
239.9526591453542039
 51
244.3041143396766017
  0
ARC
  5
312CE
  8
0
 10
2915.4580293319831981
 20
88.2201216622127333
 30
0.0
 40
1.9134141116573029
 50
244.3041143396766017
 51
253.2057806967235081
  0
ARC
  5
312CF
  8
0
 10
2915.4657287916829773
 20
88.245632804981696
 30
0.0
 40
1.940061814842639
 50
253.2057806967235081
 51
261.8093139659507074
  0
ARC
  5
312D0
  8
0
 10
2915.5397429284757891
 20
88.7598474409004012
 30
0.0
 40
2.4595758033340771
 50
261.8093139659507074
 51
267.4031238972638107
  0
ARC
  5
312D1
  8
0
 10
2914.4674232825991567
 20
65.1170894477700131
 30
0.0
 40
21.2074872790313407
 50
87.1457530216939062
 51
87.4031238972637965
  0
ARC
  5
312D2
  8
0
 10
2915.0425172914360701
 20
75.1146456857391058
 30
0.0
 40
11.1989582304980893
 50
87.0011163911601813
 51
87.6122475434002297
  0
ARC
  5
312D3
  8
0
 10
2915.6004034371549096
 20
88.4937607369250543
 30
0.0
 40
2.1917832166532119
 50
257.4383603444879896
 51
267.6122475434002013
  0
ARC
  5
312D4
  8
0
 10
2915.581337029252154
 20
88.4081934719635996
 30
0.0
 40
2.104117460834336
 50
247.4507345660420867
 51
257.4383603444879896
  0
ARC
  5
312D5
  8
0
 10
2917.8271168676660636
 20
93.3906479020780154
 30
0.0
 40
7.5686350984960011
 50
243.2851384314691074
 51
246.2134455482396049
  0
ARC
  5
312D6
  8
0
 10
2913.1392286056170633
 20
83.1364317882814419
 30
0.0
 40
3.7443144715954069
 50
64.122285934994224
 51
68.9095645376058883
  0
ARC
  5
312D7
  8
0
 10
2915.7064553030199932
 20
88.574063038879089
 30
0.0
 40
2.2694307949781698
 50
245.7246425792758089
 51
253.4869714511127086
  0
ARC
  5
312D8
  8
0
 10
2915.6848842699978377
 20
88.5161571060063324
 30
0.0
 40
2.2077860155839311
 50
253.5965535796636914
 51
261.5694517472063012
  0
ARC
  5
312D9
  8
0
 10
2915.7886826218809802
 20
89.2224158462914545
 30
0.0
 40
2.9216311924333178
 50
261.5864774716450256
 51
267.0096771924420977
  0
ARC
  5
312DA
  8
0
 10
2915.9345461971051918
 20
92.1450516152276009
 30
0.0
 40
5.8479006454804283
 50
267.0763113384567191
 51
268.8803307368871742
  0
ARC
  5
312DB
  8
0
 10
2915.7975904849031394
 20
78.9681802373782205
 30
0.0
 40
7.3329952865836017
 50
88.386360760710815
 51
89.2440741447402672
  0
ARC
  5
312DC
  8
0
 10
2915.9322388725749988
 20
89.1733301823825144
 30
0.0
 40
2.8730429059925959
 50
265.9848580322745875
 51
269.2440741447402957
  0
ARC
  5
312DD
  8
0
 10
2916.0865321629271421
 20
91.3714787064895404
 30
0.0
 40
5.076599883581669
 50
262.9071525760380723
 51
265.9848580322745875
  0
ARC
  5
312DE
  8
0
 10
2915.7096212003179971
 20
88.3423737697734737
 30
0.0
 40
2.0241355363087798
 50
252.4565418283405904
 51
262.9071525760380723
  0
ARC
  5
312DF
  8
0
 10
2915.9630365523848923
 20
89.1439840029250945
 30
0.0
 40
2.8648485114415041
 50
243.7082961578553864
 51
252.4565418283405904
  0
ARC
  5
312E0
  8
0
 10
2914.2439667271360122
 20
85.6644422085802546
 30
0.0
 40
1.0161838464077551
 50
63.7082961578553935
 51
71.8252385087341025
  0
ARC
  5
312E1
  8
0
 10
2916.5351830441040875
 20
90.5407200381368256
 30
0.0
 40
4.3423517052994534
 50
244.2391694842305014
 51
250.7629801316597877
  0
ARC
  5
312E2
  8
0
 10
2915.787329322430196
 20
88.4258243986551236
 30
0.0
 40
2.099164168418171
 50
251.0164757008028005
 51
262.3709421551258743
  0
ARC
  5
312E3
  8
0
 10
2916.4415505868860237
 20
93.3100880761201523
 30
0.0
 40
7.0270478048152167
 50
262.3709421551258743
 51
264.590741602428011
  0
ARC
  5
312E4
  8
0
 10
2916.0588640731562009
 20
89.268658046565406
 30
0.0
 40
2.967539749449668
 50
264.590741602428011
 51
269.4727790207816156
  0
ARC
  5
312E5
  8
0
 10
2916.017469619791882
 20
84.770239686089397
 30
0.0
 40
1.531069062909665
 50
86.3881101869006756
 51
89.4727790207816156
  0
ARC
  5
312E6
  8
0
 10
2916.4037955306671392
 20
94.2467794939815064
 30
0.0
 40
7.9471957142279059
 50
266.8617474505790028
 51
268.9151988548219947
  0
ARC
  5
312E7
  8
0
 10
2916.1737071953170926
 20
90.0502069383183255
 30
0.0
 40
3.7443202869746028
 50
256.6505913909938954
 51
266.8617474505790028
  0
ARC
  5
312E8
  8
0
 10
2915.8186474300891859
 20
88.553962866178793
 30
0.0
 40
2.206525189994295
 50
240.6889586892141892
 51
256.6505913909938954
  0
ARC
  5
312E9
  8
0
 10
2915.4212962720039286
 20
87.7377107666089557
 30
0.0
 40
1.2702393821702049
 50
240.7042268134051142
 51
249.2929266449066006
  0
ARC
  5
312EA
  8
0
 10
2916.9845582123439272
 20
91.8732193483063639
 30
0.0
 40
5.6913500032030724
 50
249.2929266449066006
 51
252.890962564645406
  0
ARC
  5
312EB
  8
0
 10
2915.8934373049351052
 20
88.3284649776146438
 30
0.0
 40
1.982464943899827
 50
252.890962564645406
 51
261.7611357565775734
  0
ARC
  5
312EC
  8
0
 10
2916.2423178319349972
 20
89.9856671412303655
 30
0.0
 40
3.6741400694508219
 50
260.0797891089740119
 51
263.5478451479896762
  0
ARC
  5
312ED
  8
0
 10
2916.3457712647427797
 20
90.923911252687077
 30
0.0
 40
4.6180675554849522
 50
263.580544698264589
 51
266.2126511557356139
  0
ARC
  5
312EE
  8
0
 10
2916.4772119024910353
 20
92.7718773886156356
 30
0.0
 40
6.4706863844409526
 50
266.1321727985757093
 51
268.0172705180257822
  0
ARC
  5
312EF
  8
0
 10
2916.4208644204481971
 20
91.263229138225995
 30
0.0
 40
4.951110143084799
 50
264.7736839797926791
 51
268.0609561254660207
  0
ARC
  5
312F0
  8
0
 10
2916.2905749831570574
 20
89.8388378011284914
 30
0.0
 40
3.520772414201125
 50
253.6571957576859973
 51
264.7736839797926791
  0
ARC
  5
312F1
  8
0
 10
2916.0981723305981177
 20
89.1826921009816544
 30
0.0
 40
2.83699908879787
 50
244.1332785192466019
 51
253.6571957576859973
  0
ARC
  5
312F2
  8
0
 10
2916.2370810821162195
 20
87.7733898284127037
 30
0.0
 40
1.166510444877157
 50
258.5913276270514984
 51
270.7984947637967821
  0
ARC
  5
312F3
  8
0
 10
2916.2921231004188485
 20
87.7328609930901564
 30
0.0
 40
1.1655153723672551
 50
251.1388578846809025
 51
268.0929757547719987
  0
ARC
  5
312F4
  8
0
 10
2916.3384107836977819
 20
88.4246213553162335
 30
0.0
 40
1.8853801857938599
 50
252.1570337048028989
 51
267.413785545118003
  0
ARC
  5
312F5
  8
0
 10
2916.6301502059041013
 20
89.5897228312486078
 30
0.0
 40
3.1088076220516441
 50
252.1884004503986887
 51
263.0381680512800813
  0
ARC
  5
312F6
  8
0
 10
2916.5151863982619034
 20
89.3580601073573462
 30
0.0
 40
2.8911315259184742
 50
250.6687996002875138
 51
264.8036173562492763
  0
ARC
  5
312F7
  8
0
 10
2916.7248859347291727
 20
89.9814094094664654
 30
0.0
 40
3.5709468579507662
 50
249.8080181016549943
 51
262.4040920417016878
  0
ARC
  5
312F8
  8
0
 10
2916.9348605221762227
 20
91.8874162191030734
 30
0.0
 40
5.5128933602248171
 50
257.3363754835860959
 51
262.8987296516033894
  0
ARC
  5
312F9
  8
0
 10
2916.2641574810800194
 20
88.9024371704680902
 30
0.0
 40
2.45349105092901
 50
247.8553074243245078
 51
257.3363754835860959
  0
ARC
  5
312FA
  8
0
 10
2917.0739278498958811
 20
92.8155520782864869
 30
0.0
 40
6.4796186542118006
 50
258.7835235297462759
 51
262.7244238921277883
  0
ARC
  5
312FB
  8
0
 10
2916.3444915749978463
 20
89.1371816563838451
 30
0.0
 40
2.7296204888969942
 50
246.7129208857604112
 51
258.7835235297462759
  0
ARC
  5
312FC
  8
0
 10
2916.6149311320091329
 20
90.6599803203532417
 30
0.0
 40
4.3026378110010626
 50
258.4197274048590884
 51
265.1791768475860067
  0
ARC
  5
312FD
  8
0
 10
2916.4337750199820221
 20
89.7759113005246547
 30
0.0
 40
3.400199132339035
 50
247.7038123418265911
 51
258.4197274048590884
  0
ARC
  5
312FE
  8
0
 10
2916.5137148873641308
 20
90.1143882450920159
 30
0.0
 40
3.773782346578693
 50
256.7222121176923793
 51
266.0436539981100168
  0
ARC
  5
312FF
  8
0
 10
2916.3154840672577848
 20
89.2743583834949703
 30
0.0
 40
2.9106800198441589
 50
245.3025253882674122
 51
256.7222121176923793
  0
ARC
  5
31300
  8
0
 10
2916.3576080749130597
 20
89.5360972072839161
 30
0.0
 40
3.1982188475418858
 50
257.0381547548769845
 51
268.1316711466078004
  0
ARC
  5
31301
  8
0
 10
2916.4409757914258989
 20
89.8983027381029274
 30
0.0
 40
3.5698948122107792
 50
246.2822542348685886
 51
257.0381547548769845
  0
ARC
  5
31302
  8
0
 10
2915.4429075680532151
 20
87.4481767272158663
 30
0.0
 40
0.9546442100893195
 50
238.9951933943351889
 51
249.7621085753152101
  0
ARC
  5
31303
  8
0
 10
2916.4084002713948394
 20
90.0669634227724885
 30
0.0
 40
3.74574075392845
 50
249.7621085753152101
 51
256.0339314420199912
  0
ARC
  5
31304
  8
0
 10
2916.3803414236008393
 20
89.9541409329223143
 30
0.0
 40
3.629481504165188
 50
256.0339314420199912
 51
263.7756821213624789
  0
ARC
  5
31305
  8
0
 10
2916.7369708144938159
 20
93.2240436610684355
 30
0.0
 40
6.918774494153463
 50
263.7756821213624789
 51
265.9916650398697016
  0
ARC
  5
31306
  8
0
 10
2911.3063570546860319
 20
83.1470288550325733
 30
0.0
 40
0.1960214486554257
 50
154.9227773604849858
 51
160.5608347233556117
  0
ARC
  5
31307
  8
0
 10
2912.2502105551511704
 20
82.7053530365894005
 30
0.0
 40
1.2381044390829199
 50
152.3177539136995051
 51
154.9227773604849858
  0
ARC
  5
31308
  8
0
 10
2913.0842589267108451
 20
82.2677974763333566
 30
0.0
 40
2.1799598177970072
 50
151.5805642140709892
 51
152.3177539136995051
  0
ARC
  5
31309
  8
0
 10
2911.1243690575211076
 20
83.2114429008502867
 30
0.0
 40
0.0029754182817482
 50
163.94201701199421
 51
195.0769783225536003
  0
ARC
  5
3130A
  8
0
 10
2911.1230695948288485
 20
83.2110928389886766
 30
0.0
 40
0.0016296298170586
 50
195.076978322493801
 51
297.5004132915506716
  0
ARC
  5
3130B
  8
0
 10
2911.1200423018758556
 20
83.2169081122296461
 30
0.0
 40
0.0081856885032132
 50
297.5004132915748869
 51
320.8851106550138752
  0
ARC
  5
3130C
  8
0
 10
2911.0803415479449541
 20
83.2491891741306347
 30
0.0
 40
0.0593542024554207
 50
320.8851106550138752
 51
339.0364331234815722
  0
ARC
  5
3130D
  8
0
 10
2912.2891864524381162
 20
82.7860388199976569
 30
0.0
 40
1.2351782435073271
 50
157.5217807410556077
 51
159.0364331234816007
  0
ARC
  5
3130E
  8
0
 10
2911.6550959023438736
 20
83.0484053662192139
 30
0.0
 40
0.5489515824875543
 50
151.8843989648779882
 51
157.5217807410556077
  0
ARC
  5
3130F
  8
0
 10
2903.5816041362768374
 20
87.3620739879874151
 30
0.0
 40
8.6046819187608765
 50
331.8843989648780735
 51
332.215288984483891
  0
ARC
  5
31310
  8
0
 10
2912.0341689169022175
 20
82.9084242322542337
 30
0.0
 40
0.9494191649312382
 50
150.2162331501814947
 51
152.215288984483891
  0
ARC
  5
31311
  8
0
 10
2912.1954185260328813
 20
82.8391833813754062
 30
0.0
 40
1.1214562693540171
 50
153.1954179070363864
 51
157.8821944466210994
  0
ARC
  5
31312
  8
0
 10
2911.6301128720729139
 20
83.0689348733910577
 30
0.0
 40
0.5112462805123748
 50
157.8821944466210994
 51
163.5787235571451106
  0
ARC
  5
31313
  8
0
 10
2911.2304798166128421
 20
83.1867145516414865
 30
0.0
 40
0.0946185910516281
 50
163.5787235571459064
 51
168.4112737101168022
  0
ARC
  5
31314
  8
0
 10
2911.1447854321781961
 20
83.2042875112378368
 30
0.0
 40
0.0071409571529124
 50
168.4112737101168022
 51
200.9287648433960953
  0
ARC
  5
31315
  8
0
 10
2911.1416275323090304
 20
83.2030798096129161
 30
0.0
 40
0.0037599994776716
 50
200.9287648434251992
 51
281.5149034291877115
  0
ARC
  5
31316
  8
0
 10
2911.1396257894948576
 20
83.2077171214061053
 30
0.0
 40
0.0087649795766133
 50
288.3012878482932138
 51
319.0026657119810807
  0
ARC
  5
31317
  8
0
 10
2911.1231180592158125
 20
83.224472073465904
 30
0.0
 40
0.0322705818926506
 50
316.053597285615183
 51
346.9464451362002819
  0
ARC
  5
31318
  8
0
 10
2911.6668685830450158
 20
83.0984019198560446
 30
0.0
 40
0.5259035090459339
 50
157.5115580283550969
 51
166.9464451362003103
  0
ARC
  5
31319
  8
0
 10
2912.9400582908310753
 20
82.5713303512251144
 30
0.0
 40
1.9038790060963111
 50
155.4041574211850048
 51
157.5115580283550969
  0
ARC
  5
3131A
  8
0
 10
2912.2419378764511748
 20
82.8908935596610235
 30
0.0
 40
1.13609468927324
 50
151.2248838625613985
 51
155.4041574211850048
  0
ARC
  5
3131B
  8
0
 10
2905.645359210594961
 20
86.5136634627168064
 30
0.0
 40
6.3898146820457367
 50
331.2248838625613985
 51
331.7889084351301108
  0
ARC
  5
3131C
  8
0
 10
2913.8829771609148338
 20
82.0946381077862668
 30
0.0
 40
2.958240440970247
 50
151.3491372392554979
 51
151.7889084351301108
  0
ARC
  5
3131D
  8
0
 10
2916.016164874792139
 20
80.8918859485968653
 30
0.0
 40
5.4098152441383602
 50
152.0973334029629029
 51
153.0355092922708877
  0
ARC
  5
3131E
  8
0
 10
2910.9923706919539654
 20
83.5644792360320849
 30
0.0
 40
0.8477596799105114
 50
348.6145491550145721
 51
352.7459980695483068
  0
ARC
  5
3131F
  8
0
 10
2911.8354605668409931
 20
83.3947052767324664
 30
0.0
 40
0.0122541190445151
 50
168.6145491550144868
 51
227.3159805723838076
  0
ARC
  5
31320
  8
0
 10
2914.0260373034070653
 20
83.2330906888457065
 30
0.0
 40
2.2592345325366461
 50
173.5329818481164921
 51
177.9779539174687955
  0
ARC
  5
31321
  8
0
 10
2911.7929970602299363
 20
83.3119304537489143
 30
0.0
 40
0.0248029636185016
 50
177.9779539174687955
 51
222.8744958631901909
  0
ARC
  5
31322
  8
0
 10
2930.4787128915659196
 20
81.4868981674639059
 30
0.0
 40
18.8332825161808906
 50
173.8534347682063128
 51
174.6371285196235021
  0
ARC
  5
31323
  8
0
 10
2911.7584594457339335
 20
83.2442444726592754
 30
0.0
 40
0.0307253732668901
 50
174.6371285196235021
 51
218.5495455933796052
  0
ARC
  5
31324
  8
0
 10
2885.4742814625160463
 20
86.0374919802846136
 30
0.0
 40
26.3637397869228813
 50
353.7094285101300102
 51
354.5293013132886131
  0
ARC
  5
31325
  8
0
 10
2911.6909030736860586
 20
83.1475166811397344
 30
0.0
 40
0.0116882841617884
 50
173.7094285101267985
 51
234.6267902662019935
  0
ARC
  5
31326
  8
0
 10
3036.2451980887749414
 20
69.7401068905090398
 30
0.0
 40
125.3220871839367021
 50
173.6767539673147951
 51
173.893313132994308
  0
ARC
  5
31327
  8
0
 10
2911.6488800643228387
 20
83.070319680044733
 30
0.0
 40
0.0147169367543642
 50
173.8933131329935122
 51
227.0421894366477034
  0
ARC
  5
31328
  8
0
 10
2933.0394875222250448
 20
81.1966761700408171
 30
0.0
 40
21.5229177467802693
 50
173.6828729739453081
 51
175.2137110542828964
  0
ARC
  5
31329
  8
0
 10
2911.6019323159848682
 20
82.9916718344457962
 30
0.0
 40
0.010345082037437
 50
175.213711054284488
 51
229.044705151821006
  0
ARC
  5
3132A
  8
0
 10
3013.5733902815941292
 20
74.5944050730064987
 30
0.0
 40
102.3601205792422064
 50
175.0877100746072017
 51
175.3006235097024899
  0
ARC
  5
3132B
  8
0
 10
2914.8117957840599956
 20
83.0826008671197656
 30
0.0
 40
3.2344326091978588
 50
171.1042697102961085
 51
175.0877100746072017
  0
ARC
  5
3132C
  8
0
 10
2915.544678172717795
 20
82.9159681466387468
 30
0.0
 40
4.0140694481167394
 50
170.2105305695619961
 51
177.0223341684049103
  0
ARC
  5
3132D
  8
0
 10
2905.1039921876267726
 20
83.4590603891334837
 30
0.0
 40
6.4407319858241934
 50
355.9138948201231756
 51
357.0223341684048819
  0
ARC
  5
3132E
  8
0
 10
2915.4196665924951049
 20
82.8436864615886748
 30
0.0
 40
3.9353790859724578
 50
168.6985564838869891
 51
177.4470833969384955
  0
ARC
  5
3132F
  8
0
 10
2914.1081145609118721
 20
83.0431133471830094
 30
0.0
 40
2.6454714769337251
 50
167.1157986827172124
 51
180.0842946236020055
  0
ARC
  5
31330
  8
0
 10
2913.5831146964701475
 20
83.096824264063315
 30
0.0
 40
2.1517099761754932
 50
165.1567516428376905
 51
181.0622928521576966
  0
ARC
  5
31331
  8
0
 10
2912.8839173910359932
 20
83.1438519475908464
 30
0.0
 40
1.480291481220178
 50
168.3698460556842065
 51
182.7728910243347968
  0
ARC
  5
31332
  8
0
 10
2914.5115331939341559
 20
82.8088576242971754
 30
0.0
 40
3.1420238298500949
 50
164.3250980706197026
 51
168.3698460556842065
  0
ARC
  5
31333
  8
0
 10
2913.2034414619929521
 20
83.0980931775181091
 30
0.0
 40
1.829216577900221
 50
161.8096541331682943
 51
173.7894193053215872
  0
ARC
  5
31334
  8
0
 10
2912.7718476609788922
 20
83.1450599121531155
 30
0.0
 40
1.3950748000937949
 50
173.7894193053215872
 51
182.3444712272653021
  0
ARC
  5
31335
  8
0
 10
2912.6816218976100572
 20
83.131455075984519
 30
0.0
 40
1.334072606524034
 50
169.5953085068915129
 51
181.118815531469096
  0
ARC
  5
31336
  8
0
 10
2913.2233460239490341
 20
83.034926287383712
 30
0.0
 40
1.8843242833948239
 50
160.0583163273884963
 51
169.6832950065391117
  0
ARC
  5
31337
  8
0
 10
2913.5036095016530453
 20
82.8861631093187867
 30
0.0
 40
2.2153868224655389
 50
158.8385841503867084
 51
163.6481341949323109
  0
ARC
  5
31338
  8
0
 10
2912.7374492863791602
 20
83.1109570903976476
 30
0.0
 40
1.4169296793457671
 50
163.6481341949323109
 51
179.5804766464860052
  0
ARC
  5
31339
  8
0
 10
2912.2731959667389674
 20
83.1605505916997174
 30
0.0
 40
0.9810663634344585
 50
168.8634533625711924
 51
181.3497382986429045
  0
ARC
  5
3133A
  8
0
 10
2912.5560940824570935
 20
83.1048607696513955
 30
0.0
 40
1.2693937817570311
 50
161.0899569220048875
 51
168.8634533625711924
  0
ARC
  5
3133B
  8
0
 10
2913.5754301214960833
 20
82.7556644075030476
 30
0.0
 40
2.3468834846415292
 50
156.4414461377332088
 51
161.0899569220048875
  0
ARC
  5
3133C
  8
0
 10
2913.9533126783589978
 20
82.5147140799071508
 30
0.0
 40
2.8023580735495051
 50
154.9861004381351961
 51
156.9897697481974035
  0
ARC
  5
3133D
  8
0
 10
2912.9437113266521919
 20
82.9434771902676431
 30
0.0
 40
1.705484017801129
 50
156.9897697481974035
 51
165.2770486053555032
  0
ARC
  5
3133E
  8
0
 10
2912.047414379338079
 20
83.1790000798963689
 30
0.0
 40
0.7787590050255848
 50
165.2770486053555032
 51
182.1603886707868014
  0
ARC
  5
3133F
  8
0
 10
2912.1009596793442142
 20
83.1391950113594902
 30
0.0
 40
0.8590157197870899
 50
167.1062459510918075
 51
178.1854122254723904
  0
ARC
  5
31340
  8
0
 10
2912.3985988984491087
 20
83.0710606775955966
 30
0.0
 40
1.1643538801697251
 50
157.0395585341472042
 51
167.1062459510918075
  0
ARC
  5
31341
  8
0
 10
2915.5352146495911256
 20
81.7422013338015603
 30
0.0
 40
4.5708514254358654
 50
155.3987578676880048
 51
157.0395585341472042
  0
ARC
  5
31342
  8
0
 10
2912.6938089192608459
 20
83.0431729585405662
 30
0.0
 40
1.445773235577587
 50
152.8335511736646879
 51
155.3987578676880048
  0
ARC
  5
31343
  8
0
 10
2914.8900104070607995
 20
81.8703066035171929
 30
0.0
 40
3.9406766873405221
 50
152.237336859902797
 51
153.4711869650618041
  0
ARC
  5
31344
  8
0
 10
2913.2805759846310139
 20
82.6737518082344138
 30
0.0
 40
2.141842799210075
 50
153.4711869650618041
 51
161.1662219489753909
  0
ARC
  5
31345
  8
0
 10
2911.8305158370471872
 20
83.1683466773264541
 30
0.0
 40
0.6097532077882284
 50
161.1662219489753909
 51
179.1233345543363953
  0
ARC
  5
31346
  8
0
 10
2911.9457523756718729
 20
83.1215425873145364
 30
0.0
 40
0.7484620190348491
 50
157.1418530327565861
 51
174.7144823055110123
  0
ARC
  5
31347
  8
0
 10
2914.3735310831280003
 20
82.0980979358376715
 30
0.0
 40
3.3831438607403279
 50
154.2318452063965992
 51
157.1418530327565861
  0
ARC
  5
31348
  8
0
 10
2912.4758399305042076
 20
83.014176801247487
 30
0.0
 40
1.275910556524285
 50
151.0586905509435951
 51
154.2318452063965992
  0
ARC
  5
31349
  8
0
 10
2906.257432774382778
 20
86.4527739414919552
 30
0.0
 40
5.8298995909673366
 50
331.0586905509435951
 51
331.9061395751554073
  0
ARC
  5
3134A
  8
0
 10
2911.7612767877430997
 20
83.132953647579626
 30
0.0
 40
0.5822111997103271
 50
159.5433062406420959
 51
173.3062900123300949
  0
ARC
  5
3134B
  8
0
 10
2912.9705636121188945
 20
82.6818613308854822
 30
0.0
 40
1.8728927645399209
 50
154.8872886008153102
 51
159.5433062406420959
  0
ARC
  5
3134C
  8
0
 10
2912.703538910070165
 20
82.8070170892462585
 30
0.0
 40
1.577992518091841
 50
151.0247356736618087
 51
154.8872886008153102
  0
ARC
  5
3134D
  8
0
 10
2903.1103427748621471
 20
88.1191997387751229
 30
0.0
 40
9.3878041511212231
 50
331.0247356736617803
 51
331.4624991749170135
  0
ARC
  5
3134E
  8
0
 10
2910.5323897682460483
 20
84.0830648672801431
 30
0.0
 40
0.9393033212169882
 50
331.4624991749170135
 51
332.3891747884464962
  0
ARC
  5
3134F
  8
0
 10
2911.8599373633228424
 20
83.0760886448171618
 30
0.0
 40
0.7044750213868946
 50
159.0087934114042127
 51
169.0385378138753936
  0
ARC
  5
31350
  8
0
 10
2912.3055809155548559
 20
82.9051005808048842
 30
0.0
 40
1.181795766463577
 50
154.8013812721601141
 51
159.0087934114042127
  0
ARC
  5
31351
  8
0
 10
2912.9792111171918805
 20
82.5881341046204369
 30
0.0
 40
1.9262723581590131
 50
151.9473926739698015
 51
154.8013812721601141
  0
ARC
  5
31352
  8
0
 10
2921.0392060028339074
 20
78.2930614928069843
 30
0.0
 40
11.0592437419595804
 50
151.4536372841818093
 51
151.9473926739698015
  0
ARC
  5
31353
  8
0
 10
2911.3349235193200002
 20
83.1731483833664669
 30
0.0
 40
0.17065255139007
 50
167.5134875239498911
 51
174.2428064914830941
  0
ARC
  5
31354
  8
0
 10
2911.1718781964427762
 20
83.1895868623116144
 30
0.0
 40
0.0067806474468303
 50
174.2428064914927859
 51
302.28629333267628
  0
ARC
  5
31355
  8
0
 10
2911.1550849548812039
 20
83.2020268778760368
 30
0.0
 40
0.0279754706829654
 50
330.5928442972140147
 51
357.5216737613978921
  0
ARC
  5
31356
  8
0
 10
2911.1673203421560174
 20
83.1951305780716552
 30
0.0
 40
0.013930412735637
 50
305.9575442198477049
 51
330.5928442972132757
  0
ARC
  5
31357
  8
0
 10
2911.3676497875630957
 20
83.1700730137042257
 30
0.0
 40
0.1684114094905309
 50
173.0366311811156095
 51
178.2822334401795956
  0
ARC
  5
31358
  8
0
 10
2911.2116126422902198
 20
83.1747525159031085
 30
0.0
 40
0.0123041116283007
 50
178.2822334401722912
 51
288.6318673660458103
  0
ARC
  5
31359
  8
0
 10
2911.1788791295548435
 20
83.1803959174818459
 30
0.0
 40
0.0420429488999491
 50
342.4511320361716002
 51
356.2906785530836942
  0
ARC
  5
3135A
  8
0
 10
2911.2105147856668736
 20
83.170391560771975
 30
0.0
 40
0.0088631072660971
 50
304.5685363682648017
 51
342.4511320361668822
  0
ARC
  5
3135B
  8
0
 10
2911.2530477057957796
 20
83.1492777817861253
 30
0.0
 40
0.0161587018606548
 50
307.1266361708413797
 51
1.3095179316757151
  0
ARC
  5
3135C
  8
0
 10
2911.2550938906178999
 20
83.1465748531969666
 30
0.0
 40
0.012768614061883
 50
278.2305815520568899
 51
307.1266361708190971
  0
ARC
  5
3135D
  8
0
 10
2911.2558137235409959
 20
83.1415983756539845
 30
0.0
 40
0.007740345157635
 50
225.1416185537514139
 51
278.2305815520570036
  0
ARC
  5
3135E
  8
0
 10
2911.2555573364070369
 20
83.1482601548989351
 30
0.0
 40
0.0132159592743192
 50
185.0962356576150114
 51
246.8141580974186979
  0
ARC
  5
3135F
  8
0
 10
2911.473151696388868
 20
83.1569349327774745
 30
0.0
 40
0.2309681513175588
 50
177.652799563770003
 51
182.4438961509985972
  0
ARC
  5
31360
  8
0
 10
2911.4348019195908819
 20
83.1365606095344276
 30
0.0
 40
0.1424344211671547
 50
179.7662733666824124
 51
188.4647374138658051
  0
ARC
  5
31361
  8
0
 10
2911.3069070957471922
 20
83.1175270633899572
 30
0.0
 40
0.013131049806883
 50
188.4647374138650093
 51
291.7931414984435037
  0
ARC
  5
31362
  8
0
 10
2911.3060868256980029
 20
83.1188642982168631
 30
0.0
 40
0.0146796390827193
 50
292.8282480780911783
 51
9.6769780524576241
  0
ARC
  5
31363
  8
0
 10
2911.5132620065101037
 20
83.1065354709846389
 30
0.0
 40
0.1654622328252974
 50
180.3910173758465874
 51
185.9091172853588034
  0
ARC
  5
31364
  8
0
 10
2911.3722800304572047
 20
83.0919437270585064
 30
0.0
 40
0.0237271399137229
 50
185.9091172853580076
 51
215.6514799939953093
  0
ARC
  5
31365
  8
0
 10
2911.3659596812631207
 20
83.0874102064258722
 30
0.0
 40
0.0159489895383983
 50
215.6514799939945988
 51
251.614587362530699
  0
ARC
  5
31366
  8
0
 10
2911.3718472531691077
 20
83.1051239566793356
 30
0.0
 40
0.0346155492373364
 50
251.614587362530898
 51
267.1621482356985098
  0
ARC
  5
31367
  8
0
 10
2911.3639782575901336
 20
83.0837738214580668
 30
0.0
 40
0.0145853748282123
 50
294.961635850243681
 51
16.8068781625255887
  0
ARC
  5
31368
  8
0
 10
2911.5932526421747752
 20
83.0797725372013645
 30
0.0
 40
0.1880406995327212
 50
182.2964536349888078
 51
188.9324971909107944
  0
ARC
  5
31369
  8
0
 10
2911.4197843189867854
 20
83.0525073127663234
 30
0.0
 40
0.0124427165902421
 50
188.932497190905309
 51
249.8845432698662137
  0
ARC
  5
3136A
  8
0
 10
2911.4216629689472029
 20
83.0576366769733454
 30
0.0
 40
0.0179052895044101
 50
249.8845432698659863
 51
290.1154567301334168
  0
ARC
  5
3136B
  8
0
 10
2911.4197740753497783
 20
83.0499490828230051
 30
0.0
 40
0.0121665535059121
 50
311.4054598897955088
 51
356.8533995839148929
  0
ARC
  5
3136C
  8
0
 10
2911.3153586600751623
 20
83.0501948881121592
 30
0.0
 40
0.1165672064965077
 50
359.5509184408343799
 51
2.9198513786179801
  0
ARC
  5
3136D
  8
0
 10
2911.5154224884950054
 20
83.0298272971429157
 30
0.0
 40
0.0536060656151359
 50
169.9073128314201995
 51
194.788587659922598
  0
ARC
  5
3136E
  8
0
 10
2911.4762016257050163
 20
83.0194730552348545
 30
0.0
 40
0.0130414701725704
 50
194.7885876599241897
 51
301.7150388336336277
  0
ARC
  5
3136F
  8
0
 10
2911.477285165658941
 20
83.0177196841030565
 30
0.0
 40
0.0109803129351166
 50
301.7150388336340257
 51
6.5717260917898992
  0
ARC
  5
31370
  8
0
 10
2911.5444556641459712
 20
82.9791527472418693
 30
0.0
 40
0.0129935163472789
 50
302.1016401099601012
 51
6.0868610020381748
  0
ARC
  5
31371
  8
0
 10
2911.5458020230348666
 20
82.9770066037418843
 30
0.0
 40
0.010460017939442
 50
221.0043445287224131
 51
302.1016401099604991
  0
ARC
  5
31372
  8
0
 10
2911.5491446787159475
 20
82.9881228309121042
 30
0.0
 40
0.0212016297462456
 50
191.9054136179003933
 51
237.9959878677867096
  0
ARC
  5
31373
  8
0
 10
2911.6079752134842238
 20
82.9919357394335151
 30
0.0
 40
0.0799961210257892
 50
174.1261159843271003
 51
185.8738840156607068
  0
ARC
  5
31374
  8
0
 10
2911.8887845092649513
 20
82.6526196455817654
 30
0.0
 40
0.0211962000198099
 50
240.0000001757047983
 51
284.9999999985109866
  0
ARC
  5
31375
  8
0
 10
2911.880857842801106
 20
82.8153406703546011
 30
0.0
 40
0.1960214486554257
 50
319.4391652751605761
 51
325.0772226380329926
  0
ARC
  5
31376
  8
0
 10
2911.0264286135738985
 20
83.411903870009084
 30
0.0
 40
1.2381044390829199
 50
325.0772226380329926
 51
327.6822460848155742
  0
ARC
  5
31377
  8
0
 10
2910.2304701970588212
 20
83.915433167657568
 30
0.0
 40
2.1799598177970072
 50
327.6822460848155742
 51
328.4194357844422143
  0
ARC
  5
31378
  8
0
 10
2912.0276360414191004
 20
82.6899414645307616
 30
0.0
 40
0.0029754182817482
 50
284.9230216759680729
 51
316.0579829865232
  0
ARC
  5
31379
  8
0
 10
2912.0279826102992047
 20
82.6886410658984516
 30
0.0
 40
0.0016296298170586
 50
182.4995867069534086
 51
284.9230216760229268
  0
ARC
  5
3137A
  8
0
 10
2912.0345324311329023
 20
82.688926989915899
 30
0.0
 40
0.0081856885032132
 50
159.1148893434965998
 51
182.4995867069476958
  0
ARC
  5
3137B
  8
0
 10
2912.0823390277651015
 20
82.6706856594122428
 30
0.0
 40
0.0593542024554207
 50
140.9635668750420905
 51
159.1148893434965998
  0
ARC
  5
3137C
  8
0
 10
2911.0768166030889006
 20
83.4860008788974426
 30
0.0
 40
1.2351782435073271
 50
320.9635668750422042
 51
322.4782192574617739
  0
ARC
  5
3137D
  8
0
 10
2911.6210779722559892
 20
83.0680456273133387
 30
0.0
 40
0.5489515824875543
 50
322.4782192574617739
 51
328.1156010336396207
  0
ARC
  5
3137E
  8
0
 10
2919.3935704651230481
 20
78.2330309713376266
 30
0.0
 40
8.6046819187608765
 50
147.7847110140264135
 51
148.1156010336395923
  0
ARC
  5
3137F
  8
0
 10
2911.3103142469199156
 20
83.326341920835489
 30
0.0
 40
0.9494191649312382
 50
327.7847110140265272
 51
329.7837668483322773
  0
ARC
  5
31380
  8
0
 10
2911.1697251065161254
 20
83.4313677532568647
 30
0.0
 40
1.1214562693540171
 50
322.117805551895799
 51
326.8045820914812793
  0
ARC
  5
31381
  8
0
 10
2911.6513485621289874
 20
83.0566744420202241
 30
0.0
 40
0.5112462805123748
 50
316.4212764413636023
 51
322.117805551895799
  0
ARC
  5
31382
  8
0
 10
2911.9531652832661166
 20
82.769471902916905
 30
0.0
 40
0.0946185910516281
 50
311.5887262883990161
 51
316.4212764413636023
  0
ARC
  5
31383
  8
0
 10
2912.0112311049119853
 20
82.7040448688319429
 30
0.0
 40
0.0071409571529124
 50
279.0712351551047163
 51
311.5887262883990161
  0
ARC
  5
31384
  8
0
 10
2912.0117641545598417
 20
82.7007061965097137
 30
0.0
 40
0.0037599994776716
 50
198.4850965693271121
 51
279.0712351551040911
  0
ARC
  5
31385
  8
0
 10
2912.0167810557841221
 20
82.7012912922778156
 30
0.0
 40
0.0087649795766133
 50
160.9973342865424968
 51
191.6987121502330922
  0
ARC
  5
31386
  8
0
 10
2912.0395451350468647
 20
82.6953726545264374
 30
0.0
 40
0.0322705818926506
 50
133.0535548623205955
 51
163.9464027129029944
  0
ARC
  5
31387
  8
0
 10
2911.6584899174581551
 20
83.1032393446880775
 30
0.0
 40
0.5259035090459339
 50
313.0535548623205955
 51
322.4884419701618867
  0
ARC
  5
31388
  8
0
 10
2910.565437695539913
 20
83.9423181911804903
 30
0.0
 40
1.9038790060963111
 50
322.4884419701618867
 51
324.5958425773346221
  0
ARC
  5
31389
  8
0
 10
2911.1912477593377844
 20
83.4975097816289349
 30
0.0
 40
1.13609468927324
 50
324.5958425773346221
 51
328.7751161359635148
  0
ARC
  5
3138A
  8
0
 10
2917.6269478602780509
 20
79.596090030296736
 30
0.0
 40
6.3898146820457367
 50
148.2110915633838033
 51
148.7751161359634864
  0
ARC
  5
3138B
  8
0
 10
2909.6811506679068771
 20
84.5205637646847663
 30
0.0
 40
2.958240440970247
 50
328.2110915633837749
 51
328.6508627592572793
  0
ARC
  5
3138C
  8
0
 10
2907.5729428866870876
 20
85.7665824364032403
 30
0.0
 40
5.4098152441383602
 50
326.9644907062474886
 51
327.9026665955602198
  0
ARC
  5
3138D
  8
0
 10
2912.399373658930017
 20
82.7521456942734659
 30
0.0
 40
0.8477596799105114
 50
127.2540019289569955
 51
131.3854508434972104
  0
ARC
  5
3138E
  8
0
 10
2911.8308001598488772
 20
83.3973959639638451
 30
0.0
 40
0.0122541190445151
 50
252.6840194261382067
 51
311.3854508434973241
  0
ARC
  5
3138F
  8
0
 10
2910.5955494528811869
 20
85.2136837728580048
 30
0.0
 40
2.2592345325366461
 50
302.0220460810473924
 51
306.4670181503930166
  0
ARC
  5
31390
  8
0
 10
2911.7803468136548872
 20
83.3192340770146558
 30
0.0
 40
0.0248029636185016
 50
257.1255041353238084
 51
302.0220460810473924
  0
ARC
  5
31391
  8
0
 10
2900.8569645757329454
 20
98.5890225319888174
 30
0.0
 40
18.8332825161808906
 50
305.3628714788846992
 51
306.1465652303152751
  0
ARC
  5
31392
  8
0
 10
2911.7389978417982093
 20
83.2554806349313878
 30
0.0
 40
0.0307253732668901
 50
261.4504544051242192
 51
305.3628714788843013
  0
ARC
  5
31393
  8
0
 10
2927.3001101335139538
 20
61.8893385372819225
 30
0.0
 40
26.3637397869228813
 50
125.4706986852311985
 51
126.2905714883873998
  0
ARC
  5
31394
  8
0
 10
2911.6890073031099746
 20
83.1486112047917487
 30
0.0
 40
0.0116882841617884
 50
245.3732097322962034
 51
306.2905714883888777
  0
ARC
  5
31395
  8
0
 10
2837.800702320552773
 20
184.3120899449189096
 30
0.0
 40
125.3220871839367021
 50
306.1066868655249777
 51
306.3232460311913883
  0
ARC
  5
31396
  8
0
 10
2911.6431642437451046
 20
83.0736197105940306
 30
0.0
 40
0.0147169367543642
 50
252.9578105618645907
 51
306.1066868655249777
  0
ARC
  5
31397
  8
0
 10
2899.3252376379518864
 20
100.6616074168346984
 30
0.0
 40
21.5229177467802693
 50
304.7862889442363894
 51
306.3171270245748019
  0
ARC
  5
31398
  8
0
 10
2911.5985270856717761
 20
82.9936378450836685
 30
0.0
 40
0.010345082037437
 50
250.9552948466819089
 51
304.7862889442358778
  0
ARC
  5
31399
  8
0
 10
2853.3405517672849783
 20
167.1048775250280016
 30
0.0
 40
102.3601205792422064
 50
304.699376488813698
 51
304.9122899239094977
  0
ARC
  5
3139A
  8
0
 10
2910.072342203945027
 20
85.8189256674926639
 30
0.0
 40
3.2344326091978588
 50
304.9122899239094977
 51
308.8957302882250247
  0
ARC
  5
3139B
  8
0
 10
2909.5615928405918567
 20
86.3703040738295584
 30
0.0
 40
4.0140694481167394
 50
302.9776658301158818
 51
309.7894694289532822
  0
ARC
  5
3139C
  8
0
 10
2915.252267511509217
 20
77.5999508989045523
 30
0.0
 40
6.4407319858241934
 50
122.977665830115896
 51
124.0861051783852957
  0
ARC
  5
3139D
  8
0
 10
2909.5615008552172185
 20
86.2259000270646538
 30
0.0
 40
3.9353790859724578
 50
302.5529166015755891
 51
311.3014435146382084
  0
ARC
  5
3139E
  8
0
 10
2910.389985620105108
 20
85.1897760921037843
 30
0.0
 40
2.6454714769337251
 50
299.9157053749112833
 51
312.8842013158040913
  0
ARC
  5
3139F
  8
0
 10
2910.6990005707930322
 20
84.7619683309460612
 30
0.0
 40
2.1517099761754932
 50
298.9377071463553079
 51
314.8432483556740067
  0
ARC
  5
313A0
  8
0
 10
2911.0893263921120706
 20
84.179959543936377
 30
0.0
 40
1.480291481220178
 50
297.2271089741710739
 51
311.6301539428220053
  0
ARC
  5
313A1
  8
0
 10
2909.9854048965980837
 20
85.42201901522904
 30
0.0
 40
3.1420238298500949
 50
311.6301539428220053
 51
315.6749019278925061
  0
ARC
  5
313A2
  8
0
 10
2910.8899360993100345
 20
84.4337961214750834
 30
0.0
 40
1.829216577900221
 50
306.2105806931995744
 51
318.1903458653382017
  0
ARC
  5
313A3
  8
0
 10
2911.1464073851348076
 20
84.0835082929909987
 30
0.0
 40
1.3950748000937949
 50
297.6555287712521931
 51
306.2105806931995744
  0
ARC
  5
313A4
  8
0
 10
2911.1797381330798089
 20
83.9985680717529846
 30
0.0
 40
1.334072606524034
 50
298.881184467037599
 51
310.4046914916166884
  0
ARC
  5
313A5
  8
0
 10
2910.825279686797785
 20
84.419450532713384
 30
0.0
 40
1.8843242833948239
 50
310.3167049919708802
 51
319.9416836711317842
  0
ARC
  5
313A6
  8
0
 10
2910.5563152565969176
 20
84.5877842351335545
 30
0.0
 40
2.2153868224655389
 50
316.3518658035865201
 51
321.1614158481236245
  0
ARC
  5
313A7
  8
0
 10
2911.1340726624521267
 20
84.0366670158612266
 30
0.0
 40
1.4169296793457671
 50
300.419523352040585
 51
316.3518658035865201
  0
ARC
  5
313A8
  8
0
 10
2911.4091485542530791
 20
83.6594085979058093
 30
0.0
 40
0.9810663634344585
 50
298.6502616998735107
 51
311.1365466359374068
  0
ARC
  5
313A9
  8
0
 10
2911.2194706957729977
 20
83.8765606417810687
 30
0.0
 40
1.2693937817570311
 50
311.1365466359374068
 51
318.9100430765117267
  0
ARC
  5
313AA
  8
0
 10
2910.4073897557432247
 20
84.5847333655290612
 30
0.0
 40
2.3468834846415292
 50
318.9100430765117267
 51
323.5585538607861054
  0
ARC
  5
313AB
  8
0
 10
2910.0097793725690281
 20
84.7915140956311717
 30
0.0
 40
2.8023580735495051
 50
323.0102302503177043
 51
325.0138995603716126
  0
ARC
  5
313AC
  8
0
 10
2910.885899794182933
 20
84.1315552325156659
 30
0.0
 40
1.705484017801129
 50
314.7229513931631004
 51
323.0102302503177043
  0
ARC
  5
313AD
  8
0
 10
2911.5380170734138119
 20
83.4731007516045764
 30
0.0
 40
0.7787590050255848
 50
297.8396113277365203
 51
314.7229513931631004
  0
ARC
  5
313AE
  8
0
 10
2911.4767722228589264
 20
83.4995698073973074
 30
0.0
 40
0.8590157197870899
 50
301.8145877730349866
 51
312.893754047420714
  0
ARC
  5
313AF
  8
0
 10
2911.2689465494040633
 20
83.7232657654267456
 30
0.0
 40
1.1643538801697251
 50
312.893754047420714
 51
322.9604414643787891
  0
ARC
  5
313B0
  8
0
 10
2908.5498127241039583
 20
85.7752250160000216
 30
0.0
 40
4.5708514254358654
 50
322.9604414643787891
 51
324.6012421308255966
  0
ARC
  5
313B1
  8
0
 10
2911.0971900658491904
 20
83.9649812833791316
 30
0.0
 40
1.445773235577587
 50
324.6012421308255966
 51
327.1664488248420071
  0
ARC
  5
313B2
  8
0
 10
2908.9833572632878713
 20
85.2805143861863399
 30
0.0
 40
3.9406766873405221
 50
326.5288130334504899
 51
327.7626631386215195
  0
ARC
  5
313B3
  8
0
 10
2910.4838784323110303
 20
84.2884258929563401
 30
0.0
 40
2.141842799210075
 50
318.8337780495431844
 51
326.5288130334504899
  0
ARC
  5
313B4
  8
0
 10
2911.6372402272918407
 20
83.279934402649431
 30
0.0
 40
0.6097532077882284
 50
300.876665444181981
 51
318.8337780495425022
  0
ARC
  5
313B5
  8
0
 10
2911.5390884270300376
 20
83.3563301275392945
 30
0.0
 40
0.7484620190348491
 50
305.2855176930036123
 51
322.8581469657630123
  0
ARC
  5
313B6
  8
0
 10
2909.4388700057979804
 20
84.9471258372790032
 30
0.0
 40
3.3831438607403279
 50
322.8581469657630123
 51
325.7681547921142169
  0
ARC
  5
313B7
  8
0
 10
2911.181063151394028
 20
83.761716523229552
 30
0.0
 40
1.275910556524285
 50
325.7681547921142169
 51
328.9413094475729054
  0
ARC
  5
313B8
  8
0
 10
2917.26817920619078
 20
80.0957165249183163
 30
0.0
 40
5.8298995909673366
 50
148.0938604233566878
 51
148.9413094475727917
  0
ARC
  5
313B9
  8
0
 10
2911.6412084890648657
 20
83.2022751121446049
 30
0.0
 40
0.5822111997103271
 50
306.6937099861842171
 51
320.4566937578734951
  0
ARC
  5
313BA
  8
0
 10
2910.6459076711880698
 20
84.0240020641951162
 30
0.0
 40
1.8728927645399209
 50
320.4566937578734951
 51
325.1127113976946248
  0
ARC
  5
313BB
  8
0
 10
2910.8878080883791881
 20
83.8553297679569738
 30
0.0
 40
1.577992518091841
 50
325.1127113976946248
 51
328.9752643248456252
  0
ARC
  5
313BC
  8
0
 10
2920.2848912798722267
 20
78.2034695359011494
 30
0.0
 40
9.3878041511212231
 50
148.537500823593092
 51
148.9752643248455968
  0
ARC
  5
313BD
  8
0
 10
2913.078472451478774
 20
82.6130833446924981
 30
0.0
 40
0.9393033212169882
 50
147.6108252100704021
 51
148.537500823593092
  0
ARC
  5
313BE
  8
0
 10
2911.5426316642979145
 20
83.259285175570426
 30
0.0
 40
0.7044750213868946
 50
310.9614621846391742
 51
320.9912065871039886
  0
ARC
  5
313BF
  8
0
 10
2911.1717298810108332
 20
83.5597297808394899
 30
0.0
 40
1.181795766463577
 50
320.9912065871034201
 51
325.1986187263511283
  0
ARC
  5
313C0
  8
0
 10
2910.560413759678795
 20
83.9846274101372785
 30
0.0
 40
1.9262723581590131
 50
325.1986187263511283
 51
328.0526073245447947
  0
ARC
  5
313C1
  8
0
 10
2902.8107743240539094
 20
88.8172514297696978
 30
0.0
 40
11.0592437419595804
 50
328.0526073245447947
 51
328.5463627143341228
  0
ARC
  5
313C2
  8
0
 10
2911.8891947855568105
 20
82.8531397185907679
 30
0.0
 40
0.17065255139007
 50
305.7571935070251925
 51
312.4865124745622893
  0
ARC
  5
313C3
  8
0
 10
2911.9849535873581772
 20
82.7201575664814186
 30
0.0
 40
0.0067806474468303
 50
177.7137066658347919
 51
305.7571935070217819
  0
ARC
  5
313C4
  8
0
 10
2912.0041235776411668
 20
82.7118342004587532
 30
0.0
 40
0.0279754706829654
 50
122.4783262371130945
 51
149.4071557013085965
  0
ARC
  5
313C5
  8
0
 10
2911.9920335131810134
 20
82.7189822067615239
 30
0.0
 40
0.013930412735637
 50
149.4071557013099891
 51
174.0424557786741957
  0
ARC
  5
313C6
  8
0
 10
2911.8701683031817993
 20
82.8799438134300743
 30
0.0
 40
0.1684114094905309
 50
301.717766558343385
 51
306.9633688174079111
  0
ARC
  5
313C7
  8
0
 10
2911.9522394435971364
 20
82.7471514327867652
 30
0.0
 40
0.0123041116283007
 50
191.3681326324646079
 51
301.7177665583456019
  0
ARC
  5
313C8
  8
0
 10
2911.9734935290939575
 20
82.7216250799921227
 30
0.0
 40
0.0420429488999491
 50
123.7093214454284009
 51
137.5488679623468897
  0
ARC
  5
313C9
  8
0
 10
2911.94901167397893
 20
82.7440201834966587
 30
0.0
 40
0.0088631072660971
 50
137.5488679623499024
 51
175.4314636302588895
  0
ARC
  5
313CA
  8
0
 10
2911.9094601449442052
 20
82.7702978833329865
 30
0.0
 40
0.0161587018606548
 50
118.6904820668388965
 51
172.873363827681203
  0
ARC
  5
313CB
  8
0
 10
2911.9060962477110479
 20
82.7707184670750991
 30
0.0
 40
0.012768614061883
 50
172.8733638276852105
 51
201.7694184464583032
  0
ARC
  5
313CC
  8
0
 10
2911.9014265752748543
 20
82.7688536219018687
 30
0.0
 40
0.007740345157635
 50
201.7694184464521925
 51
254.8583814447578959
  0
ARC
  5
313CD
  8
0
 10
2911.9073240389029706
 20
82.7719624737529642
 30
0.0
 40
0.0132159592743192
 50
233.1858419011034869
 51
294.9037643409027964
  0
ARC
  5
313CE
  8
0
 10
2911.8060394369322239
 20
82.964742106158738
 30
0.0
 40
0.2309681513175588
 50
297.5561038475175906
 51
302.3472004347382267
  0
ARC
  5
313CF
  8
0
 10
2911.8075696438168052
 20
82.921343063601185
 30
0.0
 40
0.1424344211671547
 50
291.5352625846393835
 51
300.2337266318392039
  0
ARC
  5
313D0
  8
0
 10
2911.8550335212507889
 20
82.8010661240655708
 30
0.0
 40
0.013131049806883
 50
188.2068585000729115
 51
291.5352625846393835
  0
ARC
  5
313D1
  8
0
 10
2911.8566017356051816
 20
82.8010243667796857
 30
0.0
 40
0.0146796390827193
 50
110.323021946059896
 51
187.1717519204206894
  0
ARC
  5
313D2
  8
0
 10
2911.7423370676219747
 20
82.9742789227830855
 30
0.0
 40
0.1654622328252974
 50
294.0908827131503926
 51
299.6089826226591981
  0
ARC
  5
313D3
  8
0
 10
2911.8001912347199323
 20
82.8448890780807687
 30
0.0
 40
0.0237271399137229
 50
264.3485200045282113
 51
294.0908827131506769
  0
ARC
  5
313D4
  8
0
 10
2911.7994252652811156
 20
82.8371487348016444
 30
0.0
 40
0.0159489895383983
 50
228.3854126359883878
 51
264.3485200045282113
  0
ARC
  5
313D5
  8
0
 10
2911.8118220370429299
 20
82.8511043967655354
 30
0.0
 40
0.0346155492373364
 50
212.8378517628154896
 51
228.3854126359873078
  0
ARC
  5
313D6
  8
0
 10
2911.7972667753570022
 20
82.8336145790812282
 30
0.0
 40
0.0145853748282123
 50
103.1931218359836038
 51
185.038364148278788
  0
ARC
  5
313D7
  8
0
 10
2911.6791643692549769
 20
83.0301713784441944
 30
0.0
 40
0.1880406995327212
 50
291.0675028076116746
 51
297.7035463635227757
  0
ARC
  5
313D8
  8
0
 10
2911.7422861538439065
 20
82.8663107915915447
 30
0.0
 40
0.0124427165902421
 50
230.1154567286411066
 51
291.0675028076122999
  0
ARC
  5
313D9
  8
0
 10
2911.7457889885731674
 20
82.8705024322856048
 30
0.0
 40
0.0179052895044101
 50
189.8845432683845047
 51
230.1154567286419876
  0
ARC
  5
313DA
  8
0
 10
2911.740075783543034
 20
82.8650228053697333
 30
0.0
 40
0.0121665535059121
 50
123.1466004146069935
 51
168.5945401087259938
  0
ARC
  5
313DB
  8
0
 10
2911.7924963648029006
 20
82.7747193058389854
 30
0.0
 40
0.1165672064965077
 50
117.0801486199032979
 51
120.4490815576705955
  0
ARC
  5
313DC
  8
0
 10
2911.6748255994039027
 20
82.9377958681467646
 30
0.0
 40
0.0536060656151359
 50
285.2114123385957214
 51
310.0926871670881724
  0
ARC
  5
313DD
  8
0
 10
2911.685468994268831
 20
82.8986524836586938
 30
0.0
 40
0.0130414701725704
 50
178.2849611648871928
 51
285.211412338595494
  0
ARC
  5
313DE
  8
0
 10
2911.6834087603488115
 20
82.898714171218927
 30
0.0
 40
0.0109803129351166
 50
113.4282739067237031
 51
178.2849611648863117
  0
ARC
  5
313DF
  8
0
 10
2911.6164235640389961
 20
82.9376020608642648
 30
0.0
 40
0.0129935163472789
 50
113.9131389964784944
 51
177.898359888563391
  0
ARC
  5
313E0
  8
0
 10
2911.6138917698031037
 20
82.9376949701154444
 30
0.0
 40
0.010460017939442
 50
177.8983598885617141
 51
258.9956554697959064
  0
ARC
  5
313E1
  8
0
 10
2911.6218473770859418
 20
82.9461479084358047
 30
0.0
 40
0.0212016297462456
 50
242.0040121307260108
 51
288.0945863806171019
  0
ARC
  5
313E2
  8
0
 10
2911.5957341853450089
 20
82.9990031003246571
 30
0.0
 40
0.0799961210257892
 50
294.1261159828551968
 51
305.8738840141890023
  0
ENDSEC
  0
EOF
