  0
SECTION
  2
HEADER
  9
$ACADVER
  1
AC1009
  9
$INSBASE
 10
2776.700460515146915
 20
88.8742499085312829
 30
0.0
  9
$EXTMIN
 10
2775.3277997084051094
 20
83.3107308017639099
 30
0.0
  9
$EXTMAX
 10
2778.0731213218878111
 20
89.9710215620312823
 30
0.0
  9
$LIMMIN
 10
0.0
 20
0.0
  9
$LIMMAX
 10
11.6929133858000007
 20
8.2677165353999982
  9
$ORTHOMODE
 70
     1
  9
$REGENMODE
 70
     1
  9
$FILLMODE
 70
     1
  9
$QTEXTMODE
 70
     0
  9
$MIRRTEXT
 70
     0
  9
$DRAGMODE
 70
     2
  9
$LTSCALE
 40
0.6431102362
  9
$OSMODE
 70
  4095
  9
$ATTMODE
 70
     1
  9
$TEXTSIZE
 40
0.2
  9
$TRACEWID
 40
0.05
  9
$TEXTSTYLE
  7
STANDARD
  9
$CLAYER
  8
0
  9
$CELTYPE
  6
BYLAYER
  9
$CECOLOR
 62
   256
  9
$DIMSCALE
 40
1.0
  9
$DIMASZ
 40
0.1875
  9
$DIMEXO
 40
0.0625
  9
$DIMDLI
 40
0.4443307087
  9
$DIMRND
 40
0.0
  9
$DIMDLE
 40
0.0
  9
$DIMEXE
 40
0.125
  9
$DIMTP
 40
0.01
  9
$DIMTM
 40
0.01
  9
$DIMTXT
 40
2.0
  9
$DIMCEN
 40
0.1052362205
  9
$DIMTSZ
 40
0.0
  9
$DIMTOL
 70
     1
  9
$DIMLIM
 70
     0
  9
$DIMTIH
 70
     1
  9
$DIMTOH
 70
     1
  9
$DIMSE1
 70
     0
  9
$DIMSE2
 70
     0
  9
$DIMTAD
 70
     0
  9
$DIMZIN
 70
     0
  9
$DIMBLK
  1

  9
$DIMASO
 70
     1
  9
$DIMSHO
 70
     1
  9
$DIMPOST
  1
\X
  9
$DIMAPOST
  1

  9
$DIMALT
 70
     1
  9
$DIMALTD
 70
     2
  9
$DIMALTF
 40
25.3999999999999986
  9
$DIMLFAC
 40
1.0
  9
$DIMTOFL
 70
     0
  9
$DIMTVP
 40
0.0
  9
$DIMTIX
 70
     0
  9
$DIMSOXD
 70
     0
  9
$DIMSAH
 70
     0
  9
$DIMBLK1
  1

  9
$DIMBLK2
  1

  9
$DIMSTYLE
  2
STANDARD
  9
$DIMCLRD
 70
     0
  9
$DIMCLRE
 70
     0
  9
$DIMCLRT
 70
     0
  9
$DIMTFAC
 40
1.0
  9
$DIMGAP
 40
0.09
  9
$LUNITS
 70
     2
  9
$LUPREC
 70
     4
  9
$SKETCHINC
 40
0.1
  9
$FILLETRAD
 40
0.0
  9
$AUNITS
 70
     0
  9
$AUPREC
 70
     0
  9
$MENU
  1
.
  9
$ELEVATION
 40
0.0
  9
$PELEVATION
 40
0.0
  9
$THICKNESS
 40
0.0
  9
$LIMCHECK
 70
     0
  9
$BLIPMODE
 70
     0
  9
$CHAMFERA
 40
0.0
  9
$CHAMFERB
 40
0.0
  9
$SKPOLY
 70
     0
  9
$TDCREATE
 40
2458060.468368056230247
  9
$TDUPDATE
 40
2459710.536458333954215
  9
$TDINDWG
 40
0.5321945602
  9
$TDUSRTIMER
 40
0.5321945602
  9
$USRTIMER
 70
     1
  9
$ANGBASE
 50
0.0
  9
$ANGDIR
 70
     0
  9
$PDMODE
 70
     0
  9
$PDSIZE
 40
0.3125
  9
$PLINEWID
 40
0.0
  9
$COORDS
 70
     1
  9
$SPLFRAME
 70
     0
  9
$SPLINETYPE
 70
     6
  9
$SPLINESEGS
 70
     8
  9
$ATTDIA
 70
     1
  9
$ATTREQ
 70
     1
  9
$HANDLING
 70
     1
  9
$HANDSEED
  5
42A60
  9
$SURFTAB1
 70
     6
  9
$SURFTAB2
 70
     6
  9
$SURFTYPE
 70
     6
  9
$SURFU
 70
     6
  9
$SURFV
 70
     6
  9
$UCSNAME
  2

  9
$UCSORG
 10
0.0
 20
0.0
 30
0.0
  9
$UCSXDIR
 10
1.0
 20
0.0
 30
0.0
  9
$UCSYDIR
 10
0.0
 20
1.0
 30
0.0
  9
$PUCSNAME
  2

  9
$PUCSORG
 10
0.0
 20
0.0
 30
0.0
  9
$PUCSXDIR
 10
1.0
 20
0.0
 30
0.0
  9
$PUCSYDIR
 10
0.0
 20
1.0
 30
0.0
  9
$USERI1
 70
     0
  9
$USERI2
 70
     0
  9
$USERI3
 70
     0
  9
$USERI4
 70
     0
  9
$USERI5
 70
     0
  9
$USERR1
 40
0.0
  9
$USERR2
 40
0.0
  9
$USERR3
 40
0.0
  9
$USERR4
 40
0.0
  9
$USERR5
 40
0.0
  9
$WORLDVIEW
 70
     1
  9
$SHADEDGE
 70
     3
  9
$SHADEDIF
 70
    70
  9
$TILEMODE
 70
     1
  9
$MAXACTVP
 70
    64
  9
$PLIMCHECK
 70
     0
  9
$PEXTMIN
 10
1.0000000000000000E+20
 20
1.0000000000000000E+20
 30
1.0000000000000000E+20
  9
$PEXTMAX
 10
-1.0000000000000000E+20
 20
-1.0000000000000000E+20
 30
-1.0000000000000000E+20
  9
$PLIMMIN
 10
0.0
 20
0.0
  9
$PLIMMAX
 10
12.0
 20
9.0
  9
$UNITMODE
 70
     0
  9
$VISRETAIN
 70
     1
  9
$PLINEGEN
 70
     0
  9
$PSLTSCALE
 70
     1
  0
ENDSEC
  0
SECTION
  2
TABLES
  0
TABLE
  2
VPORT
 70
     1
  0
VPORT
  2
*ACTIVE
 70
     0
 10
0.0
 20
0.0
 11
1.0
 21
1.0
 12
-1026.8436068676660398
 22
-39.3543860148523308
 13
0.0
 23
0.0
 14
1.0
 24
1.0
 15
0.0
 25
0.0
 16
0.0
 26
0.0
 36
17.1152628219792007
 17
3803.5440673828129547
 27
125.9952621967499056
 37
0.0
 40
6.7079778062836084
 41
2.2831541218637992
 42
50.0
 43
0.0
 44
0.0
 50
0.0
 51
0.0
 71
     0
 72
   100
 73
     1
 74
     1
 75
     0
 76
     0
 77
     0
 78
     0
  0
ENDTAB
  0
TABLE
  2
LTYPE
 70
     2
  0
LTYPE
  2
CONTINUOUS
 70
     0
  3
Solid line
 72
    65
 73
     0
 40
0.0
  0
LTYPE
  2
PHANTOM2
 70
     0
  3
___ _ _ ___ _ _ ___ _ _ ___ _ _
 72
    65
 73
     6
 40
1.25
 49
0.625
 49
-0.125
 49
0.125
 49
-0.125
 49
0.125
 49
-0.125
  0
ENDTAB
  0
TABLE
  2
LAYER
 70
     2
  0
LAYER
  2
0
 70
     0
 62
   255
  6
CONTINUOUS
  0
LAYER
  2
DEFPOINTS
 70
     0
 62
     7
  6
CONTINUOUS
  0
ENDTAB
  0
TABLE
  2
STYLE
 70
     1
  0
STYLE
  2
STANDARD
 70
     0
 40
0.0
 41
0.8
 50
0.0
 71
     0
 42
0.2
  3
txt
  4

  0
ENDTAB
  0
TABLE
  2
VIEW
 70
     0
  0
ENDTAB
  0
TABLE
  2
UCS
 70
     0
  0
ENDTAB
  0
TABLE
  2
APPID
 70
     9
  0
APPID
  2
ACAD
 70
     0
  0
APPID
  2
ACAD_MLEADERVER
 70
     0
  0
APPID
  2
ACAD_EXEMPT_FROM_CAD_STANDARDS
 70
     0
  0
APPID
  2
ACAD_NAV_VCDISPLAY
 70
     0
  0
APPID
  2
ACAECLAYERSTANDARD
 70
     0
  0
APPID
  2
ACCMTRANSPARENCY
 70
     0
  0
APPID
  2
ACAD_DSTYLE_DIMJAG
 70
     0
  0
APPID
  2
ACAD_DSTYLE_DIMTALN
 70
     0
  0
APPID
  2
ACDBATTR
 70
     0
  0
ENDTAB
  0
TABLE
  2
DIMSTYLE
 70
     1
  0
DIMSTYLE
  2
STANDARD
 70
     0
  3

  4

  5

  6

  7

 40
1.0
 41
0.1875
 42
0.0625
 43
0.38
 44
0.125
 45
0.0
 46
0.0
 47
0.01
 48
0.01
140
0.15625
141
0.09
142
0.0
143
25.3999999999999986
144
1.0
145
0.0
146
1.0
147
0.09
 71
     1
 72
     0
 73
     1
 74
     1
 75
     0
 76
     0
 77
     0
 78
     4
170
     0
171
     2
172
     0
173
     0
174
     0
175
     0
176
     0
177
     0
178
     0
  0
ENDTAB
  0
ENDSEC
  0
SECTION
  2
BLOCKS
  0
BLOCK
  8
0
  2
$MODEL_SPACE
 70
     0
 10
0.0
 20
0.0
 30
0.0
  3
$MODEL_SPACE
  1

  0
ENDBLK
  5
21
  8
0
  0
BLOCK
 67
     1
  8
0
  2
$PAPER_SPACE
 70
     0
 10
0.0
 20
0.0
 30
0.0
  3
$PAPER_SPACE
  1

  0
ENDBLK
  5
1D
 67
     1
  8
0
  0
BLOCK
  8
0
  2
_FILLED
 70
     0
 10
0.0
 20
0.0
 30
0.0
  3
_FILLED
  1

  0
SOLID
  5
41008
  8
0
  6
BYBLOCK
 62
     0
 10
0.0
 20
0.0
 30
0.0
 11
-1.0
 21
0.1666666667
 31
0.0
 12
-1.0
 22
-0.1666666667
 32
0.0
 13
-1.0
 23
-0.1666666667
 33
0.0
  0
ENDBLK
  5
41009
  8
0
  6
BYBLOCK
 62
     0
  0
ENDSEC
  0
SECTION
  2
ENTITIES
  0
LINE
  5
4260F
  8
0
 10
2776.9565066123391261
 20
83.3108576302789459
 30
0.0
 11
2776.4444144179537943
 21
83.3109043768112372
 31
0.0
  0
ARC
  5
42610
  8
0
 10
2776.4851011527721312
 20
83.9913425885916638
 30
0.0
 40
0.6816535560247265
 50
258.8350441472063039
 51
266.5780789930681749
  0
ARC
  5
42611
  8
0
 10
2776.443521271631198
 20
83.6271283204241342
 30
0.0
 40
0.317675550408421
 50
226.7693264576716956
 51
253.4648368548141093
  0
ARC
  5
42612
  8
0
 10
2776.4351495577489004
 20
83.6123497919644336
 30
0.0
 40
0.3012006496146602
 50
181.5960789178278105
 51
226.0040838933203133
  0
ARC
  5
42613
  8
0
 10
3222.1070074699700854
 20
92.0366329700795234
 30
0.0
 40
446.0526591090841748
 50
180.3819548419450882
 51
181.0832472901851986
  0
ARC
  5
42614
  8
0
 10
2776.6953504439320568
 20
88.8893935943139013
 30
0.0
 40
0.654561300737444
 50
89.5526950837850109
 51
164.6102809623793064
  0
ARC
  5
42615
  8
0
 10
2776.7004605151510077
 20
89.3056672311618058
 30
0.0
 40
0.6653543308694712
 50
90.0000000003647642
 51
107.5785741289136013
  0
ARC
  5
42616
  8
0
 10
2776.5232951613811565
 20
89.8648886767397244
 30
0.0
 40
0.078740158034788
 50
107.5785741289136013
 51
179.9999997150800937
  0
LINE
  5
42617
  8
0
 10
2776.4445550033460677
 20
89.864888677131276
 30
0.0
 11
2776.4445550015020672
 21
89.4939906362176316
 31
0.0
  0
ARC
  5
42618
  8
0
 10
2776.7004454836201148
 20
77.1949096613074488
 30
0.0
 40
12.5639927671278802
 50
91.167042555077515
 51
94.5351304667489387
  0
ARC
  5
42619
  8
0
 10
2775.7366493404188077
 20
89.3458453868598639
 30
0.0
 40
0.3748934561797496
 50
94.5351304667489387
 51
171.7658217151249005
  0
ARC
  5
4261A
  8
0
 10
2778.9965226194731258
 20
88.8741053287273814
 30
0.0
 40
3.6687229110751129
 50
171.7658217151249005
 51
179.9977420449380077
  0
ARC
  5
4261B
  8
0
 10
2778.9873289582828875
 20
88.8741056910380962
 30
0.0
 40
3.6595292498781271
 50
179.9977420449380077
 51
188.3461752891068102
  0
ARC
  5
4261C
  8
0
 10
2775.730602304371132
 20
88.3963198482191785
 30
0.0
 40
0.3679418197919182
 50
188.3461752891068102
 51
264.6622550748544995
  0
ARC
  5
4261D
  8
0
 10
2776.6122986084351396
 20
97.8331224344834141
 30
0.0
 40
9.8458440890033891
 50
264.6622550748544995
 51
266.8574783449910228
  0
ARC
  5
4261E
  8
0
 10
2033.401555901222082
 20
74.5822704530906293
 30
0.0
 40
742.9994501156611477
 50
0.9022876290659286
 51
1.016644754099318
  0
ARC
  5
4261F
  8
0
 10
2776.4482166002721897
 20
86.2846548742155477
 30
0.0
 40
0.1393564185878508
 50
180.9022876290659099
 51
264.1314200242009065
  0
ARC
  5
42620
  8
0
 10
2776.7080364216699309
 20
88.8124356966825559
 30
0.0
 40
2.6804550443840478
 50
264.1314200242009065
 51
269.8380618064957162
  0
ARC
  5
42621
  8
0
 10
2776.2007986322760189
 20
89.0549172727723999
 30
0.0
 40
0.1352611044830664
 50
172.9220231888712931
 51
176.0074335193953061
  0
ARC
  5
42622
  8
0
 10
2776.1203835034539225
 20
89.0652367115055767
 30
0.0
 40
0.0545251642297148
 50
180.9474640797388929
 51
189.8304513643383018
  0
ARC
  5
42623
  8
0
 10
2771.6525220531912055
 20
87.7431712671328654
 30
0.0
 40
4.6316214551104098
 50
0.2726331425284934
 51
4.1817676571090123
  0
ARC
  5
42624
  8
0
 10
2775.1129204340209071
 20
87.9961799785434238
 30
0.0
 40
1.1619859753960831
 50
4.1817676571090123
 51
22.7894852834122688
  0
ARC
  5
42625
  8
0
 10
2776.7202154708861599
 20
88.881531613342176
 30
0.0
 40
0.6904850301893168
 50
198.9306146208112125
 51
219.0773721404858918
  0
ARC
  5
42626
  8
0
 10
2776.6722706436339649
 20
89.1878979120937174
 30
0.0
 40
0.6198239797906608
 50
192.2932935543389021
 51
207.3822690326688871
  0
ARC
  5
42627
  8
0
 10
2774.6972898037911364
 20
88.164940359735624
 30
0.0
 40
1.604359347112339
 50
12.2486700777671
 51
27.3822690326689511
  0
ARC
  5
42628
  8
0
 10
2751.1145059785690137
 20
86.7559399700231353
 30
0.0
 40
25.2113877616085489
 50
358.9366376812034787
 51
3.9788491572491331
  0
ARC
  5
42629
  8
0
 10
2776.4645185701829178
 20
86.2859112913079542
 30
0.0
 40
0.1429828582898923
 50
179.1372151417722023
 51
258.390809388076093
  0
ARC
  5
4262A
  8
0
 10
2776.7010482608011444
 20
89.2413975389292773
 30
0.0
 40
0.1833290389490791
 50
90.1836883195611563
 51
117.4089298749534009
  0
ARC
  5
4262B
  8
0
 10
2776.6632941913348986
 20
89.3142047468307538
 30
0.0
 40
0.1013152639865772
 50
117.4089298749537988
 51
152.7530792046111969
  0
ARC
  5
4262C
  8
0
 10
2776.6152017398580938
 20
89.3389707168510938
 30
0.0
 40
0.0472205585146018
 50
152.7530792046119927
 51
206.5687283404681125
  0
ARC
  5
4262D
  8
0
 10
2776.6992291105011645
 20
89.4865254062321185
 30
0.0
 40
0.2231095566617562
 50
250.8737884463785122
 51
270.3162331888584049
  0
ARC
  5
4262E
  8
0
 10
2776.6598054024511839
 20
89.3728447511208373
 30
0.0
 40
0.1027869897720356
 50
212.3461422199675894
 51
250.8737884463785122
  0
ARC
  5
4262F
  8
0
 10
2776.7016542367350667
 20
89.2739072482197145
 30
0.0
 40
0.132859091936077
 50
90.5148020219860854
 51
115.6214899621640058
  0
ARC
  5
42630
  8
0
 10
2776.6841952540471539
 20
89.3008441209913144
 30
0.0
 40
0.1011041554408355
 50
113.3007276084353947
 51
144.9485902812591007
  0
ARC
  5
42631
  8
0
 10
2776.6509682687069471
 20
89.324154365380025
 30
0.0
 40
0.0605159792282383
 50
144.9485902812598113
 51
171.325353912202587
  0
ARC
  5
42632
  8
0
 10
2776.6304760692469245
 20
89.3272808328486008
 30
0.0
 40
0.0397866512715106
 50
171.3253539122034965
 51
216.038483095676014
  0
ARC
  5
42633
  8
0
 10
2776.7006934836149412
 20
89.4747516810491845
 30
0.0
 40
0.2069618008770401
 50
254.2913228323772898
 51
269.9355198260444126
  0
ARC
  5
42634
  8
0
 10
2776.6751958871259376
 20
89.3840937990172932
 30
0.0
 40
0.1127865440350078
 50
241.3904067141423866
 51
254.2913228323772898
  0
ARC
  5
42635
  8
0
 10
2776.6590787240847931
 20
89.3545446038979065
 30
0.0
 40
0.0791276985901865
 50
219.8197804318708961
 51
241.3904067141423866
  0
ARC
  5
42668
  8
0
 10
2776.9651423130148942
 20
83.6047948440829174
 30
0.0
 40
0.2940640423190155
 50
268.317168111880278
 51
286.3274284480273195
  0
ARC
  5
42669
  8
0
 10
2776.9573997586630867
 20
83.6271283204241342
 30
0.0
 40
0.317675550408421
 50
286.535163145185777
 51
313.2306735423276791
  0
ARC
  5
4266A
  8
0
 10
2776.9657714725440201
 20
83.6123497919644336
 30
0.0
 40
0.3012006496146602
 50
313.9959161066796014
 51
358.4039210821721895
  0
ARC
  5
4266B
  8
0
 10
2331.2939135603228351
 20
92.0366329700795234
 30
0.0
 40
446.0526591090841748
 50
358.916752709814773
 51
359.6180451580548265
  0
ARC
  5
4266C
  8
0
 10
2776.7055705863608637
 20
88.8893935943139013
 30
0.0
 40
0.654561300737444
 50
15.3897190376206794
 51
90.4473049162149749
  0
ARC
  5
4266D
  8
0
 10
2776.7004605151419128
 20
89.3056672311618058
 30
0.0
 40
0.6653543308694712
 50
72.4214258710864129
 51
89.9999999996352216
  0
ARC
  5
4266E
  8
0
 10
2776.8776258689122187
 20
89.8648886767397244
 30
0.0
 40
0.078740158034788
 50
0.0000002849198897
 51
72.4214258710864129
  0
LINE
  5
4266F
  8
0
 10
2776.9563660269468528
 20
89.864888677131276
 30
0.0
 11
2776.9563660287908533
 21
89.4939906362176316
 31
0.0
  0
ARC
  5
42670
  8
0
 10
2776.7004755466728056
 20
77.1949096613074488
 30
0.0
 40
12.5639927671278802
 50
85.4648695332510471
 51
88.832957444922485
  0
ARC
  5
42671
  8
0
 10
2777.6642716898741128
 20
89.3458453868598639
 30
0.0
 40
0.3748934561797496
 50
8.2341782848750942
 51
85.4648695332510471
  0
ARC
  5
42672
  8
0
 10
2774.4043984108197947
 20
88.8741053287273814
 30
0.0
 40
3.6687229110751129
 50
0.0022579550619651
 51
8.2341782848750942
  0
ARC
  5
42673
  8
0
 10
2774.413592072010033
 20
88.8741056910380962
 30
0.0
 40
3.6595292498781271
 50
351.6538247108932183
 51
0.0022579550619651
  0
ARC
  5
42674
  8
0
 10
2777.6703187259231527
 20
88.3963198482191785
 30
0.0
 40
0.3679418197919182
 50
275.3377449251455005
 51
351.6538247108932183
  0
ARC
  5
42675
  8
0
 10
2776.7886224218577809
 20
97.8331224344834141
 30
0.0
 40
9.8458440890033891
 50
273.1425216550089772
 51
275.3377449251455005
  0
ARC
  5
42676
  8
0
 10
3519.9993651290701564
 20
74.5822704530906293
 30
0.0
 40
742.9994501156611477
 50
178.9833552459006967
 51
179.0977123709340901
  0
ARC
  5
42677
  8
0
 10
2776.9527044300211855
 20
86.2846548742155477
 30
0.0
 40
0.1393564185878508
 50
275.8685799757992072
 51
359.0977123709341186
  0
ARC
  5
42678
  8
0
 10
2776.6928846086229896
 20
88.8124356966825559
 30
0.0
 40
2.6804550443840478
 50
270.1619381935042838
 51
275.8685799757992072
  0
ARC
  5
42679
  8
0
 10
2777.2001223980169016
 20
89.0549172727723999
 30
0.0
 40
0.1352611044830664
 50
3.9925664806046708
 51
7.0779768111286963
  0
ARC
  5
4267A
  8
0
 10
2777.2805375268399075
 20
89.0652367115055767
 30
0.0
 40
0.0545251642297148
 50
350.1695486356617266
 51
359.0525359202611071
  0
ARC
  5
4267B
  8
0
 10
2781.7483989771021697
 20
87.7431712671328654
 30
0.0
 40
4.6316214551104098
 50
175.8182323428910081
 51
179.7273668574715089
  0
ARC
  5
4267C
  8
0
 10
2778.2880005962729228
 20
87.9961799785434238
 30
0.0
 40
1.1619859753960831
 50
157.2105147165877099
 51
175.8182323428910081
  0
ARC
  5
4267D
  8
0
 10
2776.6807055594072153
 20
88.881531613342176
 30
0.0
 40
0.6904850301893168
 50
320.9226278595140798
 51
341.0693853791888159
  0
ARC
  5
4267E
  8
0
 10
2776.7286503866589555
 20
89.1878979120937174
 30
0.0
 40
0.6198239797906608
 50
332.6177309673309992
 51
347.7067064456610979
  0
ARC
  5
4267F
  8
0
 10
2778.7036312265017841
 20
88.164940359735624
 30
0.0
 40
1.604359347112339
 50
152.6177309673309992
 51
167.7513299222329124
  0
ARC
  5
42680
  8
0
 10
2802.2864150517248163
 20
86.7559399700231353
 30
0.0
 40
25.2113877616085489
 50
176.0211508427508136
 51
181.0633623187964076
  0
ARC
  5
42681
  8
0
 10
2776.9364024601100027
 20
86.2859112913079542
 30
0.0
 40
0.1429828582898923
 50
281.6091906119237933
 51
0.8627848582278158
  0
ARC
  5
42682
  8
0
 10
2776.6998727694917761
 20
89.2413975389292773
 30
0.0
 40
0.1833290389490791
 50
62.5910701250465635
 51
89.8163116804388864
  0
ARC
  5
42683
  8
0
 10
2776.7376268389580218
 20
89.3142047468307538
 30
0.0
 40
0.1013152639865772
 50
27.2469207953887107
 51
62.5910701250461727
  0
ARC
  5
42684
  8
0
 10
2776.7857192904348267
 20
89.3389707168510938
 30
0.0
 40
0.0472205585146018
 50
333.4312716595318875
 51
27.2469207953879788
  0
ARC
  5
42685
  8
0
 10
2776.7016919197922107
 20
89.4865254062321185
 30
0.0
 40
0.2231095566617562
 50
269.6837668111415951
 51
289.1262115536214878
  0
ARC
  5
42686
  8
0
 10
2776.7411156278421913
 20
89.3728447511208373
 30
0.0
 40
0.1027869897720356
 50
289.1262115536214878
 51
327.6538577800324106
  0
ARC
  5
42687
  8
0
 10
2776.6992667935592181
 20
89.2739072482197145
 30
0.0
 40
0.132859091936077
 50
64.3785100378359516
 51
89.4851979780139146
  0
ARC
  5
42688
  8
0
 10
2776.7167257762471309
 20
89.3008441209913144
 30
0.0
 40
0.1011041554408355
 50
35.0514097187408566
 51
66.6992723915645769
  0
ARC
  5
42689
  8
0
 10
2776.7499527615868828
 20
89.324154365380025
 30
0.0
 40
0.0605159792282383
 50
8.6746460877973224
 51
35.0514097187402029
  0
ARC
  5
4268A
  8
0
 10
2776.7704449610469055
 20
89.3272808328486008
 30
0.0
 40
0.0397866512715106
 50
323.9615169043240144
 51
8.6746460877965177
  0
ARC
  5
4268B
  8
0
 10
2776.7002275466779793
 20
89.4747516810491845
 30
0.0
 40
0.2069618008770401
 50
270.0644801739555874
 51
285.7086771676226817
  0
ARC
  5
4268C
  8
0
 10
2776.7257251431678924
 20
89.3840937990172932
 30
0.0
 40
0.1127865440350078
 50
285.7086771676226817
 51
298.6095932858574997
  0
ARC
  5
4268D
  8
0
 10
2776.7418423062081274
 20
89.3545446038979065
 30
0.0
 40
0.0791276985901865
 50
298.6095932858574997
 51
320.1802195681290755
  0
ATTDEF
  5
42744
  8
DEFPOINTS
 10
2776.7013819623098243
 20
88.8712688640745654
 30
0.0
 40
0.001
  1
P26625-00
  3

  2
MODELNUMBER
 70
     0
1001
ACDBATTR
1070
     0
1070
     1
  0
ATTDEF
  5
42745
  8
DEFPOINTS
 10
2776.7013819623098243
 20
88.869602197407886
 30
0.0
 40
0.001
  1
PER SE
  3

  2
TRADENAME
 70
     0
1001
ACDBATTR
1070
     0
1070
     1
  0
ATTDEF
  5
42746
  8
DEFPOINTS
 10
2776.7013819623098243
 20
88.8679355307412209
 30
0.0
 40
0.001
  1
BATHROOM SINK FAUCET
  3

  2
PRODUCT
 70
     0
1001
ACDBATTR
1070
     0
1070
     1
  0
ENDSEC
  0
EOF
