  0
SECTION
  2
HEADER
  9
$ACADVER
  1
AC1009
  9
$INSBASE
 10
511.8619037518271284
 20
81.0278104957531156
 30
0.0
  9
$EXTMIN
 10
504.7857870825944246
 20
77.5414329137068989
 30
-0.0000000000112498
  9
$EXTMAX
 10
521.1373149494133941
 20
83.368105191197273
 30
0.0000000000002956
  9
$LIMMIN
 10
0.0
 20
0.0
  9
$LIMMAX
 10
11.6929133858000007
 20
8.2677165353999982
  9
$ORTHOMODE
 70
     0
  9
$REGENMODE
 70
     1
  9
$FILLMODE
 70
     1
  9
$QTEXTMODE
 70
     0
  9
$MIRRTEXT
 70
     0
  9
$DRAGMODE
 70
     2
  9
$LTSCALE
 40
0.6431102362
  9
$OSMODE
 70
  4095
  9
$ATTMODE
 70
     1
  9
$TEXTSIZE
 40
0.2
  9
$TRACEWID
 40
0.05
  9
$TEXTSTYLE
  7
STANDARD
  9
$CLAYER
  8
0
  9
$CELTYPE
  6
BYLAYER
  9
$CECOLOR
 62
   256
  9
$DIMSCALE
 40
1.0
  9
$DIMASZ
 40
0.1875
  9
$DIMEXO
 40
0.0625
  9
$DIMDLI
 40
0.4443307087
  9
$DIMRND
 40
0.0
  9
$DIMDLE
 40
0.0
  9
$DIMEXE
 40
0.125
  9
$DIMTP
 40
0.01
  9
$DIMTM
 40
0.01
  9
$DIMTXT
 40
1.0
  9
$DIMCEN
 40
0.1052362205
  9
$DIMTSZ
 40
0.0
  9
$DIMTOL
 70
     1
  9
$DIMLIM
 70
     0
  9
$DIMTIH
 70
     0
  9
$DIMTOH
 70
     1
  9
$DIMSE1
 70
     0
  9
$DIMSE2
 70
     0
  9
$DIMTAD
 70
     0
  9
$DIMZIN
 70
     0
  9
$DIMBLK
  1

  9
$DIMASO
 70
     1
  9
$DIMSHO
 70
     1
  9
$DIMPOST
  1
\X
  9
$DIMAPOST
  1

  9
$DIMALT
 70
     1
  9
$DIMALTD
 70
     2
  9
$DIMALTF
 40
25.3999999999999986
  9
$DIMLFAC
 40
1.0
  9
$DIMTOFL
 70
     0
  9
$DIMTVP
 40
0.0
  9
$DIMTIX
 70
     0
  9
$DIMSOXD
 70
     0
  9
$DIMSAH
 70
     0
  9
$DIMBLK1
  1

  9
$DIMBLK2
  1

  9
$DIMSTYLE
  2
STANDARD
  9
$DIMCLRD
 70
     0
  9
$DIMCLRE
 70
     0
  9
$DIMCLRT
 70
     0
  9
$DIMTFAC
 40
1.0
  9
$DIMGAP
 40
0.09
  9
$LUNITS
 70
     2
  9
$LUPREC
 70
     4
  9
$SKETCHINC
 40
0.1
  9
$FILLETRAD
 40
0.0
  9
$AUNITS
 70
     0
  9
$AUPREC
 70
     0
  9
$MENU
  1
.
  9
$ELEVATION
 40
0.0
  9
$PELEVATION
 40
0.0
  9
$THICKNESS
 40
0.0
  9
$LIMCHECK
 70
     0
  9
$BLIPMODE
 70
     0
  9
$CHAMFERA
 40
0.0
  9
$CHAMFERB
 40
0.0
  9
$SKPOLY
 70
     0
  9
$TDCREATE
 40
2458172.5207638889551163
  9
$TDUPDATE
 40
2460059.5082175931893289
  9
$TDINDWG
 40
0.3362934954
  9
$TDUSRTIMER
 40
0.3362934954
  9
$USRTIMER
 70
     1
  9
$ANGBASE
 50
0.0
  9
$ANGDIR
 70
     0
  9
$PDMODE
 70
     0
  9
$PDSIZE
 40
0.3125
  9
$PLINEWID
 40
0.0
  9
$COORDS
 70
     1
  9
$SPLFRAME
 70
     0
  9
$SPLINETYPE
 70
     6
  9
$SPLINESEGS
 70
     8
  9
$ATTDIA
 70
     1
  9
$ATTREQ
 70
     1
  9
$HANDLING
 70
     1
  9
$HANDSEED
  5
11B02
  9
$SURFTAB1
 70
     6
  9
$SURFTAB2
 70
     6
  9
$SURFTYPE
 70
     6
  9
$SURFU
 70
     6
  9
$SURFV
 70
     6
  9
$UCSNAME
  2

  9
$UCSORG
 10
0.0
 20
0.0
 30
0.0
  9
$UCSXDIR
 10
1.0
 20
0.0
 30
0.0
  9
$UCSYDIR
 10
0.0
 20
1.0
 30
0.0
  9
$PUCSNAME
  2

  9
$PUCSORG
 10
0.0
 20
0.0
 30
0.0
  9
$PUCSXDIR
 10
1.0
 20
0.0
 30
0.0
  9
$PUCSYDIR
 10
0.0
 20
1.0
 30
0.0
  9
$USERI1
 70
     0
  9
$USERI2
 70
     0
  9
$USERI3
 70
     0
  9
$USERI4
 70
     0
  9
$USERI5
 70
     0
  9
$USERR1
 40
0.0
  9
$USERR2
 40
0.0
  9
$USERR3
 40
0.0
  9
$USERR4
 40
0.0
  9
$USERR5
 40
0.0
  9
$WORLDVIEW
 70
     1
  9
$SHADEDGE
 70
     3
  9
$SHADEDIF
 70
    70
  9
$TILEMODE
 70
     1
  9
$MAXACTVP
 70
    64
  9
$PLIMCHECK
 70
     0
  9
$PEXTMIN
 10
1.0000000000000000E+20
 20
1.0000000000000000E+20
 30
1.0000000000000000E+20
  9
$PEXTMAX
 10
-1.0000000000000000E+20
 20
-1.0000000000000000E+20
 30
-1.0000000000000000E+20
  9
$PLIMMIN
 10
0.0
 20
0.0
  9
$PLIMMAX
 10
12.0
 20
9.0
  9
$UNITMODE
 70
     0
  9
$VISRETAIN
 70
     1
  9
$PLINEGEN
 70
     0
  9
$PSLTSCALE
 70
     1
  0
ENDSEC
  0
SECTION
  2
TABLES
  0
TABLE
  2
VPORT
 70
     1
  0
VPORT
  2
*ACTIVE
 70
     0
 10
0.0
 20
0.0
 11
1.0
 21
1.0
 12
83.332261907950155
 22
10.7522275402334007
 13
0.0
 23
0.0
 14
1.0
 24
1.0
 15
0.0
 25
0.0
 16
0.0
 26
0.0
 36
14.6338572656650907
 17
429.6292891080536833
 27
69.7025415122186871
 37
0.0
 40
10.3102798001002594
 41
1.593589743589743
 42
50.0
 43
0.0
 44
0.0
 50
0.0
 51
0.0
 71
     0
 72
   100
 73
     1
 74
     1
 75
     0
 76
     0
 77
     0
 78
     0
  0
ENDTAB
  0
TABLE
  2
LTYPE
 70
     2
  0
LTYPE
  2
CONTINUOUS
 70
     0
  3
Solid line
 72
    65
 73
     0
 40
0.0
  0
LTYPE
  2
PHANTOM2
 70
     0
  3
___ _ _ ___ _ _ ___ _ _ ___ _ _
 72
    65
 73
     6
 40
1.25
 49
0.625
 49
-0.125
 49
0.125
 49
-0.125
 49
0.125
 49
-0.125
  0
ENDTAB
  0
TABLE
  2
LAYER
 70
     2
  0
LAYER
  2
0
 70
     0
 62
   255
  6
CONTINUOUS
  0
LAYER
  2
DEFPOINTS
 70
     0
 62
     7
  6
CONTINUOUS
  0
ENDTAB
  0
TABLE
  2
STYLE
 70
     1
  0
STYLE
  2
STANDARD
 70
     0
 40
0.0
 41
0.8
 50
0.0
 71
     0
 42
0.2
  3
txt
  4

  0
ENDTAB
  0
TABLE
  2
VIEW
 70
     0
  0
ENDTAB
  0
TABLE
  2
UCS
 70
     0
  0
ENDTAB
  0
TABLE
  2
APPID
 70
    10
  0
APPID
  2
ACAD
 70
     0
  0
APPID
  2
ACAD_MLEADERVER
 70
     0
  0
APPID
  2
ACAD_EXEMPT_FROM_CAD_STANDARDS
 70
     0
  0
APPID
  2
ACAD_DSTYLE_DIMJAG
 70
     0
  0
APPID
  2
ACAD_DSTYLE_DIMTALN
 70
     0
  0
APPID
  2
ACAD_NAV_VCDISPLAY
 70
     0
  0
APPID
  2
ACAECLAYERSTANDARD
 70
     0
  0
APPID
  2
ACCMTRANSPARENCY
 70
     0
  0
APPID
  2
DCO15
 70
     0
  0
APPID
  2
ACDBATTR
 70
     0
  0
ENDTAB
  0
TABLE
  2
DIMSTYLE
 70
     1
  0
DIMSTYLE
  2
STANDARD
 70
     0
  3

  4

  5

  6

  7

 40
1.0
 41
0.1875
 42
0.0625
 43
0.38
 44
0.125
 45
0.0
 46
0.0
 47
0.01
 48
0.01
140
0.15625
141
0.09
142
0.0
143
25.3999999999999986
144
1.0
145
0.0
146
1.0
147
0.09
 71
     1
 72
     0
 73
     1
 74
     1
 75
     0
 76
     0
 77
     0
 78
     4
170
     0
171
     2
172
     0
173
     0
174
     0
175
     0
176
     0
177
     0
178
     0
  0
ENDTAB
  0
ENDSEC
  0
SECTION
  2
BLOCKS
  0
BLOCK
  8
0
  2
$MODEL_SPACE
 70
     0
 10
0.0
 20
0.0
 30
0.0
  3
$MODEL_SPACE
  1

  0
ENDBLK
  5
21
  8
0
  0
BLOCK
 67
     1
  8
0
  2
$PAPER_SPACE
 70
     0
 10
0.0
 20
0.0
 30
0.0
  3
$PAPER_SPACE
  1

  0
ENDBLK
  5
1D
 67
     1
  8
0
  0
ENDSEC
  0
SECTION
  2
ENTITIES
  0
ATTDEF
  5
100F7
  8
DEFPOINTS
 10
511.8575329916554892
 20
81.0321917912605727
 30
0.0
 40
0.001
  1
P28961-00
  3

  2
MODELNUMBER
 70
     0
1001
ACDBATTR
1070
     0
1070
     1
  0
ATTDEF
  5
100F8
  8
DEFPOINTS
 10
511.8575329916554892
 20
81.0305251245938933
 30
0.0
 40
0.001
  1

  3

  2
TRADENAME
 70
     0
1001
ACDBATTR
1070
     0
1070
     1
  0
ATTDEF
  5
100F9
  8
DEFPOINTS
 10
511.8575329916554892
 20
81.0288584579272566
 30
0.0
 40
0.001
  1
POT FILLER
  3

  2
PRODUCT
 70
     0
1001
ACDBATTR
1070
     0
1070
     1
  0
LINE
  5
119E3
  8
0
 10
506.6069037518270761
 20
83.3678147161531058
 30
0.0
 11
509.4469037518272216
 21
83.3678147161531058
 31
0.0
  0
LINE
  5
119E4
  8
0
 10
519.7369037518271853
 20
83.1628147161530933
 30
0.0
 11
509.5569037518271784
 21
83.1628147161530933
 31
0.0
  0
LINE
  5
119E5
  8
0
 10
519.7369037518271853
 20
82.4028147161530882
 30
0.0
 11
509.5569037518271784
 21
82.4028147161530882
 31
0.0
  0
LINE
  5
119E6
  8
0
 10
519.7369037518271853
 20
77.5424210161530993
 30
0.0
 11
512.8619037518270716
 21
77.5424210161530993
 31
0.0
  0
LINE
  5
119E7
  8
0
 10
521.1119037518271853
 20
80.4898147161531057
 30
0.0
 11
521.1119037518271853
 21
81.7878147161530933
 31
0.0
  0
LINE
  5
119E8
  8
0
 10
521.1119037518271853
 20
80.4658147161531048
 30
0.0
 11
521.1119037518271853
 21
80.2274210161531016
 31
0.0
  0
LINE
  5
119E9
  8
0
 10
521.1119037518271853
 20
80.1857233548523283
 30
0.0
 11
521.1119037518271853
 21
78.9174210161530993
 31
0.0
  0
LINE
  5
119EA
  8
0
 10
521.0999037518272416
 20
80.4778147161531052
 30
0.0
 11
520.3739037518272426
 21
80.4778147161531052
 31
0.0
  0
LINE
  5
119EB
  8
0
 10
520.87153287202716
 20
80.4658147161531048
 30
0.0
 11
520.87153287202716
 21
80.2274210161531016
 31
0.0
  0
LINE
  5
119EC
  8
0
 10
521.1119037518271853
 20
80.2274210161531016
 30
0.0
 11
520.3619037518270716
 21
80.2274210161531016
 31
0.0
  0
LINE
  5
119ED
  8
0
 10
520.3739075611272256
 20
80.1974210161531005
 30
0.0
 11
521.0999037518272416
 21
80.1974210161531005
 31
0.0
  0
LINE
  5
119EE
  8
0
 10
520.3680751038270955
 20
80.2274210161531016
 30
0.0
 11
520.3679013280276422
 21
80.2075082815065343
 31
0.0
  0
ARC
  5
119EF
  8
0
 10
520.3779009472583539
 20
80.2074210161531056
 30
0.0
 40
0.01
 50
179.5000000088610079
 51
270.0
  0
ARC
  5
119F0
  8
0
 10
520.3739102555844056
 20
80.185414510935928
 30
0.0
 40
0.0120065055195101
 50
90.0128581149508022
 51
179.9689567038298037
  0
LINE
  5
119F1
  8
0
 10
521.105740018427241
 20
80.2274210161531016
 30
0.0
 11
521.1059137942266943
 21
80.2075082815065343
 31
0.0
  0
ARC
  5
119F2
  8
0
 10
521.0959141749959826
 20
80.2074210161531056
 30
0.0
 40
0.01
 50
270.0
 51
0.49999999113898
  0
ARC
  5
119F3
  8
0
 10
521.0999075600747119
 20
80.1854210156936631
 30
0.0
 40
0.0120000010637179
 50
1.4437157886720691
 51
90.0181830411957264
  0
ARC
  5
119F4
  8
0
 10
521.0999037518272416
 20
80.4898147161531057
 30
0.0
 40
0.012
 50
269.9999999999902229
 51
359.9999999999919282
  0
ARC
  5
119F5
  8
0
 10
521.0999037518272416
 20
80.4658147161531048
 30
0.0
 40
0.012
 50
359.9999999999959073
 51
90.0000000000097771
  0
ARC
  5
119F6
  8
0
 10
519.7369037518271853
 20
81.7878147161531075
 30
0.0
 40
1.375
 50
0.0
 51
90.0
  0
LINE
  5
119F7
  8
0
 10
520.3619037518270716
 20
81.7778147161530882
 30
0.0
 11
520.3619037518270716
 21
80.4898147161531057
 31
0.0
  0
ARC
  5
119F8
  8
0
 10
520.3739037518272426
 20
80.4898147161531057
 30
0.0
 40
0.012
 50
180.0
 51
270.0
  0
LINE
  5
119F9
  8
0
 10
520.3619037518270716
 20
80.4658147161531048
 30
0.0
 11
520.3619037518270716
 21
80.2274210161531016
 31
0.0
  0
LINE
  5
119FA
  8
0
 10
520.3619037518270716
 20
80.1854210161531
 30
0.0
 11
520.3619037518270716
 21
78.9174210161530993
 31
0.0
  0
ARC
  5
119FB
  8
0
 10
519.7369037518271853
 20
81.7778147161530882
 30
0.0
 40
0.625
 50
0.0
 51
90.0
  0
ARC
  5
119FC
  8
0
 10
520.3739037518272426
 20
80.4658147161531048
 30
0.0
 40
0.012
 50
90.0
 51
180.0000000000081002
  0
LINE
  5
119FD
  8
0
 10
519.7369037518271853
 20
78.2924210161530993
 30
0.0
 11
512.8619037518772075
 21
78.2924210161530993
 31
0.0
  0
ARC
  5
119FE
  8
0
 10
519.7369037518271853
 20
78.9174210161530993
 30
0.0
 40
1.375
 50
270.0
 51
0.0
  0
ARC
  5
119FF
  8
0
 10
519.7369037518271853
 20
78.9174210161530993
 30
0.0
 40
0.625
 50
270.0
 51
0.0
  0
ARC
  5
11A00
  8
0
 10
520.8450313860712413
 20
80.4425512939334482
 30
0.0
 40
0.0352635161497145
 50
41.2771713894248222
 51
89.8677556188614375
  0
LINE
  5
11A01
  8
0
 10
520.6022822502270628
 20
80.4658147161531048
 30
0.0
 11
520.6022822502270628
 21
80.2274210161531016
 31
0.0
  0
ARC
  5
11A02
  8
0
 10
520.6287837361830952
 20
80.4425512939334482
 30
0.0
 40
0.0352635161497145
 50
90.1322443811385767
 51
138.722828610575192
  0
LINE
  5
11A03
  8
0
 10
506.5669037518271125
 20
83.3678147161531058
 30
0.0
 11
506.0569037518271784
 21
83.3678147161531058
 31
0.0
  0
ARC
  5
11A04
  8
0
 10
506.0569037518271784
 20
83.3478147161530956
 30
0.0
 40
0.02
 50
90.0
 51
180.0
  0
LINE
  5
11A05
  8
0
 10
506.0169037518272148
 20
83.3678147161531058
 30
0.0
 11
505.9569037518270989
 21
83.3678147161531058
 31
0.0
  0
ARC
  5
11A06
  8
0
 10
506.0169037518272148
 20
83.3578147161531149
 30
0.0
 40
0.01
 50
0.0
 51
90.0
  0
ARC
  5
11A07
  8
0
 10
505.9569037518270989
 20
83.3578147161531149
 30
0.0
 40
0.01
 50
90.0
 51
180.0
  0
LINE
  5
11A08
  8
0
 10
506.026903751827092
 20
83.3578147161531149
 30
0.0
 11
506.026903751827092
 21
82.2178062753530838
 31
0.0
  0
LINE
  5
11A09
  8
0
 10
506.0369037518270829
 20
83.3478147161530956
 30
0.0
 11
506.0369037518270829
 21
82.2278062753531032
 31
0.0
  0
LINE
  5
11A0A
  8
0
 10
505.9469037518272216
 20
83.3578147161531149
 30
0.0
 11
505.9469037518272216
 21
82.2178062753530838
 31
0.0
  0
ARC
  5
11A0B
  8
0
 10
505.9369037518271739
 20
83.2578147161530921
 30
0.0
 40
0.01
 50
270.0
 51
0.0
  0
LINE
  5
11A0C
  8
0
 10
505.8669037518271807
 20
83.2378147161530961
 30
0.0
 11
505.8669037518271807
 21
82.3378062753531026
 31
0.0
  0
ARC
  5
11A0D
  8
0
 10
505.8569037518271898
 20
83.0778147161530995
 30
0.0
 40
0.01
 50
270.0
 51
0.0
  0
ARC
  5
11A0E
  8
0
 10
505.8769037518271148
 20
83.2378147161530961
 30
0.0
 40
0.01
 50
90.0
 51
180.0
  0
LINE
  5
11A0F
  8
0
 10
505.6739037518271971
 20
83.0578147161530893
 30
0.0
 11
505.6739037518271971
 21
82.5178147161530831
 31
0.0
  0
ARC
  5
11A10
  8
0
 10
505.703903751827113
 20
83.0378147161530933
 30
0.0
 40
0.03
 50
90.0
 51
180.0
  0
LINE
  5
11A11
  8
0
 10
505.8569037518271898
 20
83.0678147161530944
 30
0.0
 11
505.703903751827113
 21
83.0678147161530944
 31
0.0
  0
LINE
  5
11A12
  8
0
 10
505.6639037518272062
 20
83.0678147161530944
 30
0.0
 11
504.9139037518272062
 21
83.0678147161530944
 31
0.0
  0
ARC
  5
11A13
  8
0
 10
505.6639037518272062
 20
83.0578147161530893
 30
0.0
 40
0.01
 50
0.0
 51
90.0
  0
LINE
  5
11A14
  8
0
 10
504.8939037518272244
 20
83.0478147161530984
 30
0.0
 11
504.8939037518272244
 21
82.2988147161531032
 31
0.0
  0
ARC
  5
11A15
  8
0
 10
504.9139037518272062
 20
83.0478147161530984
 30
0.0
 40
0.02
 50
90.0000000000195257
 51
179.9999999999926104
  0
LINE
  5
11A16
  8
0
 10
505.8769037518271148
 20
83.2478147161531012
 30
0.0
 11
505.9369037518271739
 21
83.2478147161531012
 31
0.0
  0
LINE
  5
11A17
  8
0
 10
506.026903751827092
 20
83.2722147161531012
 30
0.0
 11
506.0369037518270829
 21
83.2722147161531012
 31
0.0
  0
LINE
  5
11A18
  8
0
 10
506.586903751827208
 20
83.3478147161530956
 30
0.0
 11
506.586903751827208
 21
82.2278062753531032
 31
0.0
  0
ARC
  5
11A19
  8
0
 10
506.6069037518270761
 20
83.3478147161530956
 30
0.0
 40
0.02
 50
90.0000000000097771
 51
180.0
  0
ARC
  5
11A1A
  8
0
 10
506.5669037518271125
 20
83.3478147161530956
 30
0.0
 40
0.02
 50
0.0000000000048853
 51
90.0
  0
ARC
  5
11A1B
  8
0
 10
505.8569037518271898
 20
82.497738035953077
 30
0.0
 40
0.01
 50
0.0
 51
90.0
  0
ARC
  5
11A1C
  8
0
 10
505.703903751827113
 20
82.5377380359530974
 30
0.0
 40
0.03
 50
180.0
 51
270.0
  0
LINE
  5
11A1D
  8
0
 10
505.8569037518271898
 20
82.5077380359530963
 30
0.0
 11
505.703903751827113
 21
82.5077380359530963
 31
0.0
  0
ARC
  5
11A1E
  8
0
 10
505.6639037518272062
 20
82.5177380359531156
 30
0.0
 40
0.01
 50
270.0
 51
0.0
  0
LINE
  5
11A1F
  8
0
 10
505.6639037518272062
 20
82.5077380359530963
 30
0.0
 11
505.4739037518272085
 21
82.5077380359530963
 31
0.0
  0
ARC
  5
11A20
  8
0
 10
505.4739037518272085
 20
82.4877380359531145
 30
0.0
 40
0.02
 50
90.0
 51
180.0
  0
LINE
  5
11A21
  8
0
 10
505.4539037518272266
 20
82.4877380359531145
 30
0.0
 11
505.4539037518272266
 21
82.2988147161531032
 31
0.0
  0
LINE
  5
11A22
  8
0
 10
504.8364037518272198
 20
82.2888147161530839
 30
0.0
 11
505.5114037518271175
 21
82.2888147161530839
 31
0.0
  0
LINE
  5
11A23
  8
0
 10
504.7989037518271971
 20
82.2188147161531049
 30
0.0
 11
505.5489037518270834
 21
82.2188147161531049
 31
0.0
  0
ARC
  5
11A24
  8
0
 10
504.8264037518271152
 20
82.2238147161531003
 30
0.0
 40
0.005
 50
270.0
 51
0.0
  0
LINE
  5
11A25
  8
0
 10
504.8314037518272244
 20
82.2238147161531003
 30
0.0
 11
504.8314037518272244
 21
82.2838147161531026
 31
0.0
  0
ARC
  5
11A26
  8
0
 10
504.8364037518272198
 20
82.2838147161531026
 30
0.0
 40
0.005
 50
90.0
 51
180.0
  0
LINE
  5
11A27
  8
0
 10
504.7989037518271971
 20
82.2188147161531049
 30
0.0
 11
504.7989037518271971
 21
79.9048147161530977
 31
0.0
  0
LINE
  5
11A28
  8
0
 10
504.7989037518271971
 20
79.9048147161530977
 30
0.0
 11
505.5489037518270834
 21
79.9048147161530977
 31
0.0
  0
LINE
  5
11A29
  8
0
 10
505.5114037518271175
 20
79.8348147161531045
 30
0.0
 11
504.8364037518272198
 21
79.8348147161531045
 31
0.0
  0
ARC
  5
11A2A
  8
0
 10
504.8364037518272198
 20
79.8398147161531
 30
0.0
 40
0.005
 50
180.0
 51
270.0
  0
LINE
  5
11A2B
  8
0
 10
504.8314037518272244
 20
79.8998147161531023
 30
0.0
 11
504.8314037518272244
 21
79.8398147161531
 31
0.0
  0
ARC
  5
11A2C
  8
0
 10
504.8264037518271152
 20
79.8998147161531023
 30
0.0
 40
0.005
 50
0.0
 51
90.0
  0
ARC
  5
11A2D
  8
0
 10
504.9039037518272153
 20
82.2988147161531032
 30
0.0
 40
0.01
 50
180.0
 51
270.0
  0
ARC
  5
11A2E
  8
0
 10
505.5214037518271084
 20
82.2238147161531003
 30
0.0
 40
0.005
 50
180.0
 51
270.0
  0
LINE
  5
11A2F
  8
0
 10
505.516403751827113
 20
82.2238147161531003
 30
0.0
 11
505.516403751827113
 21
82.2838147161531026
 31
0.0
  0
ARC
  5
11A30
  8
0
 10
505.5114037518271175
 20
82.2838147161531026
 30
0.0
 40
0.005
 50
0.0
 51
90.0
  0
LINE
  5
11A31
  8
0
 10
505.5489037518270834
 20
82.2188147161531049
 30
0.0
 11
505.5489037518270834
 21
79.9048147161530977
 31
0.0
  0
ARC
  5
11A32
  8
0
 10
505.5114037518271175
 20
79.8398147161531
 30
0.0
 40
0.005
 50
270.0
 51
0.0
  0
LINE
  5
11A33
  8
0
 10
505.516403751827113
 20
79.8998147161531023
 30
0.0
 11
505.516403751827113
 21
79.8398147161531
 31
0.0
  0
ARC
  5
11A34
  8
0
 10
505.5214037518271084
 20
79.8998147161531023
 30
0.0
 40
0.005
 50
90.0
 51
180.0
  0
ARC
  5
11A35
  8
0
 10
505.4439037518271221
 20
82.2988147161531032
 30
0.0
 40
0.01
 50
270.0
 51
0.0
  0
LINE
  5
11A36
  8
0
 10
506.5669037518271125
 20
82.2078062753530929
 30
0.0
 11
506.0569037518271784
 21
82.2078062753530929
 31
0.0
  0
ARC
  5
11A37
  8
0
 10
506.0569037518271784
 20
82.2278062753531032
 30
0.0
 40
0.02
 50
180.0
 51
270.0
  0
LINE
  5
11A38
  8
0
 10
506.0169037518272148
 20
82.2078062753530929
 30
0.0
 11
505.9569037518270989
 21
82.2078062753530929
 31
0.0
  0
ARC
  5
11A39
  8
0
 10
506.0169037518272148
 20
82.2178062753530838
 30
0.0
 40
0.01
 50
270.0
 51
0.0
  0
ARC
  5
11A3A
  8
0
 10
505.9569037518270989
 20
82.2178062753530838
 30
0.0
 40
0.01
 50
180.0
 51
270.0
  0
ARC
  5
11A3B
  8
0
 10
505.9369037518271739
 20
82.3178062753530924
 30
0.0
 40
0.01
 50
0.0
 51
90.0
  0
ARC
  5
11A3C
  8
0
 10
505.8569037518271898
 20
82.4978062753530992
 30
0.0
 40
0.01
 50
0.0
 51
90.0
  0
ARC
  5
11A3D
  8
0
 10
505.8769037518271148
 20
82.3378062753531026
 30
0.0
 40
0.01
 50
180.0
 51
270.0
  0
LINE
  5
11A3E
  8
0
 10
505.8769037518271148
 20
82.3278062753530975
 30
0.0
 11
505.9369037518271739
 21
82.3278062753530975
 31
0.0
  0
LINE
  5
11A3F
  8
0
 10
506.026903751827092
 20
82.3034062753530975
 30
0.0
 11
506.0369037518270829
 21
82.3034062753530975
 31
0.0
  0
ARC
  5
11A40
  8
0
 10
506.6069037518270761
 20
82.2278062753531032
 30
0.0
 40
0.02
 50
180.0
 51
269.9999999999902229
  0
ARC
  5
11A41
  8
0
 10
506.5669037518271125
 20
82.2278062753531032
 30
0.0
 40
0.02
 50
270.0
 51
359.9999999999951115
  0
ARC
  5
11A42
  8
0
 10
511.8619037518271284
 20
81.0278147161531024
 30
0.0
 40
0.46
 50
307.4952497632917243
 51
232.5047502367083041
  0
ARC
  5
11A43
  8
0
 10
511.8619037518271284
 20
81.0278147161531024
 30
0.0
 40
0.2799999999999995
 50
359.999136388899899
 51
180.000863611100101
  0
ARC
  5
11A44
  8
0
 10
511.8619037518271284
 20
81.0278104957531156
 30
0.0
 40
0.5800042204000003
 50
300.6461994273846017
 51
239.3538005726153131
  0
ARC
  5
11A45
  8
0
 10
512.2768037518770825
 20
80.5672247464856639
 30
0.0
 40
0.0399
 50
132.0128257417268003
 51
180.0
  0
ARC
  5
11A46
  8
0
 10
511.4470037518771051
 20
80.5672247463955813
 30
0.0
 40
0.0399
 50
0.0
 51
47.987174270716352
  0
LINE
  5
11A47
  8
0
 10
511.5244037518771165
 20
80.5288147161530929
 30
0.0
 11
512.1994037518771847
 21
80.5288147161531072
 31
0.0
  0
LINE
  5
11A48
  8
0
 10
511.4869037518770938
 20
80.4588147161530856
 30
0.0
 11
512.2369037518772075
 21
80.4588147161530856
 31
0.0
  0
ARC
  5
11A49
  8
0
 10
511.5144037518771825
 20
80.4638147161530952
 30
0.0
 40
0.005
 50
270.0
 51
0.0
  0
LINE
  5
11A4A
  8
0
 10
511.5194037518771211
 20
80.4638147161530952
 30
0.0
 11
511.5194037518771211
 21
80.5238147161530975
 31
0.0
  0
ARC
  5
11A4B
  8
0
 10
511.5244037518771165
 20
80.5238147161530975
 30
0.0
 40
0.005
 50
90.0
 51
180.0
  0
LINE
  5
11A4C
  8
0
 10
511.4869037518770938
 20
80.5672247463955813
 30
0.0
 11
511.4869037518770938
 21
78.1448147161530926
 31
0.0
  0
LINE
  5
11A4D
  8
0
 10
511.4869037518770938
 20
78.1448147161530926
 30
0.0
 11
512.2369037518772075
 21
78.1448147161531068
 31
0.0
  0
LINE
  5
11A4E
  8
0
 10
512.1994037518771847
 20
78.0748147161530994
 30
0.0
 11
511.5244037518771165
 21
78.0748147161530994
 31
0.0
  0
ARC
  5
11A4F
  8
0
 10
511.5244037518771165
 20
78.0798147161530949
 30
0.0
 40
0.005
 50
180.0
 51
270.0
  0
LINE
  5
11A50
  8
0
 10
511.5194037518771211
 20
78.1398147161530972
 30
0.0
 11
511.5194037518771211
 21
78.0798147161530949
 31
0.0
  0
ARC
  5
11A51
  8
0
 10
511.5144037518771825
 20
78.1398147161530972
 30
0.0
 40
0.005
 50
0.0
 51
90.0
  0
ARC
  5
11A52
  8
0
 10
511.591903751877112
 20
80.5388147161530981
 30
0.0
 40
0.01
 50
180.0
 51
270.0
  0
ARC
  5
11A53
  8
0
 10
512.2094037518770619
 20
80.4638147161530952
 30
0.0
 40
0.005
 50
180.0
 51
270.0
  0
LINE
  5
11A54
  8
0
 10
512.2044037518770665
 20
80.4638147161530952
 30
0.0
 11
512.2044037518770665
 21
80.5238147161530975
 31
0.0
  0
ARC
  5
11A55
  8
0
 10
512.1994037518771847
 20
80.5238147161530975
 30
0.0
 40
0.005
 50
0.0
 51
90.0
  0
LINE
  5
11A56
  8
0
 10
512.2369037518772075
 20
80.5672247464856639
 30
0.0
 11
512.2369037518772075
 21
78.1448147161531068
 31
0.0
  0
ARC
  5
11A57
  8
0
 10
512.1994037518771847
 20
78.0798147161530949
 30
0.0
 40
0.005
 50
270.0
 51
0.0
  0
LINE
  5
11A58
  8
0
 10
512.2044037518770665
 20
78.1398147161530972
 30
0.0
 11
512.2044037518770665
 21
78.0798147161530949
 31
0.0
  0
ARC
  5
11A59
  8
0
 10
512.2094037518770619
 20
78.1398147161530972
 30
0.0
 40
0.005
 50
90.0
 51
180.0
  0
ARC
  5
11A5A
  8
0
 10
512.1319037518770756
 20
80.5388147161530981
 30
0.0
 40
0.01
 50
270.0
 51
0.0
  0
ARC
  5
11A5B
  8
0
 10
512.8619037518772075
 20
78.9174210161530993
 30
0.0
 40
0.625
 50
180.0
 51
270.0
  0
ARC
  5
11A5C
  8
0
 10
512.8619037518270716
 20
78.9174210161530993
 30
0.0
 40
1.374999999999998
 50
217.7925699283028962
 51
270.0
  0
LINE
  5
11A5D
  8
0
 10
512.1419037518270443
 20
80.5388147161530981
 30
0.0
 11
512.1419037517954393
 21
81.0278104957531156
 31
0.0
  0
LINE
  5
11A5E
  8
0
 10
511.5819037518272125
 20
80.5388147161530981
 30
0.0
 11
511.581903751858988
 21
81.0278104957531156
 31
0.0
  0
ARC
  5
11A5F
  8
0
 10
511.8619037518271284
 20
81.0278147161531024
 30
0.0
 40
1.3749999999999989
 50
285.8266201340376824
 51
254.1733798702921092
  0
ARC
  5
11A60
  8
0
 10
511.8619037518271284
 20
81.0278147161531024
 30
0.0
 40
1.204999999999999
 50
288.1317630777568866
 51
251.8682369272464996
  0
ARC
  5
11A61
  8
0
 10
511.861481733026892
 20
81.0074999573904933
 30
0.0
 40
0.2803150673407817
 50
89.9137402584413934
 51
175.8440649508642082
  0
ARC
  5
11A62
  8
0
 10
511.861603480303927
 20
81.0067224485548536
 30
0.0
 40
0.281092418877901
 50
4.3024724220192576
 51
89.9387948834444302
  0
ARC
  5
11A63
  8
0
 10
511.8619037518271284
 20
81.0278147161531024
 30
0.0
 40
1.2849999999999979
 50
286.9674750061067243
 51
253.0325249985548908
  0
ARC
  5
11A64
  8
0
 10
511.8619037518271284
 20
81.0278104957531156
 30
0.0
 40
0.4500042203999826
 50
308.4781680309255876
 51
231.5218319676272927
  0
LINE
  5
11A65
  8
0
 10
509.4669037518270898
 20
83.3478147161530956
 30
0.0
 11
509.4669037518270898
 21
82.2278147161531052
 31
0.0
  0
LINE
  5
11A66
  8
0
 10
509.5569037518271784
 20
83.2678147161530973
 30
0.0
 11
509.5569037518271784
 21
82.3077896220530931
 31
0.0
  0
LINE
  5
11A67
  8
0
 10
509.5069037518271102
 20
83.2878147161530933
 30
0.0
 11
509.5369037518270829
 21
83.2878147161530933
 31
0.0
  0
ARC
  5
11A68
  8
0
 10
509.5369037518270829
 20
83.2678147161530973
 30
0.0
 40
0.02
 50
0.0000000000024427
 51
90.0
  0
ARC
  5
11A69
  8
0
 10
509.5069037518271102
 20
83.3278147161531137
 30
0.0
 40
0.04
 50
180.0000000000015916
 51
270.0
  0
ARC
  5
11A6A
  8
0
 10
509.4469037518272216
 20
83.3478147161530956
 30
0.0
 40
0.02
 50
0.0000000000024427
 51
89.9999999999967457
  0
LINE
  5
11A6B
  8
0
 10
509.5069037518271102
 20
82.2877896220530971
 30
0.0
 11
509.5369037518270829
 21
82.2877896220530971
 31
0.0
  0
ARC
  5
11A6C
  8
0
 10
509.5369037518270829
 20
82.3077896220530931
 30
0.0
 40
0.02
 50
270.0
 51
359.9999999999976126
  0
ARC
  5
11A6D
  8
0
 10
509.5069037518271102
 20
82.2477896220530909
 30
0.0
 40
0.04
 50
90.0
 51
179.9999999999984084
  0
ARC
  5
11A6E
  8
0
 10
509.4469037518272216
 20
82.2277896220530948
 30
0.0
 40
0.02
 50
270.0000000000032969
 51
359.9999999999976126
  0
LINE
  5
11A6F
  8
0
 10
509.4469037518272216
 20
82.2077896220530988
 30
0.0
 11
508.1019039416302121
 21
82.2077896220530988
 31
0.0
  0
ARC
  5
11A70
  8
0
 10
508.1019039416302121
 20
82.1677896220531068
 30
0.0
 40
0.04
 50
90.0
 51
180.0
  0
LINE
  5
11A71
  8
0
 10
508.0619039416303053
 20
82.1677896220531068
 30
0.0
 11
508.0619039416303053
 21
81.4878147161530961
 31
0.0
  0
ARC
  5
11A72
  8
0
 10
508.0519039416302007
 20
81.4878147161530961
 30
0.0
 40
0.01
 50
270.0
 51
0.0
  0
LINE
  5
11A73
  8
0
 10
507.1619037518271966
 20
81.4778147161531052
 30
0.0
 11
508.0519039416302007
 21
81.4778147161531052
 31
0.0
  0
ARC
  5
11A74
  8
0
 10
507.1119037518271284
 20
82.1677896220531068
 30
0.0
 40
0.04
 50
0.0
 51
90.0
  0
LINE
  5
11A75
  8
0
 10
507.1519037518272057
 20
82.1677896220531068
 30
0.0
 11
507.1519037518272057
 21
81.4878147161530961
 31
0.0
  0
ARC
  5
11A76
  8
0
 10
507.1619037518271966
 20
81.4878147161530961
 30
0.0
 40
0.01
 50
180.0
 51
270.0
  0
LINE
  5
11A77
  8
0
 10
506.6069037518270761
 20
82.2078062753530929
 30
0.0
 11
507.1119037518271284
 21
82.2077896220530988
 31
0.0
  0
ARC
  5
11A78
  8
0
 10
508.1665919646191014
 20
81.0551026553341245
 30
0.0
 40
1.5058766400622681
 50
120.5335365655833044
 51
132.3625017273957951
  0
ARC
  5
11A79
  8
0
 10
507.6216894770943213
 20
81.9916505739254262
 30
0.0
 40
0.4224137906172515
 50
91.9569034867466542
 51
121.4103860966245065
  0
ARC
  5
11A7A
  8
0
 10
507.072314273834877
 20
81.0919936447487117
 30
0.0
 40
1.461719773209528
 50
47.3900584684694408
 51
59.5547449771929891
  0
ARC
  5
11A7B
  8
0
 10
507.5928428046926228
 20
81.991651482758499
 30
0.0
 40
0.4224128036188537
 50
58.5895966029716533
 51
88.0434047337366081
  0
LINE
  5
11A7C
  8
0
 10
504.8997616162034774
 20
83.061956851776813
 30
0.0
 11
505.4597616162034228
 21
82.5018801715768149
 31
0.0
  0
ENDSEC
  0
EOF
