  0
SECTION
  2
HEADER
  9
$ACADVER
  1
AC1009
  9
$INSBASE
 10
4847.1608654441115505
 20
224.9464816926885078
 30
0.0
  9
$EXTMIN
 10
4841.8017861481403088
 20
218.7117529842244039
 30
-0.0015258207003583
  9
$EXTMAX
 10
4852.5378112265589152
 20
225.8805958161277943
 30
0.0000000349246037
  9
$LIMMIN
 10
0.0
 20
0.0
  9
$LIMMAX
 10
11.6929133858000007
 20
8.2677165353999982
  9
$ORTHOMODE
 70
     0
  9
$REGENMODE
 70
     1
  9
$FILLMODE
 70
     1
  9
$QTEXTMODE
 70
     0
  9
$MIRRTEXT
 70
     0
  9
$DRAGMODE
 70
     2
  9
$LTSCALE
 40
0.6431102362
  9
$OSMODE
 70
  4095
  9
$ATTMODE
 70
     1
  9
$TEXTSIZE
 40
0.2
  9
$TRACEWID
 40
0.05
  9
$TEXTSTYLE
  7
STANDARD
  9
$CLAYER
  8
0
  9
$CELTYPE
  6
BYLAYER
  9
$CECOLOR
 62
   256
  9
$DIMSCALE
 40
1.0
  9
$DIMASZ
 40
0.1875
  9
$DIMEXO
 40
0.0625
  9
$DIMDLI
 40
0.4443307087
  9
$DIMRND
 40
0.0
  9
$DIMDLE
 40
0.0
  9
$DIMEXE
 40
0.125
  9
$DIMTP
 40
0.01
  9
$DIMTM
 40
0.01
  9
$DIMTXT
 40
2.0
  9
$DIMCEN
 40
0.1052362205
  9
$DIMTSZ
 40
0.0
  9
$DIMTOL
 70
     1
  9
$DIMLIM
 70
     0
  9
$DIMTIH
 70
     1
  9
$DIMTOH
 70
     1
  9
$DIMSE1
 70
     0
  9
$DIMSE2
 70
     0
  9
$DIMTAD
 70
     0
  9
$DIMZIN
 70
     0
  9
$DIMBLK
  1

  9
$DIMASO
 70
     1
  9
$DIMSHO
 70
     1
  9
$DIMPOST
  1
\X
  9
$DIMAPOST
  1

  9
$DIMALT
 70
     1
  9
$DIMALTD
 70
     2
  9
$DIMALTF
 40
25.3999999999999986
  9
$DIMLFAC
 40
1.0
  9
$DIMTOFL
 70
     0
  9
$DIMTVP
 40
0.0
  9
$DIMTIX
 70
     0
  9
$DIMSOXD
 70
     0
  9
$DIMSAH
 70
     0
  9
$DIMBLK1
  1

  9
$DIMBLK2
  1

  9
$DIMSTYLE
  2
STANDARD
  9
$DIMCLRD
 70
     0
  9
$DIMCLRE
 70
     0
  9
$DIMCLRT
 70
     0
  9
$DIMTFAC
 40
1.0
  9
$DIMGAP
 40
0.09
  9
$LUNITS
 70
     2
  9
$LUPREC
 70
     4
  9
$SKETCHINC
 40
0.1
  9
$FILLETRAD
 40
0.0
  9
$AUNITS
 70
     0
  9
$AUPREC
 70
     0
  9
$MENU
  1
.
  9
$ELEVATION
 40
0.0
  9
$PELEVATION
 40
0.0
  9
$THICKNESS
 40
0.0
  9
$LIMCHECK
 70
     0
  9
$BLIPMODE
 70
     0
  9
$CHAMFERA
 40
0.0
  9
$CHAMFERB
 40
0.0
  9
$SKPOLY
 70
     0
  9
$TDCREATE
 40
2458060.468368056230247
  9
$TDUPDATE
 40
2459690.7204861110076308
  9
$TDINDWG
 40
0.4320788194
  9
$TDUSRTIMER
 40
0.4320788194
  9
$USRTIMER
 70
     1
  9
$ANGBASE
 50
0.0
  9
$ANGDIR
 70
     0
  9
$PDMODE
 70
     0
  9
$PDSIZE
 40
0.3125
  9
$PLINEWID
 40
0.0
  9
$COORDS
 70
     1
  9
$SPLFRAME
 70
     0
  9
$SPLINETYPE
 70
     6
  9
$SPLINESEGS
 70
     8
  9
$ATTDIA
 70
     1
  9
$ATTREQ
 70
     1
  9
$HANDLING
 70
     1
  9
$HANDSEED
  5
CE26
  9
$SURFTAB1
 70
     6
  9
$SURFTAB2
 70
     6
  9
$SURFTYPE
 70
     6
  9
$SURFU
 70
     6
  9
$SURFV
 70
     6
  9
$UCSNAME
  2

  9
$UCSORG
 10
0.0
 20
0.0
 30
0.0
  9
$UCSXDIR
 10
1.0
 20
0.0
 30
0.0
  9
$UCSYDIR
 10
0.0
 20
1.0
 30
0.0
  9
$PUCSNAME
  2

  9
$PUCSORG
 10
0.0
 20
0.0
 30
0.0
  9
$PUCSXDIR
 10
1.0
 20
0.0
 30
0.0
  9
$PUCSYDIR
 10
0.0
 20
1.0
 30
0.0
  9
$USERI1
 70
     0
  9
$USERI2
 70
     0
  9
$USERI3
 70
     0
  9
$USERI4
 70
     0
  9
$USERI5
 70
     0
  9
$USERR1
 40
0.0
  9
$USERR2
 40
0.0
  9
$USERR3
 40
0.0
  9
$USERR4
 40
0.0
  9
$USERR5
 40
0.0
  9
$WORLDVIEW
 70
     1
  9
$SHADEDGE
 70
     3
  9
$SHADEDIF
 70
    70
  9
$TILEMODE
 70
     1
  9
$MAXACTVP
 70
    64
  9
$PLIMCHECK
 70
     0
  9
$PEXTMIN
 10
1.0000000000000000E+20
 20
1.0000000000000000E+20
 30
1.0000000000000000E+20
  9
$PEXTMAX
 10
-1.0000000000000000E+20
 20
-1.0000000000000000E+20
 30
-1.0000000000000000E+20
  9
$PLIMMIN
 10
0.0
 20
0.0
  9
$PLIMMAX
 10
12.0
 20
9.0
  9
$UNITMODE
 70
     0
  9
$VISRETAIN
 70
     1
  9
$PLINEGEN
 70
     0
  9
$PSLTSCALE
 70
     1
  0
ENDSEC
  0
SECTION
  2
TABLES
  0
TABLE
  2
VPORT
 70
     1
  0
VPORT
  2
*ACTIVE
 70
     0
 10
0.0
 20
0.0
 11
1.0
 21
1.0
 12
1043.625731304537112
 22
96.3009122034261651
 13
0.0
 23
0.0
 14
1.0
 24
1.0
 15
0.0
 25
0.0
 16
0.0
 26
0.0
 36
17.1152628219792007
 17
3803.5440673828129547
 27
125.9952621967499056
 37
0.0
 40
7.2137416387837439
 41
2.005224660397074
 42
50.0
 43
0.0
 44
0.0
 50
0.0
 51
0.0
 71
     0
 72
   100
 73
     1
 74
     1
 75
     0
 76
     0
 77
     0
 78
     0
  0
ENDTAB
  0
TABLE
  2
LTYPE
 70
     2
  0
LTYPE
  2
CONTINUOUS
 70
     0
  3
Solid line
 72
    65
 73
     0
 40
0.0
  0
LTYPE
  2
PHANTOM2
 70
     0
  3
___ _ _ ___ _ _ ___ _ _ ___ _ _
 72
    65
 73
     6
 40
1.25
 49
0.625
 49
-0.125
 49
0.125
 49
-0.125
 49
0.125
 49
-0.125
  0
ENDTAB
  0
TABLE
  2
LAYER
 70
     2
  0
LAYER
  2
0
 70
     0
 62
   255
  6
CONTINUOUS
  0
LAYER
  2
DEFPOINTS
 70
     0
 62
     7
  6
CONTINUOUS
  0
ENDTAB
  0
TABLE
  2
STYLE
 70
     1
  0
STYLE
  2
STANDARD
 70
     0
 40
0.0
 41
0.8
 50
0.0
 71
     0
 42
0.2
  3
txt
  4

  0
ENDTAB
  0
TABLE
  2
VIEW
 70
     0
  0
ENDTAB
  0
TABLE
  2
UCS
 70
     0
  0
ENDTAB
  0
TABLE
  2
APPID
 70
     9
  0
APPID
  2
ACAD
 70
     0
  0
APPID
  2
ACAD_MLEADERVER
 70
     0
  0
APPID
  2
ACAD_EXEMPT_FROM_CAD_STANDARDS
 70
     0
  0
APPID
  2
ACAD_NAV_VCDISPLAY
 70
     0
  0
APPID
  2
ACAECLAYERSTANDARD
 70
     0
  0
APPID
  2
ACCMTRANSPARENCY
 70
     0
  0
APPID
  2
ACAD_DSTYLE_DIMJAG
 70
     0
  0
APPID
  2
ACAD_DSTYLE_DIMTALN
 70
     0
  0
APPID
  2
ACDBATTR
 70
     0
  0
ENDTAB
  0
TABLE
  2
DIMSTYLE
 70
     1
  0
DIMSTYLE
  2
STANDARD
 70
     0
  3

  4

  5

  6

  7

 40
1.0
 41
0.1875
 42
0.0625
 43
0.38
 44
0.125
 45
0.0
 46
0.0
 47
0.01
 48
0.01
140
0.15625
141
0.09
142
0.0
143
25.3999999999999986
144
1.0
145
0.0
146
1.0
147
0.09
 71
     1
 72
     0
 73
     1
 74
     1
 75
     0
 76
     0
 77
     0
 78
     4
170
     0
171
     2
172
     0
173
     0
174
     0
175
     0
176
     0
177
     0
178
     0
  0
ENDTAB
  0
ENDSEC
  0
SECTION
  2
BLOCKS
  0
BLOCK
  8
0
  2
$MODEL_SPACE
 70
     0
 10
0.0
 20
0.0
 30
0.0
  3
$MODEL_SPACE
  1

  0
ENDBLK
  5
21
  8
0
  0
BLOCK
 67
     1
  8
0
  2
$PAPER_SPACE
 70
     0
 10
0.0
 20
0.0
 30
0.0
  3
$PAPER_SPACE
  1

  0
ENDBLK
  5
1D
 67
     1
  8
0
  0
ENDSEC
  0
SECTION
  2
ENTITIES
  0
ATTDEF
  5
3930
  8
DEFPOINTS
 10
4847.1549587654817515
 20
224.9436973691846902
 30
0.0
 40
0.001
  1
P29383-GF
  3

  2
MODELNUMBER
 70
     0
1001
ACDBATTR
1070
     0
1070
     1
  0
ATTDEF
  5
3931
  8
DEFPOINTS
 10
4847.1549587654817515
 20
224.9420307025181103
 30
0.0
 40
0.001
  1

  3

  2
TRADENAME
 70
     0
1001
ACDBATTR
1070
     0
1070
     1
  0
ATTDEF
  5
3932
  8
DEFPOINTS
 10
4847.1549587654817515
 20
224.9403640358513883
 30
0.0
 40
0.001
  1
BATHROOM SINK FAUCET
  3

  2
PRODUCT
 70
     0
1001
ACDBATTR
1070
     0
1070
     1
  0
ARC
  5
CC04
  8
0
 10
4847.1608676551622921
 20
216.2984052964847024
 30
0.0
 40
9.5547168727037786
 50
90.0000132581917711
 51
92.5558425332843342
  0
ARC
  5
CC05
  8
0
 10
4847.1635944713416393
 20
216.23731725443659
 30
0.0
 40
9.6158657435662391
 50
92.5558425332843342
 51
95.0077686535185393
  0
ARC
  5
CC06
  8
0
 10
4846.3567270888697749
 20
225.4454735766404099
 30
0.0
 40
0.3724260252016659
 50
95.0077686535185393
 51
172.9868882299853965
  0
ARC
  5
CC07
  8
0
 10
4851.032762062832262
 20
224.9079552789339118
 30
0.0
 40
5.0792430247069591
 50
173.4091243521658896
 51
179.6241911459019889
  0
ARC
  5
CC08
  8
0
 10
4851.6536564871739756
 20
225.0247898135555999
 30
0.0
 40
5.7006400410288158
 50
180.8394647087044973
 51
186.2717973134990075
  0
ARC
  5
CC09
  8
0
 10
4846.356985545327916
 20
224.4477577132597048
 30
0.0
 40
0.3726668831807917
 50
187.0492428811596142
 51
264.9562233722145947
  0
ARC
  5
CC0A
  8
0
 10
4847.130018537613978
 20
233.2064838633594093
 30
0.0
 40
9.1654402670230066
 50
264.9562233722145947
 51
266.2327934588287803
  0
ARC
  5
CC0B
  8
0
 10
4847.1608676504620234
 20
216.2988210473662889
 30
0.0
 40
9.5358870368221638
 50
90.0000132546482661
 51
92.8907877552357348
  0
ARC
  5
CC0C
  8
0
 10
4847.161779595943699
 20
216.2807615120393052
 30
0.0
 40
9.5539695825717832
 50
92.8907877552357348
 51
94.9410189240804385
  0
ARC
  5
CC0D
  8
0
 10
4846.3707292891949692
 20
225.4309861298343094
 30
0.0
 40
0.3696148886420587
 50
94.9410189240804385
 51
173.1519328474028896
  0
ARC
  5
CC0E
  8
0
 10
4851.10993757131655
 20
224.9047092981838887
 30
0.0
 40
5.137940810510937
 50
173.626618697069091
 51
179.5341694166278046
  0
ARC
  5
CC0F
  8
0
 10
4851.5462517800742717
 20
225.0143326336801977
 30
0.0
 40
5.5744981521344243
 50
180.6974021254222009
 51
186.1419399450159915
  0
ARC
  5
CC10
  8
0
 10
4846.3708766690451739
 20
224.4621211648720021
 30
0.0
 40
0.3697777326341359
 50
186.867332235919605
 51
265.0377703361734802
  0
ARC
  5
CC11
  8
0
 10
4847.1254894053899989
 20
233.153369197935092
 30
0.0
 40
9.0937236720630228
 50
265.0377703361734802
 51
266.2303398890251742
  0
LINE
  5
CC12
  8
0
 10
4846.8874973621595927
 20
218.7151431100884906
 30
0.0
 11
4847.4342323262217178
 21
218.7151431100884906
 31
0.0
  0
LINE
  5
CC13
  8
0
 10
4846.5840144949288515
 20
219.0152632400379957
 30
0.0
 11
4846.5264763400773518
 21
224.1818107601575036
 31
0.0
  0
ARC
  5
CC14
  8
0
 10
4846.8874985620022926
 20
219.0186460297308031
 30
0.0
 40
0.3035029196447223
 50
180.6386218157041128
 51
269.9997734916735226
  0
ARC
  5
CC15
  8
0
 10
4847.1608676551622921
 20
215.9484173533938929
 30
0.0
 40
9.3550310984945408
 50
90.0000135412022928
 51
92.1151824284686853
  0
ARC
  5
CC16
  8
0
 10
4847.1610339760973147
 20
215.9439141209545028
 30
0.0
 40
9.3595374013091241
 50
92.1151824284686853
 51
93.4048121027503981
  0
ARC
  5
CC17
  8
0
 10
4846.6134814902407015
 20
225.1472145693830953
 30
0.0
 40
0.139962960543746
 50
93.4048121027503981
 51
173.3473635277962046
  0
ARC
  5
CC18
  8
0
 10
4848.3346625329713788
 20
224.9464645747655993
 30
0.0
 40
1.872811696640245
 50
173.3473635277962046
 51
186.6777975812248087
  0
ARC
  5
CC19
  8
0
 10
4846.6286306361353127
 20
224.7467220763799958
 30
0.0
 40
0.1551266560457687
 50
186.6777975812248087
 51
206.9133860469254955
  0
ARC
  5
CC1A
  8
0
 10
4840.0252067320889182
 20
223.9551229116653133
 30
0.0
 40
6.5052205109728201
 50
1.9969941136924729
 51
6.3667845240145224
  0
ARC
  5
CC1B
  8
0
 10
4799.0444914711997626
 20
222.9066666350130959
 30
0.0
 40
47.4991039876341219
 50
1.5383270206392139
 51
2.5655562973773232
  0
ARC
  5
CC1C
  8
0
 10
4845.4169604692797293
 20
224.9844943168162104
 30
0.0
 40
1.0801073499084819
 50
2.5655562973773232
 51
6.653957418041176
  0
ARC
  5
CC1D
  8
0
 10
4846.3267182225035867
 20
225.0922360970635907
 30
0.0
 40
0.1640011338012682
 50
6.0949513868840048
 51
25.7281347736839905
  0
ARC
  5
CC1E
  8
0
 10
4847.1608632330617183
 20
216.2984052964847024
 30
0.0
 40
9.5547168727037786
 50
87.4441574667156658
 51
89.999986740661825
  0
ARC
  5
CC1F
  8
0
 10
4847.1581364168832806
 20
216.23731725443659
 30
0.0
 40
9.6158657435662391
 50
84.9922313464814465
 51
87.4441574667156658
  0
ARC
  5
CC20
  8
0
 10
4847.9650037993542355
 20
225.4454735766404099
 30
0.0
 40
0.3724260252016659
 50
7.0131117700146479
 51
84.9922313464814465
  0
ARC
  5
CC21
  8
0
 10
4843.2889688253926579
 20
224.9079552789339118
 30
0.0
 40
5.0792430247069591
 50
0.3758088540979665
 51
6.5908756478340367
  0
ARC
  5
CC22
  8
0
 10
4842.6680744010500348
 20
225.0247898135555999
 30
0.0
 40
5.7006400410288158
 50
353.7282026865009925
 51
359.160535291295389
  0
ARC
  5
CC23
  8
0
 10
4847.9647453428960944
 20
224.4477577132597048
 30
0.0
 40
0.3726668831807917
 50
275.0437766277852916
 51
352.9507571188403858
  0
ARC
  5
CC24
  8
0
 10
4847.1917123506100324
 20
233.2064838633594093
 30
0.0
 40
9.1654402670230066
 50
273.767206541171106
 51
275.0437766277852916
  0
ARC
  5
CC25
  8
0
 10
4847.160863237760168
 20
216.2988210473662889
 30
0.0
 40
9.5358870368221638
 50
87.1092122447642652
 51
89.9999867411829371
  0
ARC
  5
CC26
  8
0
 10
4847.1599512922803115
 20
216.2807615120393052
 30
0.0
 40
9.5539695825717832
 50
85.0589810759195473
 51
87.1092122447642652
  0
ARC
  5
CC27
  8
0
 10
4847.9510015990290412
 20
225.4309861298343094
 30
0.0
 40
0.3696148886420587
 50
6.8480671525971104
 51
85.0589810759195473
  0
ARC
  5
CC28
  8
0
 10
4843.2117933169065509
 20
224.9047092981838887
 30
0.0
 40
5.137940810510937
 50
0.4658305833721986
 51
6.3733813029308681
  0
ARC
  5
CC29
  8
0
 10
4842.7754791081497387
 20
225.0143326336801977
 30
0.0
 40
5.5744981521344243
 50
353.8580600549839801
 51
359.3025978745777138
  0
ARC
  5
CC2A
  8
0
 10
4847.950854219179746
 20
224.4621211648720021
 30
0.0
 40
0.3697777326341359
 50
274.9622296638265198
 51
353.1326677640805087
  0
ARC
  5
CC2B
  8
0
 10
4847.1962414828340115
 20
233.153369197935092
 30
0.0
 40
9.0937236720630228
 50
273.7696601109748258
 51
274.9622296638265198
  0
LINE
  5
CC2C
  8
0
 10
4847.7377163932942494
 20
219.0152632400379957
 30
0.0
 11
4847.7952545481475681
 21
224.1818107601575036
 31
0.0
  0
ARC
  5
CC2D
  8
0
 10
4847.4342323262217178
 20
219.0186460297308031
 30
0.0
 40
0.3035029196447223
 50
270.0
 51
359.3613781842959156
  0
ARC
  5
CC2E
  8
0
 10
4847.1608632330617183
 20
215.9484173533938929
 30
0.0
 40
9.3550310984945408
 50
87.8848175715313005
 51
89.9999864576512749
  0
ARC
  5
CC2F
  8
0
 10
4847.1606969121257862
 20
215.9439141209545028
 30
0.0
 40
9.3595374013091241
 50
86.5951878972496161
 51
87.8848175715313005
  0
ARC
  5
CC30
  8
0
 10
4847.7082493979833089
 20
225.1472145693830953
 30
0.0
 40
0.139962960543746
 50
6.65263647220383
 51
86.5951878972496161
  0
ARC
  5
CC31
  8
0
 10
4845.9870683552526316
 20
224.9464645747655993
 30
0.0
 40
1.872811696640245
 50
353.3222024187750776
 51
6.65263647220383
  0
ARC
  5
CC32
  8
0
 10
4847.6931002520877882
 20
224.7467220763799958
 30
0.0
 40
0.1551266560457687
 50
333.0866139530745045
 51
353.3222024187750776
  0
ARC
  5
CC33
  8
0
 10
4854.2965241561341827
 20
223.9551229116653133
 30
0.0
 40
6.5052205109728201
 50
173.6332154759855086
 51
178.0030058863075055
  0
ARC
  5
CC34
  8
0
 10
4895.2772394170242478
 20
222.9066666350130959
 30
0.0
 40
47.4991039876341219
 50
177.4344437026227013
 51
178.4616729793623904
  0
ARC
  5
CC35
  8
0
 10
4848.9047704189433716
 20
224.9844943168162104
 30
0.0
 40
1.0801073499084819
 50
173.3460425819588124
 51
177.4344437026227013
  0
ARC
  5
CC36
  8
0
 10
4847.9950126657204237
 20
225.0922360970635907
 30
0.0
 40
0.1640011338012682
 50
154.2718652263160095
 51
173.9050486131158948
  0
ARC
  5
CC37
  8
0
 10
4843.1608762902023955
 20
216.258562824172003
 30
0.0
 40
9.6151393476921001
 50
89.9978649651574045
 51
92.7437038065331052
  0
ARC
  5
CC38
  8
0
 10
4843.1608696306948332
 20
216.2587619905382041
 30
0.0
 40
9.6149400908604701
 50
92.7437209798580255
 51
95.0990442664609077
  0
ARC
  5
CC39
  8
0
 10
4842.3396450270947753
 20
225.4621370845399042
 30
0.0
 40
0.3749983718640826
 50
95.0990442664609077
 51
172.7581502089495018
  0
ARC
  5
CC3A
  8
0
 10
4846.3985610128711414
 20
224.9463644586300859
 30
0.0
 40
4.466553135181444
 50
172.7581502089495018
 51
174.9791156642529018
  0
ARC
  5
CC3B
  8
0
 10
4847.5746515653936513
 20
224.8948754468578102
 30
0.0
 40
5.64287340784111
 50
175.503443941898496
 51
179.4760007734402905
  0
ARC
  5
CC3C
  8
0
 10
4843.1806090207719535
 20
215.4062453005678037
 30
0.0
 40
10.1961062621455802
 50
90.1088723638519156
 51
93.0234116351515468
  0
ARC
  5
CC3D
  8
0
 10
4843.0966389623308714
 20
216.9960597728452001
 30
0.0
 40
8.6040757891403743
 50
93.0234116351515468
 51
94.6207570549800323
  0
ARC
  5
CC3E
  8
0
 10
4842.4264872421881591
 20
225.2876847446790975
 30
0.0
 40
0.2854131561476663
 50
94.6207570549800323
 51
101.135064519448207
  0
ARC
  5
CC3F
  8
0
 10
4842.4115887158277474
 20
225.3881917607428989
 30
0.0
 40
0.1839833979125413
 50
102.6275826650411034
 51
166.5557917299661881
  0
ARC
  5
CC40
  8
0
 10
4842.5339509491577701
 20
225.3671889682757978
 30
0.0
 40
0.3079801144201636
 50
168.0483098755773028
 51
172.9284222259502997
  0
ARC
  5
CC41
  8
0
 10
4844.6151274663261574
 20
225.1090130734050945
 30
0.0
 40
2.4051092206756679
 50
172.9284222259502997
 51
177.1149395132665916
  0
ARC
  5
CC42
  8
0
 10
4851.0295546988745627
 20
224.7857489990136912
 30
0.0
 40
8.8276769613437995
 50
177.114939513265
 51
178.9567114944011053
  0
ARC
  5
CC43
  8
0
 10
4843.1608676551622921
 20
233.6341601722955943
 30
0.0
 40
9.6148988210071433
 50
267.2562790201419034
 51
270.0021865449493816
  0
ARC
  5
CC44
  8
0
 10
4843.1608696306948332
 20
233.6342013948386978
 30
0.0
 40
9.6149400908604701
 50
264.9009557335390923
 51
267.2562790201419034
  0
ARC
  5
CC45
  8
0
 10
4842.3396450270947753
 20
224.4308263008369977
 30
0.0
 40
0.3749983718640826
 50
187.2418497910504982
 51
264.9009557335390923
  0
ARC
  5
CC46
  8
0
 10
4846.3985610128711414
 20
224.9465989267467876
 30
0.0
 40
4.466553135181444
 50
185.0208843357470982
 51
187.2418497910504982
  0
ARC
  5
CC47
  8
0
 10
4847.5746515653936513
 20
224.9980879385192054
 30
0.0
 40
5.64287340784111
 50
180.5239992265595959
 51
184.496556058101504
  0
ARC
  5
CC48
  8
0
 10
4843.1806090207719535
 20
234.4867180848090129
 30
0.0
 40
10.1961062621455802
 50
266.9765883648483964
 51
269.8911276361480986
  0
ARC
  5
CC49
  8
0
 10
4843.0966389623308714
 20
232.8969036125317018
 30
0.0
 40
8.6040757891403743
 50
265.3792429450199961
 51
266.9765883648483964
  0
ARC
  5
CC4A
  8
0
 10
4842.4264872421881591
 20
224.6052786406978896
 30
0.0
 40
0.2854131561476663
 50
258.8649354805518215
 51
265.3792429450199961
  0
ARC
  5
CC4B
  8
0
 10
4842.4115887158277474
 20
224.504771624634003
 30
0.0
 40
0.1839833979125413
 50
193.4442082700338119
 51
257.372417334958925
  0
ARC
  5
CC4C
  8
0
 10
4842.5339509491577701
 20
224.5257744171011041
 30
0.0
 40
0.3079801144201636
 50
187.0715777740497003
 51
191.9516901244226119
  0
ARC
  5
CC4D
  8
0
 10
4844.6151274663261574
 20
224.7839503119718074
 30
0.0
 40
2.4051092206756679
 50
182.8850604867334084
 51
187.0715777740497003
  0
ARC
  5
CC4E
  8
0
 10
4851.0295546988745627
 20
225.1072143863632959
 30
0.0
 40
8.8276769613437995
 50
181.0432885055988095
 51
182.885060486735
  0
ARC
  5
CC4F
  8
0
 10
4843.1615928755227287
 20
216.2585628241718894
 30
0.0
 40
9.6151393476921108
 50
87.2562961934668948
 51
90.0021350348425955
  0
ARC
  5
CC50
  8
0
 10
4843.1615995350293815
 20
216.2587619905382041
 30
0.0
 40
9.6149400908604701
 50
84.9009557335391065
 51
87.2562790201419602
  0
ARC
  5
CC51
  8
0
 10
4843.9828241386294394
 20
225.4621370845399042
 30
0.0
 40
0.3749983718640826
 50
7.2418497910504742
 51
84.9009557335391065
  0
ARC
  5
CC52
  8
0
 10
4839.9239081528539828
 20
224.9463644586300859
 30
0.0
 40
4.466553135181444
 50
5.0208843357471338
 51
7.2418497910504742
  0
ARC
  5
CC53
  8
0
 10
4838.7478176003305634
 20
224.8948754468578102
 30
0.0
 40
5.64287340784111
 50
0.5239992265596106
 51
4.4965560581015067
  0
ARC
  5
CC54
  8
0
 10
4843.1418601449513517
 20
215.4062453005678037
 30
0.0
 40
10.1961062621455802
 50
86.9765883648484532
 51
89.8911276361480844
  0
ARC
  5
CC55
  8
0
 10
4843.2258302033924338
 20
216.9960597728452001
 30
0.0
 40
8.6040757891403743
 50
85.3792429450199819
 51
86.9765883648484532
  0
ARC
  5
CC56
  8
0
 10
4843.8959819235360555
 20
225.2876847446790975
 30
0.0
 40
0.2854131561476663
 50
78.8649354805518072
 51
85.3792429450199819
  0
ARC
  5
CC57
  8
0
 10
4843.9108804498955578
 20
225.3881917607428989
 30
0.0
 40
0.1839833979125413
 50
13.4442082700337693
 51
77.3724173349588966
  0
ARC
  5
CC58
  8
0
 10
4843.7885182165664446
 20
225.3671889682757978
 30
0.0
 40
0.3079801144201636
 50
7.0715777740497412
 51
11.9516901244226599
  0
ARC
  5
CC59
  8
0
 10
4841.7073416993980572
 20
225.1090130734050945
 30
0.0
 40
2.4051092206756679
 50
2.8850604867333862
 51
7.0715777740497412
  0
ARC
  5
CC5A
  8
0
 10
4835.2929144668469235
 20
224.7857489990136912
 30
0.0
 40
8.8276769613437995
 50
1.0432885055988841
 51
2.885060486735012
  0
ARC
  5
CC5B
  8
0
 10
4843.1616015105619226
 20
233.6341601722955943
 30
0.0
 40
9.6148988210071433
 50
269.9978134550506184
 51
272.7437209798579829
  0
ARC
  5
CC5C
  8
0
 10
4843.1615995350293815
 20
233.6342013948386978
 30
0.0
 40
9.6149400908604701
 50
272.7437209798579829
 51
275.0990442664609077
  0
ARC
  5
CC5D
  8
0
 10
4843.9828241386294394
 20
224.4308263008369977
 30
0.0
 40
0.3749983718640826
 50
275.0990442664609077
 51
352.7581502089494734
  0
ARC
  5
CC5E
  8
0
 10
4839.9239081528539828
 20
224.9465989267467876
 30
0.0
 40
4.466553135181444
 50
352.7581502089494734
 51
354.9791156642529018
  0
ARC
  5
CC5F
  8
0
 10
4838.7478176003305634
 20
224.9980879385192054
 30
0.0
 40
5.64287340784111
 50
355.5034439418985244
 51
359.4760007734403757
  0
ARC
  5
CC60
  8
0
 10
4843.1418601449513517
 20
234.4867180848090129
 30
0.0
 40
10.1961062621455802
 50
270.1088723638519014
 51
273.0234116351514899
  0
ARC
  5
CC61
  8
0
 10
4843.2258302033924338
 20
232.8969036125317018
 30
0.0
 40
8.6040757891403743
 50
273.0234116351514899
 51
274.6207570549800039
  0
ARC
  5
CC62
  8
0
 10
4843.8959819235360555
 20
224.6052786406978896
 30
0.0
 40
0.2854131561476663
 50
274.6207570549800039
 51
281.1350645194481785
  0
ARC
  5
CC63
  8
0
 10
4843.9108804498955578
 20
224.504771624634003
 30
0.0
 40
0.1839833979125413
 50
282.627582665041075
 51
346.5557917299661881
  0
ARC
  5
CC64
  8
0
 10
4843.7885182165664446
 20
224.5257744171011041
 30
0.0
 40
0.3079801144201636
 50
348.0483098755772744
 51
352.9284222259503281
  0
ARC
  5
CC65
  8
0
 10
4841.7073416993980572
 20
224.7839503119718074
 30
0.0
 40
2.4051092206756679
 50
352.9284222259503281
 51
357.11493951326662
  0
ARC
  5
CC66
  8
0
 10
4835.2929144668469235
 20
225.1072143863632959
 30
0.0
 40
8.8276769613437995
 50
357.1149395132650284
 51
358.9567114944010768
  0
ARC
  5
CC67
  8
0
 10
4851.1608545980216149
 20
216.2585628241720883
 30
0.0
 40
9.6151393476919829
 50
87.2562961934668948
 51
90.0021350348425955
  0
ARC
  5
CC68
  8
0
 10
4851.1608612575291772
 20
216.2587619905382041
 30
0.0
 40
9.6149400908604701
 50
84.9009557335391065
 51
87.2562790201419602
  0
ARC
  5
CC69
  8
0
 10
4851.9820858611301446
 20
225.4621370845399042
 30
0.0
 40
0.3749983718640826
 50
7.2418497910504742
 51
84.9009557335391065
  0
ARC
  5
CC6A
  8
0
 10
4847.923169875352869
 20
224.9463644586300859
 30
0.0
 40
4.466553135181444
 50
5.0208843357471338
 51
7.2418497910504742
  0
ARC
  5
CC6B
  8
0
 10
4846.7470793228303592
 20
224.8948754468578102
 30
0.0
 40
5.64287340784111
 50
0.5239992265596106
 51
4.4965560581015067
  0
ARC
  5
CC6C
  8
0
 10
4851.1411218674529664
 20
215.4062453005678037
 30
0.0
 40
10.1961062621455802
 50
86.9765883648484532
 51
89.8911276361480844
  0
ARC
  5
CC6D
  8
0
 10
4851.225091925893139
 20
216.9960597728452001
 30
0.0
 40
8.6040757891403743
 50
85.3792429450199819
 51
86.9765883648484532
  0
ARC
  5
CC6E
  8
0
 10
4851.8952436460358513
 20
225.2876847446790975
 30
0.0
 40
0.2854131561476663
 50
78.8649354805518072
 51
85.3792429450199819
  0
ARC
  5
CC6F
  8
0
 10
4851.9101421723953536
 20
225.3881917607428989
 30
0.0
 40
0.1839833979125413
 50
13.4442082700337693
 51
77.3724173349588966
  0
ARC
  5
CC70
  8
0
 10
4851.7877799390662403
 20
225.3671889682757978
 30
0.0
 40
0.3079801144201636
 50
7.0715777740497412
 51
11.9516901244226599
  0
ARC
  5
CC71
  8
0
 10
4849.706603421897853
 20
225.1090130734050945
 30
0.0
 40
2.4051092206756679
 50
2.8850604867333862
 51
7.0715777740497412
  0
ARC
  5
CC72
  8
0
 10
4843.2921761893494477
 20
224.7857489990136912
 30
0.0
 40
8.8276769613437995
 50
1.0432885055988841
 51
2.885060486735012
  0
ARC
  5
CC73
  8
0
 10
4851.1608632330617183
 20
233.6341601722955943
 30
0.0
 40
9.6148988210071433
 50
269.9978134550506184
 51
272.7437209798579829
  0
ARC
  5
CC74
  8
0
 10
4851.1608612575291772
 20
233.6342013948386978
 30
0.0
 40
9.6149400908604701
 50
272.7437209798579829
 51
275.0990442664609077
  0
ARC
  5
CC75
  8
0
 10
4851.9820858611301446
 20
224.4308263008369977
 30
0.0
 40
0.3749983718640826
 50
275.0990442664609077
 51
352.7581502089494734
  0
ARC
  5
CC76
  8
0
 10
4847.923169875352869
 20
224.9465989267467876
 30
0.0
 40
4.466553135181444
 50
352.7581502089494734
 51
354.9791156642529018
  0
ARC
  5
CC77
  8
0
 10
4846.7470793228303592
 20
224.9980879385192054
 30
0.0
 40
5.64287340784111
 50
355.5034439418985244
 51
359.4760007734403757
  0
ARC
  5
CC78
  8
0
 10
4851.1411218674529664
 20
234.4867180848090129
 30
0.0
 40
10.1961062621455802
 50
270.1088723638519014
 51
273.0234116351514899
  0
ARC
  5
CC79
  8
0
 10
4851.225091925893139
 20
232.8969036125317018
 30
0.0
 40
8.6040757891403743
 50
273.0234116351514899
 51
274.6207570549800039
  0
ARC
  5
CC7A
  8
0
 10
4851.8952436460358513
 20
224.6052786406978896
 30
0.0
 40
0.2854131561476663
 50
274.6207570549800039
 51
281.1350645194481785
  0
ARC
  5
CC7B
  8
0
 10
4851.9101421723953536
 20
224.504771624634003
 30
0.0
 40
0.1839833979125413
 50
282.627582665041075
 51
346.5557917299661881
  0
ARC
  5
CC7C
  8
0
 10
4851.7877799390662403
 20
224.5257744171011041
 30
0.0
 40
0.3079801144201636
 50
348.0483098755772744
 51
352.9284222259503281
  0
ARC
  5
CC7D
  8
0
 10
4849.706603421897853
 20
224.7839503119718074
 30
0.0
 40
2.4051092206756679
 50
352.9284222259503281
 51
357.11493951326662
  0
ARC
  5
CC7E
  8
0
 10
4843.2921761893494477
 20
225.1072143863632959
 30
0.0
 40
8.8276769613437995
 50
357.1149395132650284
 51
358.9567114944010768
  0
ARC
  5
CC7F
  8
0
 10
4851.1601380127012817
 20
216.258562824172003
 30
0.0
 40
9.6151393476920646
 50
89.9978649651574045
 51
92.7437038065331052
  0
ARC
  5
CC80
  8
0
 10
4851.1601313531946289
 20
216.2587619905382041
 30
0.0
 40
9.6149400908604701
 50
92.7437209798580255
 51
95.0990442664609077
  0
ARC
  5
CC81
  8
0
 10
4850.338906749594571
 20
225.4621370845399042
 30
0.0
 40
0.3749983718640826
 50
95.0990442664609077
 51
172.7581502089495018
  0
ARC
  5
CC82
  8
0
 10
4854.3978227353709372
 20
224.9463644586300859
 30
0.0
 40
4.466553135181444
 50
172.7581502089495018
 51
174.9791156642529018
  0
ARC
  5
CC83
  8
0
 10
4855.573913287893447
 20
224.8948754468578102
 30
0.0
 40
5.64287340784111
 50
175.503443941898496
 51
179.4760007734402905
  0
ARC
  5
CC84
  8
0
 10
4851.1798707432717492
 20
215.4062453005678037
 30
0.0
 40
10.1961062621455802
 50
90.1088723638519156
 51
93.0234116351515468
  0
ARC
  5
CC85
  8
0
 10
4851.0959006848315767
 20
216.9960597728452001
 30
0.0
 40
8.6040757891403743
 50
93.0234116351515468
 51
94.6207570549800323
  0
ARC
  5
CC86
  8
0
 10
4850.4257489646879549
 20
225.2876847446790975
 30
0.0
 40
0.2854131561476663
 50
94.6207570549800323
 51
101.135064519448207
  0
ARC
  5
CC87
  8
0
 10
4850.4108504383284526
 20
225.3881917607428989
 30
0.0
 40
0.1839833979125413
 50
102.6275826650411034
 51
166.5557917299661881
  0
ARC
  5
CC88
  8
0
 10
4850.5332126716566563
 20
225.3671889682757978
 30
0.0
 40
0.3079801144201636
 50
168.0483098755773028
 51
172.9284222259502997
  0
ARC
  5
CC89
  8
0
 10
4852.6143891888259532
 20
225.1090130734050945
 30
0.0
 40
2.4051092206756679
 50
172.9284222259502997
 51
177.1149395132665916
  0
ARC
  5
CC8A
  8
0
 10
4859.028816421375268
 20
224.7857489990136912
 30
0.0
 40
8.8276769613437995
 50
177.114939513265
 51
178.9567114944011053
  0
ARC
  5
CC8B
  8
0
 10
4851.1601293776620878
 20
233.6341601722955943
 30
0.0
 40
9.6148988210071433
 50
267.2562790201419034
 51
270.0021865449493816
  0
ARC
  5
CC8C
  8
0
 10
4851.1601313531946289
 20
233.6342013948386978
 30
0.0
 40
9.6149400908604701
 50
264.9009557335390923
 51
267.2562790201419034
  0
ARC
  5
CC8D
  8
0
 10
4850.338906749594571
 20
224.4308263008369977
 30
0.0
 40
0.3749983718640826
 50
187.2418497910504982
 51
264.9009557335390923
  0
ARC
  5
CC8E
  8
0
 10
4854.3978227353709372
 20
224.9465989267467876
 30
0.0
 40
4.466553135181444
 50
185.0208843357470982
 51
187.2418497910504982
  0
ARC
  5
CC8F
  8
0
 10
4855.573913287893447
 20
224.9980879385192054
 30
0.0
 40
5.64287340784111
 50
180.5239992265595959
 51
184.496556058101504
  0
ARC
  5
CC90
  8
0
 10
4851.1798707432717492
 20
234.4867180848090129
 30
0.0
 40
10.1961062621455802
 50
266.9765883648483964
 51
269.8911276361480986
  0
ARC
  5
CC91
  8
0
 10
4851.0959006848315767
 20
232.8969036125317018
 30
0.0
 40
8.6040757891403743
 50
265.3792429450199961
 51
266.9765883648483964
  0
ARC
  5
CC92
  8
0
 10
4850.4257489646879549
 20
224.6052786406978896
 30
0.0
 40
0.2854131561476663
 50
258.8649354805518215
 51
265.3792429450199961
  0
ARC
  5
CC93
  8
0
 10
4850.4108504383284526
 20
224.504771624634003
 30
0.0
 40
0.1839833979125413
 50
193.4442082700338119
 51
257.372417334958925
  0
ARC
  5
CC94
  8
0
 10
4850.5332126716566563
 20
224.5257744171011041
 30
0.0
 40
0.3079801144201636
 50
187.0715777740497003
 51
191.9516901244226119
  0
ARC
  5
CC95
  8
0
 10
4852.6143891888259532
 20
224.7839503119718074
 30
0.0
 40
2.4051092206756679
 50
182.8850604867334084
 51
187.0715777740497003
  0
ARC
  5
CC96
  8
0
 10
4859.028816421375268
 20
225.1072143863632959
 30
0.0
 40
8.8276769613437995
 50
181.0432885055988095
 51
182.885060486735
  0
ENDSEC
  0
EOF
