  0
SECTION
  2
HEADER
  9
$ACADVER
  1
AC1009
  9
$INSBASE
 10
4847.2921752943202591
 20
220.2465657344301064
 30
0.0
  9
$EXTMIN
 10
4840.7715020437626663
 20
220.2346096081645044
 30
-0.0000000000000058
  9
$EXTMAX
 10
4848.5394576198123104
 20
226.3831335167215002
 30
0.0000000000000104
  9
$LIMMIN
 10
0.0
 20
0.0
  9
$LIMMAX
 10
11.6929133858000007
 20
8.2677165353999982
  9
$ORTHOMODE
 70
     0
  9
$REGENMODE
 70
     1
  9
$FILLMODE
 70
     1
  9
$QTEXTMODE
 70
     0
  9
$MIRRTEXT
 70
     0
  9
$DRAGMODE
 70
     2
  9
$LTSCALE
 40
0.6431102362
  9
$OSMODE
 70
  4095
  9
$ATTMODE
 70
     1
  9
$TEXTSIZE
 40
0.2
  9
$TRACEWID
 40
0.05
  9
$TEXTSTYLE
  7
STANDARD
  9
$CLAYER
  8
0
  9
$CELTYPE
  6
BYLAYER
  9
$CECOLOR
 62
   256
  9
$DIMSCALE
 40
1.0
  9
$DIMASZ
 40
0.1875
  9
$DIMEXO
 40
0.0625
  9
$DIMDLI
 40
0.4443307087
  9
$DIMRND
 40
0.0
  9
$DIMDLE
 40
0.0
  9
$DIMEXE
 40
0.125
  9
$DIMTP
 40
0.01
  9
$DIMTM
 40
0.01
  9
$DIMTXT
 40
2.0
  9
$DIMCEN
 40
0.1052362205
  9
$DIMTSZ
 40
0.0
  9
$DIMTOL
 70
     1
  9
$DIMLIM
 70
     0
  9
$DIMTIH
 70
     1
  9
$DIMTOH
 70
     1
  9
$DIMSE1
 70
     0
  9
$DIMSE2
 70
     0
  9
$DIMTAD
 70
     0
  9
$DIMZIN
 70
     0
  9
$DIMBLK
  1

  9
$DIMASO
 70
     1
  9
$DIMSHO
 70
     1
  9
$DIMPOST
  1
\X
  9
$DIMAPOST
  1

  9
$DIMALT
 70
     1
  9
$DIMALTD
 70
     2
  9
$DIMALTF
 40
25.3999999999999986
  9
$DIMLFAC
 40
1.0
  9
$DIMTOFL
 70
     0
  9
$DIMTVP
 40
0.0
  9
$DIMTIX
 70
     0
  9
$DIMSOXD
 70
     0
  9
$DIMSAH
 70
     0
  9
$DIMBLK1
  1

  9
$DIMBLK2
  1

  9
$DIMSTYLE
  2
STANDARD
  9
$DIMCLRD
 70
     0
  9
$DIMCLRE
 70
     0
  9
$DIMCLRT
 70
     0
  9
$DIMTFAC
 40
1.0
  9
$DIMGAP
 40
0.09
  9
$LUNITS
 70
     2
  9
$LUPREC
 70
     4
  9
$SKETCHINC
 40
0.1
  9
$FILLETRAD
 40
0.0
  9
$AUNITS
 70
     0
  9
$AUPREC
 70
     0
  9
$MENU
  1
.
  9
$ELEVATION
 40
0.0
  9
$PELEVATION
 40
0.0
  9
$THICKNESS
 40
0.0
  9
$LIMCHECK
 70
     0
  9
$BLIPMODE
 70
     0
  9
$CHAMFERA
 40
0.0
  9
$CHAMFERB
 40
0.0
  9
$SKPOLY
 70
     0
  9
$TDCREATE
 40
2458060.468368056230247
  9
$TDUPDATE
 40
2459690.7211921298876405
  9
$TDINDWG
 40
0.4335371528
  9
$TDUSRTIMER
 40
0.4335371528
  9
$USRTIMER
 70
     1
  9
$ANGBASE
 50
0.0
  9
$ANGDIR
 70
     0
  9
$PDMODE
 70
     0
  9
$PDSIZE
 40
0.3125
  9
$PLINEWID
 40
0.0
  9
$COORDS
 70
     1
  9
$SPLFRAME
 70
     0
  9
$SPLINETYPE
 70
     6
  9
$SPLINESEGS
 70
     8
  9
$ATTDIA
 70
     1
  9
$ATTREQ
 70
     1
  9
$HANDLING
 70
     1
  9
$HANDSEED
  5
CDBD
  9
$SURFTAB1
 70
     6
  9
$SURFTAB2
 70
     6
  9
$SURFTYPE
 70
     6
  9
$SURFU
 70
     6
  9
$SURFV
 70
     6
  9
$UCSNAME
  2

  9
$UCSORG
 10
0.0
 20
0.0
 30
0.0
  9
$UCSXDIR
 10
1.0
 20
0.0
 30
0.0
  9
$UCSYDIR
 10
0.0
 20
1.0
 30
0.0
  9
$PUCSNAME
  2

  9
$PUCSORG
 10
0.0
 20
0.0
 30
0.0
  9
$PUCSXDIR
 10
1.0
 20
0.0
 30
0.0
  9
$PUCSYDIR
 10
0.0
 20
1.0
 30
0.0
  9
$USERI1
 70
     0
  9
$USERI2
 70
     0
  9
$USERI3
 70
     0
  9
$USERI4
 70
     0
  9
$USERI5
 70
     0
  9
$USERR1
 40
0.0
  9
$USERR2
 40
0.0
  9
$USERR3
 40
0.0
  9
$USERR4
 40
0.0
  9
$USERR5
 40
0.0
  9
$WORLDVIEW
 70
     1
  9
$SHADEDGE
 70
     3
  9
$SHADEDIF
 70
    70
  9
$TILEMODE
 70
     1
  9
$MAXACTVP
 70
    64
  9
$PLIMCHECK
 70
     0
  9
$PEXTMIN
 10
1.0000000000000000E+20
 20
1.0000000000000000E+20
 30
1.0000000000000000E+20
  9
$PEXTMAX
 10
-1.0000000000000000E+20
 20
-1.0000000000000000E+20
 30
-1.0000000000000000E+20
  9
$PLIMMIN
 10
0.0
 20
0.0
  9
$PLIMMAX
 10
12.0
 20
9.0
  9
$UNITMODE
 70
     0
  9
$VISRETAIN
 70
     1
  9
$PLINEGEN
 70
     0
  9
$PSLTSCALE
 70
     1
  0
ENDSEC
  0
SECTION
  2
TABLES
  0
TABLE
  2
VPORT
 70
     1
  0
VPORT
  2
*ACTIVE
 70
     0
 10
0.0
 20
0.0
 11
1.0
 21
1.0
 12
1041.1114124489749884
 22
97.3136093656930967
 13
0.0
 23
0.0
 14
1.0
 24
1.0
 15
0.0
 25
0.0
 16
0.0
 26
0.0
 36
17.1152628219792007
 17
3803.5440673828129547
 27
125.9952621967499056
 37
0.0
 40
6.1870324090280908
 41
2.005224660397074
 42
50.0
 43
0.0
 44
0.0
 50
0.0
 51
0.0
 71
     0
 72
   100
 73
     1
 74
     1
 75
     0
 76
     0
 77
     0
 78
     0
  0
ENDTAB
  0
TABLE
  2
LTYPE
 70
     2
  0
LTYPE
  2
CONTINUOUS
 70
     0
  3
Solid line
 72
    65
 73
     0
 40
0.0
  0
LTYPE
  2
PHANTOM2
 70
     0
  3
___ _ _ ___ _ _ ___ _ _ ___ _ _
 72
    65
 73
     6
 40
1.25
 49
0.625
 49
-0.125
 49
0.125
 49
-0.125
 49
0.125
 49
-0.125
  0
ENDTAB
  0
TABLE
  2
LAYER
 70
     2
  0
LAYER
  2
0
 70
     0
 62
   255
  6
CONTINUOUS
  0
LAYER
  2
DEFPOINTS
 70
     0
 62
     7
  6
CONTINUOUS
  0
ENDTAB
  0
TABLE
  2
STYLE
 70
     1
  0
STYLE
  2
STANDARD
 70
     0
 40
0.0
 41
0.8
 50
0.0
 71
     0
 42
0.2
  3
txt
  4

  0
ENDTAB
  0
TABLE
  2
VIEW
 70
     0
  0
ENDTAB
  0
TABLE
  2
UCS
 70
     0
  0
ENDTAB
  0
TABLE
  2
APPID
 70
     9
  0
APPID
  2
ACAD
 70
     0
  0
APPID
  2
ACAD_MLEADERVER
 70
     0
  0
APPID
  2
ACAD_EXEMPT_FROM_CAD_STANDARDS
 70
     0
  0
APPID
  2
ACAD_NAV_VCDISPLAY
 70
     0
  0
APPID
  2
ACAECLAYERSTANDARD
 70
     0
  0
APPID
  2
ACCMTRANSPARENCY
 70
     0
  0
APPID
  2
ACAD_DSTYLE_DIMJAG
 70
     0
  0
APPID
  2
ACAD_DSTYLE_DIMTALN
 70
     0
  0
APPID
  2
ACDBATTR
 70
     0
  0
ENDTAB
  0
TABLE
  2
DIMSTYLE
 70
     1
  0
DIMSTYLE
  2
STANDARD
 70
     0
  3

  4

  5

  6

  7

 40
1.0
 41
0.1875
 42
0.0625
 43
0.38
 44
0.125
 45
0.0
 46
0.0
 47
0.01
 48
0.01
140
0.15625
141
0.09
142
0.0
143
25.3999999999999986
144
1.0
145
0.0
146
1.0
147
0.09
 71
     1
 72
     0
 73
     1
 74
     1
 75
     0
 76
     0
 77
     0
 78
     4
170
     0
171
     2
172
     0
173
     0
174
     0
175
     0
176
     0
177
     0
178
     0
  0
ENDTAB
  0
ENDSEC
  0
SECTION
  2
BLOCKS
  0
BLOCK
  8
0
  2
$MODEL_SPACE
 70
     0
 10
0.0
 20
0.0
 30
0.0
  3
$MODEL_SPACE
  1

  0
ENDBLK
  5
21
  8
0
  0
BLOCK
 67
     1
  8
0
  2
$PAPER_SPACE
 70
     0
 10
0.0
 20
0.0
 30
0.0
  3
$PAPER_SPACE
  1

  0
ENDBLK
  5
1D
 67
     1
  8
0
  0
ENDSEC
  0
SECTION
  2
ENTITIES
  0
ATTDEF
  5
3930
  8
DEFPOINTS
 10
4847.2891820809227283
 20
220.2522507247088015
 30
0.0
 40
0.001
  1
P29383-GF
  3

  2
MODELNUMBER
 70
     0
1001
ACDBATTR
1070
     0
1070
     1
  0
ATTDEF
  5
3931
  8
DEFPOINTS
 10
4847.2891820809227283
 20
220.2505840580421079
 30
0.0
 40
0.001
  1

  3

  2
TRADENAME
 70
     0
1001
ACDBATTR
1070
     0
1070
     1
  0
ATTDEF
  5
3932
  8
DEFPOINTS
 10
4847.2891820809227283
 20
220.2489173913754996
 30
0.0
 40
0.001
  1
BATHROOM SINK FAUCET
  3

  2
PRODUCT
 70
     0
1001
ACDBATTR
1070
     0
1070
     1
  0
LINE
  5
CC12
  8
0
 10
4846.7724768971684171
 20
222.3369355452423974
 30
0.0
 11
4846.7950371589131464
 21
222.3369355452423974
 31
0.0
  0
LINE
  5
CC13
  8
0
 10
4846.7749994238329236
 20
220.7621267344300975
 30
0.0
 11
4847.8093511648075946
 21
220.7621267344300975
 31
0.0
  0
LINE
  5
CC14
  8
0
 10
4848.1593957656696148
 20
220.2465657344301064
 30
0.0
 11
4846.424954822969994
 21
220.2465657344301064
 31
0.0
  0
LINE
  5
CC15
  8
0
 10
4848.199595766771381
 20
220.2824899750378904
 30
0.0
 11
4846.3847548218700467
 21
220.2824899750378904
 31
0.0
  0
LINE
  5
CC16
  8
0
 10
4847.7998226472263923
 20
220.7441267344300968
 30
0.0
 11
4846.7845279414150355
 21
220.7441267344300968
 31
0.0
  0
LINE
  5
CC17
  8
0
 10
4847.8050181847820568
 20
220.9256070494301127
 30
0.0
 11
4846.779332403857552
 21
220.9256070494301127
 31
0.0
  0
LINE
  5
CC18
  8
0
 10
4848.1666615756057581
 20
220.4697549666828138
 30
0.0
 11
4846.4223295312722257
 21
220.4697549666828138
 31
0.0
  0
LINE
  5
CC19
  8
0
 10
4846.3649548218700147
 20
220.4098124287880012
 30
0.0
 11
4846.3649548218700147
 21
220.302289975037894
 31
0.0
  0
ARC
  5
CC1A
  8
0
 10
4846.3820087849780975
 20
221.3903874729373911
 30
0.0
 40
0.9215150428259015
 50
272.5077684700747795
 51
279.9340822619930123
  0
ARC
  5
CC1B
  8
0
 10
4846.4817893892868597
 20
220.8206715196982941
 30
0.0
 40
0.3431272521770967
 50
279.9340822619930123
 51
293.4848867418593841
  0
ARC
  5
CC1C
  8
0
 10
4846.5399394110772846
 20
220.6868390983024142
 30
0.0
 40
0.19720760973373
 50
293.4848867418593841
 51
324.069034621022297
  0
ARC
  5
CC1D
  8
0
 10
4846.4773742972647597
 20
220.732180239130912
 30
0.0
 40
0.2744747600500108
 50
324.069034621022297
 51
345.9156055706523034
  0
LINE
  5
CC1E
  8
0
 10
4846.7435978883086136
 20
220.6653865756919117
 30
0.0
 11
4846.7551726718620557
 21
220.7203128599900026
 31
0.0
  0
ARC
  5
CC1F
  8
0
 10
4846.7845279414150355
 20
220.7141267344300957
 30
0.0
 40
0.03
 50
90.0
 51
168.1000000039225881
  0
LINE
  5
CC20
  8
0
 10
4846.7553114245411052
 20
220.7825142545067081
 30
0.0
 11
4846.7596444045657336
 21
220.9065945695066944
 31
0.0
  0
ARC
  5
CC21
  8
0
 10
4846.7749994238329236
 20
220.7818267344300978
 30
0.0
 40
0.0197
 50
178.000000024622608
 51
270.0
  0
ARC
  5
CC22
  8
0
 10
4846.779332403857552
 20
220.9059070494301125
 30
0.0
 40
0.0197
 50
90.0
 51
178.0000000246209879
  0
ARC
  5
CC23
  8
0
 10
4846.4249548218704149
 20
220.4098124287880012
 30
0.0
 40
0.06
 50
92.5077684700747653
 51
180.0
  0
ARC
  5
CC24
  8
0
 10
4846.3847548218700467
 20
220.302289975037894
 30
0.0
 40
0.0198
 50
180.0
 51
270.0
  0
ARC
  5
CC25
  8
0
 10
4846.3782336463500542
 20
220.212442531557997
 30
0.0
 40
0.0703503380818635
 50
68.8676076461611757
 51
84.6812907795511052
  0
ARC
  5
CC26
  8
0
 10
4846.3914763582024534
 20
220.2467041363809983
 30
0.0
 40
0.0336185128859336
 50
42.5305193563804309
 51
68.8676076461611757
  0
ARC
  5
CC27
  8
0
 10
4846.393318079747587
 20
220.2483935688701138
 30
0.0
 40
0.03111928892891
 50
12.3534847287111393
 51
42.5305193563804309
  0
ARC
  5
CC28
  8
0
 10
4846.3644574653762902
 20
220.2420727098509872
 30
0.0
 40
0.0606639723871333
 50
4.2474515729690419
 51
12.3534847287111393
  0
LINE
  5
CC29
  8
0
 10
4847.1288083350700617
 20
220.7621267344300975
 30
0.0
 11
4847.1288083350700617
 21
220.7441267344300968
 31
0.0
  0
ARC
  5
CC2A
  8
0
 10
4838.1593564590721144
 20
220.7659364786302092
 30
0.0
 40
8.6008872393993272
 50
1.259221421370526
 51
9.6858840225003462
  0
ARC
  5
CC2B
  8
0
 10
4846.7313910209959431
 20
222.2290076710137896
 30
0.0
 40
0.0951091868196719
 50
116.1274537366125941
 51
189.6858840225002893
  0
ARC
  5
CC2C
  8
0
 10
4846.8240064500969311
 20
222.0401851205893138
 30
0.0
 40
0.3054222231642469
 50
109.105351579287202
 51
116.1274537366125941
  0
ARC
  5
CC2D
  8
0
 10
4846.7724768971684171
 20
222.1889486517225976
 30
0.0
 40
0.1479868935197461
 50
90.0
 51
109.105351579287202
  0
ARC
  5
CC2E
  8
0
 10
4846.7881593664160391
 20
220.9556070494301139
 30
0.0
 40
0.03
 50
181.259221421370512
 51
270.0
  0
ARC
  5
CC2F
  8
0
 10
4846.4655528619168763
 20
220.4296309051750882
 30
0.0
 40
0.0624570920049946
 50
93.2350151141039305
 51
140.5382103853102933
  0
ARC
  5
CC30
  8
0
 10
4846.423505277660297
 20
221.1735496905913863
 30
0.0
 40
0.6826490471706393
 50
273.2350151141038737
 51
279.6519930618331955
  0
ARC
  5
CC31
  8
0
 10
4846.4668908157118494
 20
220.9184470258934141
 30
0.0
 40
0.42388337238346
 50
279.6519930618331955
 51
293.1945562743902087
  0
ARC
  5
CC32
  8
0
 10
4846.5360974119494131
 20
220.7569335597866882
 30
0.0
 40
0.2481672584484278
 50
293.1945562743902087
 51
310.6867202006158095
  0
LINE
  5
CC33
  8
0
 10
4846.4632965654636791
 20
220.492061337779802
 30
0.0
 11
4846.5805398805578079
 21
220.492061337779802
 31
0.0
  0
LINE
  5
CC34
  8
0
 10
4846.8271752943701358
 20
220.7621267344300975
 30
0.0
 11
4846.8271752943701358
 21
220.7441267344300968
 31
0.0
  0
LINE
  5
CC35
  8
0
 10
4846.7917127321907174
 20
220.7621267344300975
 30
0.0
 11
4846.7888520326796424
 21
220.7441267344300968
 31
0.0
  0
ARC
  5
CC36
  8
0
 10
4847.29136022469811
 20
230.4720548874406916
 30
0.0
 40
8.1495755354747796
 50
268.6741078011996251
 51
270.005730365878776
  0
ARC
  5
CC37
  8
0
 10
4847.3458987854637599
 20
232.1217625021504887
 30
0.0
 40
9.8001170637564687
 50
267.0681836230564841
 51
268.5785116071995731
  0
ARC
  5
CC38
  8
0
 10
4848.3538009458197848
 20
253.2350609317502119
 30
0.0
 40
30.9374190414088908
 50
267.1119628140060058
 51
267.2039530403604886
  0
LINE
  5
CC39
  8
0
 10
4841.2507856546562834
 20
226.3669048950806939
 30
0.0
 11
4846.5608984074833643
 21
226.1381643669328128
 31
0.0
  0
LINE
  5
CC3A
  8
0
 10
4842.4493238672712323
 20
225.7705363174424065
 30
0.0
 11
4846.366616944769703
 21
225.594709532016708
 31
0.0
  0
LINE
  5
CC3B
  8
0
 10
4846.9330937385357174
 20
225.128412311340611
 30
0.0
 11
4846.8456274424552248
 21
222.3344225649308896
 31
0.0
  0
LINE
  5
CC3C
  8
0
 10
4847.6436491438107623
 20
225.2874643991673054
 30
0.0
 11
4847.7378585791348087
 21
222.3343784116256927
 31
0.0
  0
LINE
  5
CC3D
  8
0
 10
4841.4301278230987009
 20
225.7755210289361969
 30
0.0
 11
4842.2902999439265841
 21
225.7113621905106129
 31
0.0
  0
LINE
  5
CC3E
  8
0
 10
4841.0608367116701629
 20
226.2269048950807075
 30
0.0
 11
4841.0608367116701629
 21
226.1046959008133967
 31
0.0
  0
LINE
  5
CC3F
  8
0
 10
4841.2507856546562834
 20
226.3669048950806939
 30
0.0
 11
4841.2008367116713998
 21
226.3669048950806939
 31
0.0
  0
ARC
  5
CC40
  8
0
 10
4841.2008367116713998
 20
226.2269048950807075
 30
0.0
 40
0.14
 50
90.0
 51
180.0
  0
ARC
  5
CC41
  8
0
 10
4841.972641313330314
 20
227.6927297275684055
 30
0.0
 40
1.905653923639036
 50
244.0796596539260008
 51
249.2497086347356969
  0
ARC
  5
CC42
  8
0
 10
4841.2325282273777702
 20
225.7392646138746102
 30
0.0
 40
0.1833155185541779
 50
17.1820048151839906
 51
69.2497086347357538
  0
ARC
  5
CC43
  8
0
 10
4841.2008367116713998
 20
226.1046959008133967
 30
0.0
 40
0.14
 50
180.0
 51
244.0796596539252903
  0
ARC
  5
CC44
  8
0
 10
4841.4320245577409878
 20
225.8009503898738899
 30
0.0
 40
0.0255
 50
197.1820048152150946
 51
265.734299996545019
  0
ARC
  5
CC45
  8
0
 10
4842.2921966785697805
 20
225.7367915514481922
 30
0.0
 40
0.0255
 50
265.7342999965446779
 51
313.5980354412586735
  0
ARC
  5
CC46
  8
0
 10
4842.4408043392022591
 20
225.5807274197547088
 30
0.0
 40
0.19
 50
87.4300172493588121
 51
133.5980354412710938
  0
ARC
  5
CC47
  8
0
 10
4846.3198106822774207
 20
224.4978125262828996
 30
0.0
 40
1.09789519873097
 50
70.1678240673974329
 51
87.556584318628353
  0
ARC
  5
CC48
  8
0
 10
4846.5689378053721157
 20
225.18857235404721
 30
0.0
 40
0.3635836414785354
 50
32.2427171592634565
 51
70.1678240673974329
  0
ARC
  5
CC49
  8
0
 10
4846.5928621987650331
 20
225.2036632707905142
 30
0.0
 40
0.3352973839083812
 50
5.5759061758663391
 51
32.2427171592634565
  0
ARC
  5
CC4A
  8
0
 10
4846.2688760831360923
 20
225.1423580109216971
 30
0.0
 40
0.6643640389745411
 50
358.7972130162099234
 51
8.1239135482497282
  0
ARC
  5
CC4B
  8
0
 10
4846.4526139760100705
 20
223.4168876975747935
 30
0.0
 40
2.7234302321320998
 50
75.2433227074406403
 51
87.7213013585320169
  0
ARC
  5
CC4C
  8
0
 10
4846.9238310325372368
 20
225.2058486462530027
 30
0.0
 40
0.8734500186552576
 50
61.2091044470045702
 51
75.2433227074406403
  0
ARC
  5
CC4D
  8
0
 10
4847.0088106884923036
 20
225.3604842663812065
 30
0.0
 40
0.6970025280553381
 50
50.4596521308348187
 51
61.2091044470045702
  0
ARC
  5
CC4E
  8
0
 10
4847.1906452370321858
 20
225.5807509973942047
 30
0.0
 40
0.4113782366627559
 50
21.4031694791073086
 51
50.4596521308348187
  0
ARC
  5
CC4F
  8
0
 10
4846.8348420301472288
 20
225.4412905397502982
 30
0.0
 40
0.7935367656483289
 50
7.8549896465021867
 51
21.4031694791073086
  0
ARC
  5
CC50
  8
0
 10
4845.0479581805975613
 20
225.1947705268703999
 30
0.0
 40
2.59734551618818
 50
2.045201783507546
 51
7.8549896465021867
  0
LINE
  5
CC51
  8
0
 10
4847.8118736914730107
 20
222.3369355452423974
 30
0.0
 11
4847.7893134297282813
 21
222.3369355452423974
 31
0.0
  0
LINE
  5
CC52
  8
0
 10
4848.219395766769594
 20
220.4098124287880012
 30
0.0
 11
4848.219395766769594
 21
220.302289975037894
 31
0.0
  0
ARC
  5
CC53
  8
0
 10
4848.2023418036633302
 20
221.3903874729373911
 30
0.0
 40
0.9215150428259015
 50
260.0659177380069877
 51
267.4922315299252205
  0
ARC
  5
CC54
  8
0
 10
4848.1025611993527491
 20
220.8206715196982941
 30
0.0
 40
0.3431272521770967
 50
246.5151132581405875
 51
260.0659177380069877
  0
ARC
  5
CC55
  8
0
 10
4848.0444111775641431
 20
220.6868390983024142
 30
0.0
 40
0.19720760973373
 50
215.930965378977703
 51
246.5151132581405875
  0
ARC
  5
CC56
  8
0
 10
4848.1069762913766681
 20
220.732180239130912
 30
0.0
 40
0.2744747600500108
 50
194.0843944293476966
 51
215.930965378977703
  0
LINE
  5
CC57
  8
0
 10
4847.8407527003309951
 20
220.6653865756919117
 30
0.0
 11
4847.829177916779372
 21
220.7203128599900026
 31
0.0
  0
ARC
  5
CC58
  8
0
 10
4847.7998226472263923
 20
220.7141267344300957
 30
0.0
 40
0.03
 50
11.8999999960789999
 51
90.0
  0
LINE
  5
CC59
  8
0
 10
4847.8290391641003225
 20
220.7825142545067081
 30
0.0
 11
4847.8247061840738752
 21
220.9065945695066944
 31
0.0
  0
ARC
  5
CC5A
  8
0
 10
4847.8093511648075946
 20
220.7818267344300978
 30
0.0
 40
0.0197
 50
270.0
 51
1.9999999753773541
  0
ARC
  5
CC5B
  8
0
 10
4847.8050181847820568
 20
220.9059070494301125
 30
0.0
 40
0.0197
 50
1.999999975378981
 51
90.0
  0
ARC
  5
CC5C
  8
0
 10
4848.1593957667710129
 20
220.4098124287880012
 30
0.0
 40
0.06
 50
0.0
 51
87.4922315299252062
  0
ARC
  5
CC5D
  8
0
 10
4848.199595766771381
 20
220.302289975037894
 30
0.0
 40
0.0198
 50
270.0
 51
0.0
  0
ARC
  5
CC5E
  8
0
 10
4848.2061169422895546
 20
220.212442531557997
 30
0.0
 40
0.0703503380818635
 50
95.3187092204488664
 51
111.1323923538387959
  0
ARC
  5
CC5F
  8
0
 10
4848.1928742304389743
 20
220.2467041363809983
 30
0.0
 40
0.0336185128859336
 50
111.1323923538387959
 51
137.4694806436195051
  0
ARC
  5
CC60
  8
0
 10
4848.1910325088929312
 20
220.2483935688701138
 30
0.0
 40
0.03111928892891
 50
137.4694806436195051
 51
167.6465152712887914
  0
ARC
  5
CC61
  8
0
 10
4848.2198931232651375
 20
220.2420727098509872
 30
0.0
 40
0.0606639723871333
 50
167.6465152712887914
 51
175.7525484269984872
  0
LINE
  5
CC62
  8
0
 10
4847.455542253571366
 20
220.7621267344300975
 30
0.0
 11
4847.455542253571366
 21
220.7441267344300968
 31
0.0
  0
ARC
  5
CC63
  8
0
 10
4856.4249941295693134
 20
220.7659364786302092
 30
0.0
 40
8.6008872393993272
 50
170.3141159774997107
 51
178.740778578629488
  0
ARC
  5
CC64
  8
0
 10
4847.8529595676445751
 20
222.2290076710137896
 30
0.0
 40
0.0951091868196719
 50
350.3141159774996822
 51
63.8725462633873917
  0
ARC
  5
CC65
  8
0
 10
4847.7603441385435872
 20
222.0401851205893138
 30
0.0
 40
0.3054222231642469
 50
63.8725462633873917
 51
70.8946484207128407
  0
ARC
  5
CC66
  8
0
 10
4847.8118736914730107
 20
222.1889486517225976
 30
0.0
 40
0.1479868935197461
 50
70.8946484207128407
 51
90.0
  0
ARC
  5
CC67
  8
0
 10
4847.7961912222262981
 20
220.9556070494301139
 30
0.0
 40
0.03
 50
270.0
 51
358.7407785786293744
  0
ARC
  5
CC68
  8
0
 10
4848.118797726723642
 20
220.4296309051750882
 30
0.0
 40
0.0624570920049946
 50
39.4617896146909715
 51
86.7649848858960553
  0
ARC
  5
CC69
  8
0
 10
4848.1608453109802213
 20
221.1735496905913863
 30
0.0
 40
0.6826490471706393
 50
260.3480069381668045
 51
266.7649848858961263
  0
ARC
  5
CC6A
  8
0
 10
4848.1174597729286688
 20
220.9184470258934141
 30
0.0
 40
0.42388337238346
 50
246.8054437256097913
 51
260.3480069381668045
  0
ARC
  5
CC6B
  8
0
 10
4848.0482531766929242
 20
220.7569335597866882
 30
0.0
 40
0.2481672584484278
 50
229.3132797993841052
 51
246.8054437256097913
  0
LINE
  5
CC6C
  8
0
 10
4848.1210540231759296
 20
220.492061337779802
 30
0.0
 11
4848.0038107080827103
 21
220.492061337779802
 31
0.0
  0
LINE
  5
CC6D
  8
0
 10
4847.7571752942712919
 20
220.7621267344300975
 30
0.0
 11
4847.7571752942712919
 21
220.7441267344300968
 31
0.0
  0
LINE
  5
CC6E
  8
0
 10
4847.7926378564498009
 20
220.7621267344300975
 30
0.0
 11
4847.7954985559599663
 21
220.7441267344300968
 31
0.0
  0
ARC
  5
CC6F
  8
0
 10
4847.2929903639433178
 20
230.4720548874406916
 30
0.0
 40
8.1495755354747796
 50
269.994269634121224
 51
271.3258921988003749
  0
ARC
  5
CC70
  8
0
 10
4847.2384518031767584
 20
232.1217625021504887
 30
0.0
 40
9.8001170637564687
 50
271.4214883928004269
 51
272.9318163769435159
  0
ARC
  5
CC71
  8
0
 10
4846.2305496428207334
 20
253.2350609317502119
 30
0.0
 40
30.9374190414088908
 50
272.7960469596395114
 51
272.8880371859939942
  0
ENDSEC
  0
EOF
