  0
SECTION
  2
HEADER
  9
$ACADVER
  1
AC1009
  9
$INSBASE
 10
6611.3122515794939318
 20
176.7158670166211039
 30
0.0
  9
$EXTMIN
 10
6602.1529749151195574
 20
173.5824930984740035
 30
-0.0000000000112498
  9
$EXTMAX
 10
6620.3037703424088249
 20
176.7340757887450877
 30
0.0000000000002956
  9
$LIMMIN
 10
0.0
 20
0.0
  9
$LIMMAX
 10
11.6929133858000007
 20
8.2677165353999982
  9
$ORTHOMODE
 70
     0
  9
$REGENMODE
 70
     1
  9
$FILLMODE
 70
     1
  9
$QTEXTMODE
 70
     0
  9
$MIRRTEXT
 70
     0
  9
$DRAGMODE
 70
     2
  9
$LTSCALE
 40
0.6431102362
  9
$OSMODE
 70
  4095
  9
$ATTMODE
 70
     1
  9
$TEXTSIZE
 40
0.2
  9
$TRACEWID
 40
0.05
  9
$TEXTSTYLE
  7
STANDARD
  9
$CLAYER
  8
0
  9
$CELTYPE
  6
BYLAYER
  9
$CECOLOR
 62
   256
  9
$DIMSCALE
 40
1.0
  9
$DIMASZ
 40
0.1875
  9
$DIMEXO
 40
0.0625
  9
$DIMDLI
 40
0.4443307087
  9
$DIMRND
 40
0.0
  9
$DIMDLE
 40
0.0
  9
$DIMEXE
 40
0.125
  9
$DIMTP
 40
0.01
  9
$DIMTM
 40
0.01
  9
$DIMTXT
 40
2.0
  9
$DIMCEN
 40
0.1052362205
  9
$DIMTSZ
 40
0.0
  9
$DIMTOL
 70
     1
  9
$DIMLIM
 70
     0
  9
$DIMTIH
 70
     1
  9
$DIMTOH
 70
     1
  9
$DIMSE1
 70
     0
  9
$DIMSE2
 70
     0
  9
$DIMTAD
 70
     0
  9
$DIMZIN
 70
     0
  9
$DIMBLK
  1

  9
$DIMASO
 70
     1
  9
$DIMSHO
 70
     1
  9
$DIMPOST
  1
\X
  9
$DIMAPOST
  1

  9
$DIMALT
 70
     1
  9
$DIMALTD
 70
     2
  9
$DIMALTF
 40
25.3999999999999986
  9
$DIMLFAC
 40
1.0
  9
$DIMTOFL
 70
     0
  9
$DIMTVP
 40
0.0
  9
$DIMTIX
 70
     0
  9
$DIMSOXD
 70
     0
  9
$DIMSAH
 70
     0
  9
$DIMBLK1
  1

  9
$DIMBLK2
  1

  9
$DIMSTYLE
  2
STANDARD
  9
$DIMCLRD
 70
     0
  9
$DIMCLRE
 70
     0
  9
$DIMCLRT
 70
     0
  9
$DIMTFAC
 40
1.0
  9
$DIMGAP
 40
0.09
  9
$LUNITS
 70
     2
  9
$LUPREC
 70
     4
  9
$SKETCHINC
 40
0.1
  9
$FILLETRAD
 40
0.0
  9
$AUNITS
 70
     0
  9
$AUPREC
 70
     0
  9
$MENU
  1
.
  9
$ELEVATION
 40
0.0
  9
$PELEVATION
 40
0.0
  9
$THICKNESS
 40
0.0
  9
$LIMCHECK
 70
     0
  9
$BLIPMODE
 70
     0
  9
$CHAMFERA
 40
0.0
  9
$CHAMFERB
 40
0.0
  9
$SKPOLY
 70
     0
  9
$TDCREATE
 40
2458060.468368056230247
  9
$TDUPDATE
 40
2460473.7120254631154239
  9
$TDINDWG
 40
0.9596945602
  9
$TDUSRTIMER
 40
0.9596945602
  9
$USRTIMER
 70
     1
  9
$ANGBASE
 50
0.0
  9
$ANGDIR
 70
     0
  9
$PDMODE
 70
     0
  9
$PDSIZE
 40
0.3125
  9
$PLINEWID
 40
0.0
  9
$COORDS
 70
     1
  9
$SPLFRAME
 70
     0
  9
$SPLINETYPE
 70
     6
  9
$SPLINESEGS
 70
     8
  9
$ATTDIA
 70
     1
  9
$ATTREQ
 70
     1
  9
$HANDLING
 70
     1
  9
$HANDSEED
  5
2F279
  9
$SURFTAB1
 70
     6
  9
$SURFTAB2
 70
     6
  9
$SURFTYPE
 70
     6
  9
$SURFU
 70
     6
  9
$SURFV
 70
     6
  9
$UCSNAME
  2

  9
$UCSORG
 10
0.0
 20
0.0
 30
0.0
  9
$UCSXDIR
 10
1.0
 20
0.0
 30
0.0
  9
$UCSYDIR
 10
0.0
 20
1.0
 30
0.0
  9
$PUCSNAME
  2

  9
$PUCSORG
 10
0.0
 20
0.0
 30
0.0
  9
$PUCSXDIR
 10
1.0
 20
0.0
 30
0.0
  9
$PUCSYDIR
 10
0.0
 20
1.0
 30
0.0
  9
$USERI1
 70
     0
  9
$USERI2
 70
     0
  9
$USERI3
 70
     0
  9
$USERI4
 70
     0
  9
$USERI5
 70
     0
  9
$USERR1
 40
0.0
  9
$USERR2
 40
0.0
  9
$USERR3
 40
0.0
  9
$USERR4
 40
0.0
  9
$USERR5
 40
0.0
  9
$WORLDVIEW
 70
     1
  9
$SHADEDGE
 70
     3
  9
$SHADEDIF
 70
    70
  9
$TILEMODE
 70
     1
  9
$MAXACTVP
 70
    64
  9
$PLIMCHECK
 70
     0
  9
$PEXTMIN
 10
1.0000000000000000E+20
 20
1.0000000000000000E+20
 30
1.0000000000000000E+20
  9
$PEXTMAX
 10
-1.0000000000000000E+20
 20
-1.0000000000000000E+20
 30
-1.0000000000000000E+20
  9
$PLIMMIN
 10
0.0
 20
0.0
  9
$PLIMMAX
 10
12.0
 20
9.0
  9
$UNITMODE
 70
     0
  9
$VISRETAIN
 70
     1
  9
$PLINEGEN
 70
     0
  9
$PSLTSCALE
 70
     1
  0
ENDSEC
  0
SECTION
  2
TABLES
  0
TABLE
  2
VPORT
 70
     1
  0
VPORT
  2
*ACTIVE
 70
     0
 10
0.0
 20
0.0
 11
1.0
 21
1.0
 12
2699.8630161834521459
 22
42.5786793410705329
 13
0.0
 23
0.0
 14
1.0
 24
1.0
 15
0.0
 25
0.0
 16
0.0
 26
0.0
 36
60.4960186965801583
 17
3911.3653564453120453
 27
132.5796051025390057
 37
0.0
 40
8.4280680439058422
 41
2.1604095563139931
 42
50.0
 43
0.0
 44
0.0
 50
0.0
 51
0.0
 71
     0
 72
   100
 73
     1
 74
     1
 75
     0
 76
     0
 77
     0
 78
     0
  0
ENDTAB
  0
TABLE
  2
LTYPE
 70
     2
  0
LTYPE
  2
CONTINUOUS
 70
     0
  3
Solid line
 72
    65
 73
     0
 40
0.0
  0
LTYPE
  2
PHANTOM2
 70
     0
  3
___ _ _ ___ _ _ ___ _ _ ___ _ _
 72
    65
 73
     6
 40
1.25
 49
0.625
 49
-0.125
 49
0.125
 49
-0.125
 49
0.125
 49
-0.125
  0
ENDTAB
  0
TABLE
  2
LAYER
 70
     2
  0
LAYER
  2
0
 70
     0
 62
   255
  6
CONTINUOUS
  0
LAYER
  2
DEFPOINTS
 70
     0
 62
     7
  6
CONTINUOUS
  0
ENDTAB
  0
TABLE
  2
STYLE
 70
     1
  0
STYLE
  2
STANDARD
 70
     0
 40
0.0
 41
0.8
 50
0.0
 71
     0
 42
0.2
  3
txt
  4

  0
ENDTAB
  0
TABLE
  2
VIEW
 70
     0
  0
ENDTAB
  0
TABLE
  2
UCS
 70
     0
  0
ENDTAB
  0
TABLE
  2
APPID
 70
    11
  0
APPID
  2
ACAD
 70
     0
  0
APPID
  2
ACAD_MLEADERVER
 70
     0
  0
APPID
  2
ACAD_EXEMPT_FROM_CAD_STANDARDS
 70
     0
  0
APPID
  2
ACAD_NAV_VCDISPLAY
 70
     0
  0
APPID
  2
ACAECLAYERSTANDARD
 70
     0
  0
APPID
  2
ACCMTRANSPARENCY
 70
     0
  0
APPID
  2
ACAD_DSTYLE_DIMJAG
 70
     0
  0
APPID
  2
ACAD_DSTYLE_DIMTALN
 70
     0
  0
APPID
  2
ACDBATTR
 70
     0
  0
APPID
  2
ACADANNOTATIVE
 70
     0
  0
APPID
  2
DCO15
 70
     0
  0
ENDTAB
  0
TABLE
  2
DIMSTYLE
 70
     1
  0
DIMSTYLE
  2
STANDARD
 70
     0
  3

  4

  5

  6

  7

 40
1.0
 41
0.1875
 42
0.0625
 43
0.38
 44
0.125
 45
0.0
 46
0.0
 47
0.01
 48
0.01
140
0.15625
141
0.09
142
0.0
143
25.3999999999999986
144
1.0
145
0.0
146
1.0
147
0.09
 71
     1
 72
     0
 73
     1
 74
     1
 75
     0
 76
     0
 77
     0
 78
     4
170
     0
171
     2
172
     0
173
     0
174
     0
175
     0
176
     0
177
     0
178
     0
  0
ENDTAB
  0
ENDSEC
  0
SECTION
  2
BLOCKS
  0
BLOCK
  8
0
  2
$MODEL_SPACE
 70
     0
 10
0.0
 20
0.0
 30
0.0
  3
$MODEL_SPACE
  1

  0
ENDBLK
  5
21
  8
0
  0
BLOCK
 67
     1
  8
0
  2
$PAPER_SPACE
 70
     0
 10
0.0
 20
0.0
 30
0.0
  3
$PAPER_SPACE
  1

  0
ENDBLK
  5
1D
 67
     1
  8
0
  0
ENDSEC
  0
SECTION
  2
ENTITIES
  0
ATTDEF
  5
26A5B
  8
DEFPOINTS
 10
6611.3082637765974141
 20
176.7198879884464873
 30
0.0
 40
0.001
  1
P30530-NM
  3

  2
MODELNUMBER
 70
     0
1001
ACDBATTR
1070
     0
1070
     1
  0
ATTDEF
  5
26A5C
  8
DEFPOINTS
 10
6611.3081379669411035
 20
176.7182211480673004
 30
0.0
 40
0.001
  1
BANDEAU
  3

  2
TRADENAME
 70
     0
1001
ACDBATTR
1070
     0
1070
     1
  0
ATTDEF
  5
26A5D
  8
DEFPOINTS
 10
6611.3082637765974141
 20
176.7165546551131001
 30
0.0
 40
0.001
  1
SHOWERHEAD
  3

  2
PRODUCT
 70
     0
1001
ACDBATTR
1070
     0
1070
     1
  0
LINE
  5
2F163
  8
0
 10
6602.5388092086332108
 20
176.5376937883210928
 30
0.0
 11
6620.0861619830257041
 21
176.5376937883210928
 31
0.0
  0
LINE
  5
2F164
  8
0
 10
6602.5388092086332108
 20
173.7857675832266011
 30
0.0
 11
6620.0861619830257041
 21
173.7855155416573893
 31
0.0
  0
LINE
  5
2F165
  8
0
 10
6602.8771376257436714
 20
176.7158670166211039
 30
0.0
 11
6619.7473655332432827
 21
176.7158670166211039
 31
0.0
  0
LINE
  5
2F166
  8
0
 10
6602.8674774837436416
 20
173.5887252844210877
 30
0.0
 11
6619.7570256752433124
 21
173.5887252844210877
 31
0.0
  0
LINE
  5
2F167
  8
0
 10
6620.0861619830257041
 20
173.7855155416573893
 30
0.0
 11
6620.0861619830257041
 21
176.5376937883210928
 31
0.0
  0
LINE
  5
2F168
  8
0
 10
6619.8553024593102236
 20
176.6177630608484037
 30
0.0
 11
6619.8566831033640483
 21
176.5386725356883915
 31
0.0
  0
LINE
  5
2F169
  8
0
 10
6619.8570256752427667
 20
173.7855456968210888
 30
0.0
 11
6619.8553457181433259
 21
173.6891214347211019
 31
0.0
  0
ARC
  5
2F16A
  8
0
 10
6619.7548204318145508
 20
176.615639414584308
 30
0.0
 40
0.1005044661831464
 50
1.210742454468535
 51
94.2538096965349439
  0
ARC
  5
2F16B
  8
0
 10
6619.7528521139893201
 20
173.6911540489344077
 30
0.0
 40
0.1025137571903574
 50
272.333282474961095
 51
358.8638807982554226
  0
LINE
  5
2F16C
  8
0
 10
6611.5761489698434161
 20
176.5376937883210928
 30
0.0
 11
6611.5761489698434161
 21
173.7857252844210905
 31
0.0
  0
LINE
  5
2F16D
  8
0
 10
6611.6459609802441264
 20
176.5376937883210928
 30
0.0
 11
6611.6459609802441264
 21
173.7857252844210905
 31
0.0
  0
LINE
  5
2F16E
  8
0
 10
6612.1779739169442109
 20
176.5376937883210928
 30
0.0
 11
6612.1779739169442109
 21
173.7857252844210905
 31
0.0
  0
LINE
  5
2F16F
  8
0
 10
6612.2477859273440117
 20
176.5376937883210928
 30
0.0
 11
6612.2477859273440117
 21
173.7857252844210905
 31
0.0
  0
LINE
  5
2F170
  8
0
 10
6612.7704773515433772
 20
176.5376937883210928
 30
0.0
 11
6612.7704773515433772
 21
173.7857252844210905
 31
0.0
  0
LINE
  5
2F171
  8
0
 10
6612.8402893619440874
 20
176.5376937883210928
 30
0.0
 11
6612.8402893619440874
 21
173.7857252844210905
 31
0.0
  0
LINE
  5
2F172
  8
0
 10
6613.3676415424433799
 20
176.5376937883210928
 30
0.0
 11
6613.3676415424433799
 21
173.7857252844210905
 31
0.0
  0
LINE
  5
2F173
  8
0
 10
6613.4374535528440902
 20
176.5376937883210928
 30
0.0
 11
6613.4374535528440902
 21
173.7857252844210905
 31
0.0
  0
LINE
  5
2F174
  8
0
 10
6613.9643851045429983
 20
176.5376937883210928
 30
0.0
 11
6613.9643851045429983
 21
173.7857252844210905
 31
0.0
  0
LINE
  5
2F175
  8
0
 10
6614.6390228855443638
 20
176.5376937883210928
 30
0.0
 11
6614.6390228855443638
 21
173.7857252844210905
 31
0.0
  0
LINE
  5
2F176
  8
0
 10
6614.5689284469435734
 20
176.5376937883210928
 30
0.0
 11
6614.5689284469435734
 21
173.7857252844210905
 31
0.0
  0
LINE
  5
2F177
  8
0
 10
6614.0346396920431289
 20
176.5376937883210928
 30
0.0
 11
6614.0346396920431289
 21
173.7857252844210905
 31
0.0
  0
LINE
  5
2F178
  8
0
 10
6619.893575132143269
 20
176.5376937883210928
 30
0.0
 11
6619.8935327340777803
 21
173.7855759292436915
 31
0.0
  0
LINE
  5
2F179
  8
0
 10
6615.1758197230428777
 20
176.5376937883210928
 30
0.0
 11
6615.1758197230428777
 21
173.7857252844210905
 31
0.0
  0
LINE
  5
2F17A
  8
0
 10
6615.2450533424444075
 20
176.5376937883210928
 30
0.0
 11
6615.2450533424444075
 21
173.7857252844210905
 31
0.0
  0
LINE
  5
2F17B
  8
0
 10
6615.8396808260431499
 20
176.5376937883210928
 30
0.0
 11
6615.8396808260431499
 21
173.7857252844210905
 31
0.0
  0
LINE
  5
2F17C
  8
0
 10
6615.7721135690426308
 20
176.5376937883210928
 30
0.0
 11
6615.7721135690426308
 21
173.7857252844210905
 31
0.0
  0
LINE
  5
2F17D
  8
0
 10
6616.4159867608432251
 20
176.5376937883210928
 30
0.0
 11
6616.4159867608432251
 21
173.7857252844210905
 31
0.0
  0
LINE
  5
2F17E
  8
0
 10
6616.3508720208437808
 20
176.5376937883210928
 30
0.0
 11
6616.3508720208437808
 21
173.7857252844210905
 31
0.0
  0
LINE
  5
2F17F
  8
0
 10
6616.9672657452438216
 20
176.5376937883210928
 30
0.0
 11
6616.9672657452438216
 21
173.7857252844210905
 31
0.0
  0
LINE
  5
2F180
  8
0
 10
6616.9054333954436515
 20
176.5376937883210928
 30
0.0
 11
6616.9054333954436515
 21
173.7857252844210905
 31
0.0
  0
LINE
  5
2F181
  8
0
 10
6617.4871035695432511
 20
176.5376937883210928
 30
0.0
 11
6617.4871035695432511
 21
173.7857252844210905
 31
0.0
  0
LINE
  5
2F182
  8
0
 10
6617.431622527644322
 20
176.5376937883210928
 30
0.0
 11
6617.431622527644322
 21
173.7857252844210905
 31
0.0
  0
LINE
  5
2F183
  8
0
 10
6617.9694518466440059
 20
176.5376937883210928
 30
0.0
 11
6617.9694518466440059
 21
173.7857252844210905
 31
0.0
  0
LINE
  5
2F184
  8
0
 10
6617.9244032159431299
 20
176.5376937883210928
 30
0.0
 11
6617.9244032159431299
 21
173.7857252844210905
 31
0.0
  0
LINE
  5
2F185
  8
0
 10
6618.4086983856432198
 20
176.5376937883210928
 30
0.0
 11
6618.4086983856432198
 21
173.7857252844210905
 31
0.0
  0
LINE
  5
2F186
  8
0
 10
6618.3780418869428104
 20
176.5376937883210928
 30
0.0
 11
6618.3780418869428104
 21
173.7857252844210905
 31
0.0
  0
LINE
  5
2F187
  8
0
 10
6618.7997324902444234
 20
176.5376937883210928
 30
0.0
 11
6618.7997324902444234
 21
173.7857252844210905
 31
0.0
  0
LINE
  5
2F188
  8
0
 10
6618.7872603899431851
 20
176.5376937883210928
 30
0.0
 11
6618.7872603899431851
 21
173.7857252844210905
 31
0.0
  0
LINE
  5
2F189
  8
0
 10
6619.147297409444036
 20
176.5376937883210928
 30
0.0
 11
6619.147297409444036
 21
173.7857252844210905
 31
0.0
  0
LINE
  5
2F18A
  8
0
 10
6619.4539638632431888
 20
176.5376937883210928
 30
0.0
 11
6619.4539638632431888
 21
173.7857252844210905
 31
0.0
  0
LINE
  5
2F18B
  8
0
 10
6619.7036916436427418
 20
176.5376937883210928
 30
0.0
 11
6619.7036916436427418
 21
173.7857252844210905
 31
0.0
  0
LINE
  5
2F18C
  8
0
 10
6620.0214050073436738
 20
176.5376937883210928
 30
0.0
 11
6620.0214050073436738
 21
173.7857252844210905
 31
0.0
  0
LINE
  5
2F18D
  8
0
 10
6602.5388092086332108
 20
173.7857675832266011
 30
0.0
 11
6602.5388092086332108
 21
176.5376937883210928
 31
0.0
  0
LINE
  5
2F18E
  8
0
 10
6602.7692006996767304
 20
176.6177630608484037
 30
0.0
 11
6602.7678200556219963
 21
176.5386725356883915
 31
0.0
  0
LINE
  5
2F18F
  8
0
 10
6602.7674774837441873
 20
173.7855456968210888
 30
0.0
 11
6602.7691574408427186
 21
173.6891214347211019
 31
0.0
  0
ARC
  5
2F190
  8
0
 10
6602.8696827271705843
 20
176.615639414584308
 30
0.0
 40
0.1005044661831464
 50
85.7461903034650135
 51
178.7892575455313988
  0
ARC
  5
2F191
  8
0
 10
6602.871651044997634
 20
173.6911540489344077
 30
0.0
 40
0.1025137571903574
 50
181.1361192017446058
 51
267.6667175250387913
  0
LINE
  5
2F192
  8
0
 10
6611.0483541891444474
 20
176.5376937883210928
 30
0.0
 11
6611.0483541891444474
 21
173.7857252844210905
 31
0.0
  0
LINE
  5
2F193
  8
0
 10
6610.9785421787428277
 20
176.5376937883210928
 30
0.0
 11
6610.9785421787428277
 21
173.7857252844210905
 31
0.0
  0
LINE
  5
2F194
  8
0
 10
6610.4465292420436526
 20
176.5376937883210928
 30
0.0
 11
6610.4465292420436526
 21
173.7857252844210905
 31
0.0
  0
LINE
  5
2F195
  8
0
 10
6610.3767172316438518
 20
176.5376937883210928
 30
0.0
 11
6610.3767172316438518
 21
173.7857252844210905
 31
0.0
  0
LINE
  5
2F196
  8
0
 10
6609.8540258074426674
 20
176.5376937883210928
 30
0.0
 11
6609.8540258074426674
 21
173.7857252844210905
 31
0.0
  0
LINE
  5
2F197
  8
0
 10
6609.7842137970446856
 20
176.5376937883210928
 30
0.0
 11
6609.7842137970446856
 21
173.7857252844210905
 31
0.0
  0
LINE
  5
2F198
  8
0
 10
6609.2568616165426647
 20
176.5376937883210928
 30
0.0
 11
6609.2568616165426647
 21
173.7857252844210905
 31
0.0
  0
LINE
  5
2F199
  8
0
 10
6609.1870496061428639
 20
176.5376937883210928
 30
0.0
 11
6609.1870496061428639
 21
173.7857252844210905
 31
0.0
  0
LINE
  5
2F19A
  8
0
 10
6608.6601180544430463
 20
176.5376937883210928
 30
0.0
 11
6608.6601180544430463
 21
173.7857252844210905
 31
0.0
  0
LINE
  5
2F19B
  8
0
 10
6607.9854802734425903
 20
176.5376937883210928
 30
0.0
 11
6607.9854802734425903
 21
173.7857252844210905
 31
0.0
  0
LINE
  5
2F19C
  8
0
 10
6608.0555747120433807
 20
176.5376937883210928
 30
0.0
 11
6608.0555747120433807
 21
173.7857252844210905
 31
0.0
  0
LINE
  5
2F19D
  8
0
 10
6608.5898634669429157
 20
176.5376937883210928
 30
0.0
 11
6608.5898634669429157
 21
173.7857252844210905
 31
0.0
  0
LINE
  5
2F19E
  8
0
 10
6602.7309280268436851
 20
176.5376937883210928
 30
0.0
 11
6602.7309704249091737
 21
173.7855759292436915
 31
0.0
  0
LINE
  5
2F19F
  8
0
 10
6607.4486834359440763
 20
176.5376937883210928
 30
0.0
 11
6607.4486834359440763
 21
173.7857252844210905
 31
0.0
  0
LINE
  5
2F1A0
  8
0
 10
6607.3794498165443656
 20
176.5376937883210928
 30
0.0
 11
6607.3794498165443656
 21
173.7857252844210905
 31
0.0
  0
LINE
  5
2F1A1
  8
0
 10
6606.7848223329438042
 20
176.5376937883210928
 30
0.0
 11
6606.7848223329438042
 21
173.7857252844210905
 31
0.0
  0
LINE
  5
2F1A2
  8
0
 10
6606.8523895899434137
 20
176.5376937883210928
 30
0.0
 11
6606.8523895899434137
 21
173.7857252844210905
 31
0.0
  0
LINE
  5
2F1A3
  8
0
 10
6606.208516398143729
 20
176.5376937883210928
 30
0.0
 11
6606.208516398143729
 21
173.7857252844210905
 31
0.0
  0
LINE
  5
2F1A4
  8
0
 10
6606.2736311381431733
 20
176.5376937883210928
 30
0.0
 11
6606.2736311381431733
 21
173.7857139380762135
 31
0.0
  0
LINE
  5
2F1A5
  8
0
 10
6605.6572374137431325
 20
176.5376937883210928
 30
0.0
 11
6605.6572374137431325
 21
173.7857252844210905
 31
0.0
  0
LINE
  5
2F1A6
  8
0
 10
6605.7190697635433025
 20
176.5376937883210928
 30
0.0
 11
6605.7190697635433025
 21
173.7857252844210905
 31
0.0
  0
LINE
  5
2F1A7
  8
0
 10
6605.137399589443703
 20
176.5376937883210928
 30
0.0
 11
6605.137399589443703
 21
173.7857252844210905
 31
0.0
  0
LINE
  5
2F1A8
  8
0
 10
6605.1928806313444511
 20
176.5376937883210928
 30
0.0
 11
6605.1928806313444511
 21
173.7857252844210905
 31
0.0
  0
LINE
  5
2F1A9
  8
0
 10
6604.6550513123429482
 20
176.5376937883210928
 30
0.0
 11
6604.6550513123429482
 21
173.7857252844210905
 31
0.0
  0
LINE
  5
2F1AA
  8
0
 10
6604.7000999430438242
 20
176.5376937883210928
 30
0.0
 11
6604.7000999430438242
 21
173.7857252844210905
 31
0.0
  0
LINE
  5
2F1AB
  8
0
 10
6604.2158047733428248
 20
176.5376937883210928
 30
0.0
 11
6604.2158047733428248
 21
173.7857252844210905
 31
0.0
  0
LINE
  5
2F1AC
  8
0
 10
6604.2464612720441437
 20
176.5376937883210928
 30
0.0
 11
6604.2464612720441437
 21
173.7857252844210905
 31
0.0
  0
LINE
  5
2F1AD
  8
0
 10
6603.8247706687434402
 20
176.5376937883210928
 30
0.0
 11
6603.8247706687434402
 21
173.7857252844210905
 31
0.0
  0
LINE
  5
2F1AE
  8
0
 10
6603.8372427690428594
 20
176.5376937883210928
 30
0.0
 11
6603.8372427690428594
 21
173.7857252844210905
 31
0.0
  0
LINE
  5
2F1AF
  8
0
 10
6603.477205749544737
 20
176.5376937883210928
 30
0.0
 11
6603.477205749544737
 21
173.7857252844210905
 31
0.0
  0
LINE
  5
2F1B0
  8
0
 10
6603.1705392957428558
 20
176.5376937883210928
 30
0.0
 11
6603.1705392957428558
 21
173.7857252844210905
 31
0.0
  0
LINE
  5
2F1B1
  8
0
 10
6602.9208115153433027
 20
176.5376937883210928
 30
0.0
 11
6602.9208115153433027
 21
173.7857252844210905
 31
0.0
  0
LINE
  5
2F1B2
  8
0
 10
6602.6030981516432803
 20
176.5376937883210928
 30
0.0
 11
6602.6030981516432803
 21
173.7857252844210905
 31
0.0
  0
ENDSEC
  0
EOF
