  0
SECTION
  2
HEADER
  9
$ACADVER
  1
AC1009
  9
$INSBASE
 10
4088.4745951189229345
 20
193.3879094357880888
 30
0.0
  9
$EXTMIN
 10
4081.1548338144621084
 20
189.9734106711781862
 30
-0.0015258207003583
  9
$EXTMAX
 10
4095.5233327462751731
 20
193.3964658929835139
 30
0.0000000349246037
  9
$LIMMIN
 10
0.0
 20
0.0
  9
$LIMMAX
 10
11.6929133858000007
 20
8.2677165353999982
  9
$ORTHOMODE
 70
     0
  9
$REGENMODE
 70
     1
  9
$FILLMODE
 70
     1
  9
$QTEXTMODE
 70
     0
  9
$MIRRTEXT
 70
     0
  9
$DRAGMODE
 70
     2
  9
$LTSCALE
 40
0.6431102362
  9
$OSMODE
 70
  4095
  9
$ATTMODE
 70
     1
  9
$TEXTSIZE
 40
0.2
  9
$TRACEWID
 40
0.05
  9
$TEXTSTYLE
  7
STANDARD
  9
$CLAYER
  8
0
  9
$CELTYPE
  6
BYLAYER
  9
$CECOLOR
 62
   256
  9
$DIMSCALE
 40
1.0
  9
$DIMASZ
 40
0.1875
  9
$DIMEXO
 40
0.0625
  9
$DIMDLI
 40
0.4443307087
  9
$DIMRND
 40
0.0
  9
$DIMDLE
 40
0.0
  9
$DIMEXE
 40
0.125
  9
$DIMTP
 40
0.01
  9
$DIMTM
 40
0.01
  9
$DIMTXT
 40
2.0
  9
$DIMCEN
 40
0.1052362205
  9
$DIMTSZ
 40
0.0
  9
$DIMTOL
 70
     1
  9
$DIMLIM
 70
     0
  9
$DIMTIH
 70
     1
  9
$DIMTOH
 70
     1
  9
$DIMSE1
 70
     0
  9
$DIMSE2
 70
     0
  9
$DIMTAD
 70
     0
  9
$DIMZIN
 70
     0
  9
$DIMBLK
  1

  9
$DIMASO
 70
     1
  9
$DIMSHO
 70
     1
  9
$DIMPOST
  1
\X
  9
$DIMAPOST
  1

  9
$DIMALT
 70
     1
  9
$DIMALTD
 70
     2
  9
$DIMALTF
 40
25.3999999999999986
  9
$DIMLFAC
 40
1.0
  9
$DIMTOFL
 70
     0
  9
$DIMTVP
 40
0.0
  9
$DIMTIX
 70
     0
  9
$DIMSOXD
 70
     0
  9
$DIMSAH
 70
     0
  9
$DIMBLK1
  1

  9
$DIMBLK2
  1

  9
$DIMSTYLE
  2
STANDARD
  9
$DIMCLRD
 70
     0
  9
$DIMCLRE
 70
     0
  9
$DIMCLRT
 70
     0
  9
$DIMTFAC
 40
1.0
  9
$DIMGAP
 40
0.09
  9
$LUNITS
 70
     2
  9
$LUPREC
 70
     4
  9
$SKETCHINC
 40
0.1
  9
$FILLETRAD
 40
0.0
  9
$AUNITS
 70
     0
  9
$AUPREC
 70
     0
  9
$MENU
  1
.
  9
$ELEVATION
 40
0.0
  9
$PELEVATION
 40
0.0
  9
$THICKNESS
 40
0.0
  9
$LIMCHECK
 70
     0
  9
$BLIPMODE
 70
     0
  9
$CHAMFERA
 40
0.0
  9
$CHAMFERB
 40
0.0
  9
$SKPOLY
 70
     0
  9
$TDCREATE
 40
2458060.468368056230247
  9
$TDUPDATE
 40
2460886.7516782409511507
  9
$TDINDWG
 40
0.5270209491
  9
$TDUSRTIMER
 40
0.5270209491
  9
$USRTIMER
 70
     1
  9
$ANGBASE
 50
0.0
  9
$ANGDIR
 70
     0
  9
$PDMODE
 70
     0
  9
$PDSIZE
 40
0.3125
  9
$PLINEWID
 40
0.0
  9
$COORDS
 70
     1
  9
$SPLFRAME
 70
     0
  9
$SPLINETYPE
 70
     6
  9
$SPLINESEGS
 70
     8
  9
$ATTDIA
 70
     1
  9
$ATTREQ
 70
     1
  9
$HANDLING
 70
     1
  9
$HANDSEED
  5
11860
  9
$SURFTAB1
 70
     6
  9
$SURFTAB2
 70
     6
  9
$SURFTYPE
 70
     6
  9
$SURFU
 70
     6
  9
$SURFV
 70
     6
  9
$UCSNAME
  2

  9
$UCSORG
 10
0.0
 20
0.0
 30
0.0
  9
$UCSXDIR
 10
1.0
 20
0.0
 30
0.0
  9
$UCSYDIR
 10
0.0
 20
1.0
 30
0.0
  9
$PUCSNAME
  2

  9
$PUCSORG
 10
0.0
 20
0.0
 30
0.0
  9
$PUCSXDIR
 10
1.0
 20
0.0
 30
0.0
  9
$PUCSYDIR
 10
0.0
 20
1.0
 30
0.0
  9
$USERI1
 70
     0
  9
$USERI2
 70
     0
  9
$USERI3
 70
     0
  9
$USERI4
 70
     0
  9
$USERI5
 70
     0
  9
$USERR1
 40
0.0
  9
$USERR2
 40
0.0
  9
$USERR3
 40
0.0
  9
$USERR4
 40
0.0
  9
$USERR5
 40
0.0
  9
$WORLDVIEW
 70
     1
  9
$SHADEDGE
 70
     3
  9
$SHADEDIF
 70
    70
  9
$TILEMODE
 70
     1
  9
$MAXACTVP
 70
    64
  9
$PLIMCHECK
 70
     0
  9
$PEXTMIN
 10
1.0000000000000000E+20
 20
1.0000000000000000E+20
 30
1.0000000000000000E+20
  9
$PEXTMAX
 10
-1.0000000000000000E+20
 20
-1.0000000000000000E+20
 30
-1.0000000000000000E+20
  9
$PLIMMIN
 10
0.0
 20
0.0
  9
$PLIMMAX
 10
12.0
 20
9.0
  9
$UNITMODE
 70
     0
  9
$VISRETAIN
 70
     1
  9
$PLINEGEN
 70
     0
  9
$PSLTSCALE
 70
     1
  0
ENDSEC
  0
SECTION
  2
TABLES
  0
TABLE
  2
VPORT
 70
     1
  0
VPORT
  2
*ACTIVE
 70
     0
 10
0.0
 20
0.0
 11
1.0
 21
1.0
 12
1023.3152795694310271
 22
-2.2175410105749052
 13
0.0
 23
0.0
 14
1.0
 24
1.0
 15
0.0
 25
0.0
 16
0.0
 26
0.0
 36
63.7428098394932476
 17
3065.0238037109379547
 27
193.9024792926558121
 37
0.0
 40
6.6562415991539794
 41
2.1655172413793098
 42
50.0
 43
0.0
 44
0.0
 50
0.0
 51
0.0
 71
     0
 72
   100
 73
     1
 74
     1
 75
     0
 76
     0
 77
     0
 78
     0
  0
ENDTAB
  0
TABLE
  2
LTYPE
 70
     2
  0
LTYPE
  2
CONTINUOUS
 70
     0
  3
Solid line
 72
    65
 73
     0
 40
0.0
  0
LTYPE
  2
PHANTOM2
 70
     0
  3
___ _ _ ___ _ _ ___ _ _ ___ _ _
 72
    65
 73
     6
 40
1.25
 49
0.625
 49
-0.125
 49
0.125
 49
-0.125
 49
0.125
 49
-0.125
  0
ENDTAB
  0
TABLE
  2
LAYER
 70
     2
  0
LAYER
  2
0
 70
     0
 62
   255
  6
CONTINUOUS
  0
LAYER
  2
DEFPOINTS
 70
     0
 62
     7
  6
CONTINUOUS
  0
ENDTAB
  0
TABLE
  2
STYLE
 70
     2
  0
STYLE
  2
STANDARD
 70
     0
 40
0.0
 41
0.8
 50
0.0
 71
     0
 42
0.2
  3
txt
  4

  0
STYLE
  2
ANNOTATIVE
 70
     0
 40
0.0
 41
1.0
 50
0.0
 71
     0
 42
0.2
  3
txt
  4

  0
ENDTAB
  0
TABLE
  2
VIEW
 70
     0
  0
ENDTAB
  0
TABLE
  2
UCS
 70
     0
  0
ENDTAB
  0
TABLE
  2
APPID
 70
    10
  0
APPID
  2
ACAD
 70
     0
  0
APPID
  2
ACADANNOTATIVE
 70
     0
  0
APPID
  2
ACAD_MLEADERVER
 70
     0
  0
APPID
  2
ACAD_EXEMPT_FROM_CAD_STANDARDS
 70
     0
  0
APPID
  2
ACAD_NAV_VCDISPLAY
 70
     0
  0
APPID
  2
ACAECLAYERSTANDARD
 70
     0
  0
APPID
  2
ACCMTRANSPARENCY
 70
     0
  0
APPID
  2
ACAD_DSTYLE_DIMJAG
 70
     0
  0
APPID
  2
ACAD_DSTYLE_DIMTALN
 70
     0
  0
APPID
  2
ACDBATTR
 70
     0
  0
ENDTAB
  0
TABLE
  2
DIMSTYLE
 70
     2
  0
DIMSTYLE
  2
STANDARD
 70
     0
  3

  4

  5

  6

  7

 40
1.0
 41
0.1875
 42
0.0625
 43
0.38
 44
0.125
 45
0.0
 46
0.0
 47
0.01
 48
0.01
140
0.15625
141
0.09
142
0.0
143
25.3999999999999986
144
1.0
145
0.0
146
1.0
147
0.09
 71
     1
 72
     0
 73
     1
 74
     1
 75
     0
 76
     0
 77
     0
 78
     4
170
     0
171
     2
172
     0
173
     0
174
     0
175
     0
176
     0
177
     0
178
     0
  0
DIMSTYLE
  2
ANNOTATIVE
 70
     0
  3

  4

  5

  6

  7

 40
1.0
 41
0.18
 42
0.0625
 43
0.38
 44
0.18
 45
0.0
 46
0.0
 47
0.0
 48
0.0
140
0.18
141
0.09
142
0.0
143
25.3999999999999986
144
1.0
145
0.0
146
1.0
147
0.09
 71
     0
 72
     0
 73
     1
 74
     1
 75
     0
 76
     0
 77
     0
 78
     0
170
     0
171
     2
172
     0
173
     0
174
     0
175
     0
176
     0
177
     0
178
     0
  0
ENDTAB
  0
ENDSEC
  0
SECTION
  2
BLOCKS
  0
BLOCK
  8
0
  2
$MODEL_SPACE
 70
     0
 10
0.0
 20
0.0
 30
0.0
  3
$MODEL_SPACE
  1

  0
ENDBLK
  5
10C7F
  8
0
  0
BLOCK
 67
     1
  8
0
  2
$PAPER_SPACE
 70
     0
 10
0.0
 20
0.0
 30
0.0
  3
$PAPER_SPACE
  1

  0
ENDBLK
  5
10C7B
 67
     1
  8
0
  0
BLOCK
  8
0
  2
_FILLED
 70
     0
 10
0.0
 20
0.0
 30
0.0
  3
_FILLED
  1

  0
SOLID
  5
9977
  8
0
  6
BYBLOCK
 62
     0
 10
0.0
 20
0.0
 30
0.0
 11
-1.0
 21
0.1666666667
 31
0.0
 12
-1.0
 22
-0.1666666667
 32
0.0
 13
-1.0
 23
-0.1666666667
 33
0.0
  0
ENDBLK
  5
9978
  8
0
  6
BYBLOCK
 62
     0
  0
ENDSEC
  0
SECTION
  2
ENTITIES
  0
ATTDEF
  5
C5C4
  8
0
 10
4088.4712298302461022
 20
193.3892208671730089
 30
0.0
 40
0.001
  1
P30575-00
  3

  2
MODELNUMBER
 70
     0
1001
ACDBATTR
1070
     0
1070
     1
  0
ATTDEF
  5
C5C5
  8
0
 10
4088.4712298302461022
 20
193.3875542005064005
 30
0.0
 40
0.001
  1
KALLISTA
  3

  2
BRANDNAME
 70
     0
1001
ACDBATTR
1070
     0
1070
     1
  0
ATTDEF
  5
C5C6
  8
0
 10
4088.4712298302461022
 20
193.385887533839707
 30
0.0
 40
0.001
  1
TOWEL BAR
  3

  2
PRODUCT
 70
     0
1001
ACDBATTR
1070
     0
1070
     1
  0
LINE
  5
117D4
  8
0
 10
4094.650815591322953
 20
189.9879089632881062
 30
0.0
 11
4092.9945951189229163
 21
189.9879089632881062
 31
0.0
  0
LINE
  5
117D5
  8
0
 10
4092.8945951189230072
 20
189.9879094357881115
 30
0.0
 11
4084.0545951189228617
 21
189.9879094357881115
 31
0.0
  0
LINE
  5
117D6
  8
0
 10
4092.9745951189229345
 20
190.0129089632881119
 30
0.0
 11
4092.9245951189232073
 21
190.0129089632881119
 31
0.0
  0
LINE
  5
117D7
  8
0
 10
4092.9245951189232073
 20
190.4353499081881012
 30
0.0
 11
4092.9745951189229345
 21
190.4353499081881012
 31
0.0
  0
LINE
  5
117D8
  8
0
 10
4084.0545951189228617
 20
190.4603494357880891
 30
0.0
 11
4092.8945951189230072
 21
190.4603494357880891
 31
0.0
  0
LINE
  5
117D9
  8
0
 10
4092.9945951189229163
 20
190.4603499081881068
 30
0.0
 11
4094.1483746464227806
 21
190.4603499081881068
 31
0.0
  0
LINE
  5
117DA
  8
0
 10
4093.4849457167229048
 20
192.9879094357881115
 30
0.0
 11
4095.4642445210229198
 21
192.9879094357881115
 31
0.0
  0
LINE
  5
117DB
  8
0
 10
4093.5469027488229585
 20
193.2721706895881084
 30
0.0
 11
4095.4022874885231431
 21
193.2721706895881084
 31
0.0
  0
LINE
  5
117DC
  8
0
 10
4093.5750671593232255
 20
193.3879094357880888
 30
0.0
 11
4095.3741230803229882
 21
193.3879094357880888
 31
0.0
  0
LINE
  5
117DD
  8
0
 10
4092.9145951189229891
 20
190.0079094357880933
 30
0.0
 11
4092.9145951189229891
 21
190.4403494357881073
 31
0.0
  0
LINE
  5
117DE
  8
0
 10
4092.9745951189229345
 20
190.007908963288088
 30
0.0
 11
4092.9745951189229345
 21
190.4403499081880966
 31
0.0
  0
LINE
  5
117DF
  8
0
 10
4093.4469065565231176
 20
193.2527739576881061
 30
0.0
 11
4093.4449472398227954
 21
193.0282584967881121
 31
0.0
  0
LINE
  5
117E0
  8
0
 10
4094.2383746464229262
 20
190.5503499081881102
 30
0.0
 11
4094.2383746464229262
 21
192.9679094357881013
 31
0.0
  0
LINE
  5
117E1
  8
0
 10
4094.7108155913228984
 20
192.9679094357881013
 30
0.0
 11
4094.7108155913228984
 21
190.0479089632881085
 31
0.0
  0
LINE
  5
117E2
  8
0
 10
4095.5042429980230736
 20
193.0282584967881121
 30
0.0
 11
4095.5022836812231617
 21
193.2527739576881061
 31
0.0
  0
ARC
  5
117E3
  8
0
 10
4094.1483746464227806
 20
190.5503499081881102
 30
0.0
 40
0.09
 50
270.0
 51
0.0
  0
ARC
  5
117E4
  8
0
 10
4094.650815591322953
 20
190.0479089632881085
 30
0.0
 40
0.06
 50
269.9999999992965058
 51
0.0
  0
ARC
  5
117E5
  8
0
 10
4092.8945951189230072
 20
190.4403494357881073
 30
0.0
 40
0.02
 50
0.0
 51
90.0000000019020234
  0
ARC
  5
117E6
  8
0
 10
4092.8945951189230072
 20
190.0079094357880933
 30
0.0
 40
0.02
 50
269.9999999985930117
 51
0.0
  0
ARC
  5
117E7
  8
0
 10
4092.9945951189229163
 20
190.4403499081880966
 30
0.0
 40
0.02
 50
89.9999999997915552
 51
179.9999999997002931
  0
ARC
  5
117E8
  8
0
 10
4092.9945951189229163
 20
190.007908963288088
 30
0.0
 40
0.02
 50
180.0000000002995932
 51
270.000000000208388
  0
ARC
  5
117E9
  8
0
 10
4092.9245951189232073
 20
190.4253499081881102
 30
0.0
 40
0.01
 50
89.9999999990880752
 51
180.0000000005993002
  0
ARC
  5
117EA
  8
0
 10
4092.9245951189232073
 20
190.0229089632881028
 30
0.0
 40
0.01
 50
180.000000000400604
 51
270.000000000104194
  0
ARC
  5
117EB
  8
0
 10
4093.4849459132228731
 20
193.0279095173881103
 30
0.0
 40
0.0399999573
 50
179.5001199223003994
 51
269.9997186267896723
  0
ARC
  5
117EC
  8
0
 10
4094.2583746464238175
 20
192.9679094357881013
 30
0.0
 40
0.02
 50
90.0
 51
179.9999999999006093
  0
ARC
  5
117ED
  8
0
 10
4093.4384851189229266
 20
193.3876411426880964
 30
0.0
 40
0.118
 50
281.884936948611994
 51
351.7794710963005969
  0
ARC
  5
117EE
  8
0
 10
4093.4669057950231945
 20
193.2525994262880999
 30
0.0
 40
0.02
 50
101.8849369483993001
 51
179.4999980967994873
  0
ARC
  5
117EF
  8
0
 10
4093.5750671812220389
 20
193.367909435788107
 30
0.0
 40
0.02
 50
90.0
 51
171.7795408264015009
  0
ARC
  5
117F0
  8
0
 10
4095.464244330522888
 20
193.0279095000881
 30
0.0
 40
0.0399999629
 50
270.0002728684074782
 51
0.4999049273002708
  0
ARC
  5
117F1
  8
0
 10
4094.6908155913229166
 20
192.9679094357881013
 30
0.0
 40
0.02
 50
0.0000000000993351
 51
90.0
  0
ARC
  5
117F2
  8
0
 10
4095.5107051189229423
 20
193.3876411426880964
 30
0.0
 40
0.118
 50
188.2205307122987961
 51
258.1150630513878923
  0
ARC
  5
117F3
  8
0
 10
4095.3741230566238301
 20
193.367909435788107
 30
0.0
 40
0.02
 50
8.2204485016985966
 51
90.0
  0
ARC
  5
117F4
  8
0
 10
4095.4822844428222197
 20
193.2525994262880999
 30
0.0
 40
0.02
 50
0.5000019062995407
 51
78.115063051600643
  0
ARC
  5
117F5
  8
0
 10
4093.5385732592189925
 20
193.4680595762594066
 30
0.0
 40
0.1960658978975645
 50
257.1209157711952003
 51
272.434835828072778
  0
ARC
  5
117F6
  8
0
 10
4093.4870865445141135
 20
193.2417450871091944
 30
0.0
 40
0.0360320931059093
 50
77.5228370339546586
 51
102.4670797813390948
  0
ARC
  5
117F7
  8
0
 10
4095.4061513788137745
 20
193.5168557070938107
 30
0.0
 40
0.2447155234960281
 50
269.0953013414468273
 51
281.3511673104727038
  0
ARC
  5
117F8
  8
0
 10
4095.4621007492592071
 20
193.2381520133727122
 30
0.0
 40
0.0395485807221624
 50
78.6504518501890999
 51
101.3511673104726043
  0
LINE
  5
117F9
  8
0
 10
4082.298374646522916
 20
189.9879089632881062
 30
0.0
 11
4083.9545951189229527
 21
189.9879089632881062
 31
0.0
  0
LINE
  5
117FA
  8
0
 10
4083.9745951189229345
 20
190.0129089632881119
 30
0.0
 11
4084.0245951189231164
 21
190.0129089632881119
 31
0.0
  0
LINE
  5
117FB
  8
0
 10
4084.0245951189231164
 20
190.4353499081881012
 30
0.0
 11
4083.9745951189229345
 21
190.4353499081881012
 31
0.0
  0
LINE
  5
117FC
  8
0
 10
4083.9545951189229527
 20
190.4603499081881068
 30
0.0
 11
4082.8008155914230883
 21
190.4603499081881068
 31
0.0
  0
LINE
  5
117FD
  8
0
 10
4083.4642445211229642
 20
192.9879094357881115
 30
0.0
 11
4081.4849457168220397
 21
192.9879094357881115
 31
0.0
  0
LINE
  5
117FE
  8
0
 10
4083.4022874890238199
 20
193.2721706895881084
 30
0.0
 11
4081.5469027493218164
 21
193.2721706895881084
 31
0.0
  0
LINE
  5
117FF
  8
0
 10
4083.3741230785230982
 20
193.3879094357880888
 30
0.0
 11
4081.5750671575228807
 21
193.3879094357880888
 31
0.0
  0
LINE
  5
11800
  8
0
 10
4084.0345951189228799
 20
190.0079094357880933
 30
0.0
 11
4084.0345951189228799
 21
190.4403494357881073
 31
0.0
  0
LINE
  5
11801
  8
0
 10
4083.9745951189229345
 20
190.007908963288088
 30
0.0
 11
4083.9745951189229345
 21
190.4403499081880966
 31
0.0
  0
LINE
  5
11802
  8
0
 10
4083.5022836813232061
 20
193.2527739576881061
 30
0.0
 11
4083.5042429980230736
 21
193.0282584967881121
 31
0.0
  0
LINE
  5
11803
  8
0
 10
4082.7108155914229428
 20
190.5503499081881102
 30
0.0
 11
4082.7108155914229428
 21
192.9679094357881013
 31
0.0
  0
LINE
  5
11804
  8
0
 10
4082.2383746465220611
 20
192.9679094357881013
 30
0.0
 11
4082.2383746465220611
 21
190.0479089632881085
 31
0.0
  0
LINE
  5
11805
  8
0
 10
4081.4449472398218859
 20
193.0282584967881121
 30
0.0
 11
4081.4469065566240715
 21
193.2527739576881061
 31
0.0
  0
ARC
  5
11806
  8
0
 10
4082.8008155914230883
 20
190.5503499081881102
 30
0.0
 40
0.09
 50
180.0
 51
270.0
  0
ARC
  5
11807
  8
0
 10
4082.298374646522916
 20
190.0479089632881085
 30
0.0
 40
0.06
 50
180.0
 51
270.0000000007034942
  0
ARC
  5
11808
  8
0
 10
4084.0545951189228617
 20
190.4403494357881073
 30
0.0
 40
0.02
 50
89.9999999980979766
 51
180.0
  0
ARC
  5
11809
  8
0
 10
4084.0545951189228617
 20
190.0079094357880933
 30
0.0
 40
0.02
 50
180.0
 51
270.0000000014069883
  0
ARC
  5
1180A
  8
0
 10
4083.9545951189229527
 20
190.4403499081880966
 30
0.0
 40
0.02
 50
0.0000000002996337
 51
90.0000000002084306
  0
ARC
  5
1180B
  8
0
 10
4083.9545951189229527
 20
190.007908963288088
 30
0.0
 40
0.02
 50
269.999999999791612
 51
359.9999999997003783
  0
ARC
  5
1180C
  8
0
 10
4084.0245951189231164
 20
190.4253499081881102
 30
0.0
 40
0.01
 50
359.9999999994006998
 51
90.0000000009119248
  0
ARC
  5
1180D
  8
0
 10
4084.0245951189231164
 20
190.0229089632881028
 30
0.0
 40
0.01
 50
269.999999999895806
 51
359.9999999995994244
  0
ARC
  5
1180E
  8
0
 10
4083.4642443246220864
 20
193.0279095173881103
 30
0.0
 40
0.0399999573
 50
270.0002813732103277
 51
0.499880077699548
  0
ARC
  5
1180F
  8
0
 10
4082.690815591422961
 20
192.9679094357881013
 30
0.0
 40
0.02
 50
0.0000000000993351
 51
90.0
  0
ARC
  5
11810
  8
0
 10
4083.5107051189229423
 20
193.3876411426880964
 30
0.0
 40
0.118
 50
188.2205289036994031
 51
258.1150630513878923
  0
ARC
  5
11811
  8
0
 10
4083.4822844428231292
 20
193.2525994262880999
 30
0.0
 40
0.02
 50
0.5000019032005025
 51
78.115063051600643
  0
ARC
  5
11812
  8
0
 10
4083.3741230566229206
 20
193.367909435788107
 30
0.0
 40
0.02
 50
8.2204591735984849
 51
90.0
  0
ARC
  5
11813
  8
0
 10
4081.4849459073220714
 20
193.0279095000881
 30
0.0
 40
0.0399999629
 50
179.5000950726997075
 51
269.9997271315925218
  0
ARC
  5
11814
  8
0
 10
4082.2583746465229524
 20
192.9679094357881013
 30
0.0
 40
0.02
 50
90.0
 51
179.9999999999006093
  0
ARC
  5
11815
  8
0
 10
4081.4384851189229266
 20
193.3876411426880964
 30
0.0
 40
0.118
 50
281.884936948611994
 51
351.7794692877012039
  0
ARC
  5
11816
  8
0
 10
4081.5750671812229484
 20
193.367909435788107
 30
0.0
 40
0.02
 50
90.0
 51
171.7795514983014016
  0
ARC
  5
11817
  8
0
 10
4081.4669057950231945
 20
193.2525994262880999
 30
0.0
 40
0.02
 50
101.8849369483993001
 51
179.4999980937004977
  0
ARC
  5
11818
  8
0
 10
4083.4106169786268765
 20
193.4680595762594066
 30
0.0
 40
0.1960658978975645
 50
267.565164171927222
 51
282.8790842288046861
  0
ARC
  5
11819
  8
0
 10
4083.4621036933322102
 20
193.2417450871091944
 30
0.0
 40
0.0360320931059093
 50
77.53292021866082
 51
102.4771629660452987
  0
ARC
  5
1181A
  8
0
 10
4081.5430388590320945
 20
193.5168557070938107
 30
0.0
 40
0.2447155234960281
 50
258.6488326895274099
 51
270.9046986585531727
  0
ARC
  5
1181B
  8
0
 10
4081.4870894885871166
 20
193.2381520133727122
 30
0.0
 40
0.0395485807221624
 50
78.6488326895273957
 51
101.3495481498109001
  0
ENDSEC
  0
EOF
