  0
SECTION
  2
HEADER
  9
$ACADVER
  1
AC1009
  9
$INSBASE
 10
4125.6000278648471067
 20
191.7043445334238925
 30
0.0
  9
$EXTMIN
 10
4122.2000273924468274
 20
190.6746951816238891
 30
0.0
  9
$EXTMAX
 10
4125.6075970907577357
 20
192.7339935250238909
 30
0.0
  9
$LIMMIN
 10
0.0
 20
0.0
  9
$LIMMAX
 10
11.6929133858000007
 20
8.2677165353999982
  9
$ORTHOMODE
 70
     0
  9
$REGENMODE
 70
     1
  9
$FILLMODE
 70
     1
  9
$QTEXTMODE
 70
     0
  9
$MIRRTEXT
 70
     0
  9
$DRAGMODE
 70
     2
  9
$LTSCALE
 40
0.6431102362
  9
$OSMODE
 70
  4095
  9
$ATTMODE
 70
     1
  9
$TEXTSIZE
 40
0.2
  9
$TRACEWID
 40
0.05
  9
$TEXTSTYLE
  7
STANDARD
  9
$CLAYER
  8
0
  9
$CELTYPE
  6
BYLAYER
  9
$CECOLOR
 62
   256
  9
$DIMSCALE
 40
1.0
  9
$DIMASZ
 40
0.1875
  9
$DIMEXO
 40
0.0625
  9
$DIMDLI
 40
0.4443307087
  9
$DIMRND
 40
0.0
  9
$DIMDLE
 40
0.0
  9
$DIMEXE
 40
0.125
  9
$DIMTP
 40
0.01
  9
$DIMTM
 40
0.01
  9
$DIMTXT
 40
2.0
  9
$DIMCEN
 40
0.1052362205
  9
$DIMTSZ
 40
0.0
  9
$DIMTOL
 70
     1
  9
$DIMLIM
 70
     0
  9
$DIMTIH
 70
     1
  9
$DIMTOH
 70
     1
  9
$DIMSE1
 70
     0
  9
$DIMSE2
 70
     0
  9
$DIMTAD
 70
     0
  9
$DIMZIN
 70
     0
  9
$DIMBLK
  1

  9
$DIMASO
 70
     1
  9
$DIMSHO
 70
     1
  9
$DIMPOST
  1
\X
  9
$DIMAPOST
  1

  9
$DIMALT
 70
     1
  9
$DIMALTD
 70
     2
  9
$DIMALTF
 40
25.3999999999999986
  9
$DIMLFAC
 40
1.0
  9
$DIMTOFL
 70
     0
  9
$DIMTVP
 40
0.0
  9
$DIMTIX
 70
     0
  9
$DIMSOXD
 70
     0
  9
$DIMSAH
 70
     0
  9
$DIMBLK1
  1

  9
$DIMBLK2
  1

  9
$DIMSTYLE
  2
STANDARD
  9
$DIMCLRD
 70
     0
  9
$DIMCLRE
 70
     0
  9
$DIMCLRT
 70
     0
  9
$DIMTFAC
 40
1.0
  9
$DIMGAP
 40
0.09
  9
$LUNITS
 70
     2
  9
$LUPREC
 70
     4
  9
$SKETCHINC
 40
0.1
  9
$FILLETRAD
 40
0.0
  9
$AUNITS
 70
     0
  9
$AUPREC
 70
     0
  9
$MENU
  1
.
  9
$ELEVATION
 40
0.0
  9
$PELEVATION
 40
0.0
  9
$THICKNESS
 40
0.0
  9
$LIMCHECK
 70
     0
  9
$BLIPMODE
 70
     0
  9
$CHAMFERA
 40
0.0
  9
$CHAMFERB
 40
0.0
  9
$SKPOLY
 70
     0
  9
$TDCREATE
 40
2458060.468368056230247
  9
$TDUPDATE
 40
2460886.772916667163372
  9
$TDINDWG
 40
0.5355394676
  9
$TDUSRTIMER
 40
0.5355394676
  9
$USRTIMER
 70
     1
  9
$ANGBASE
 50
0.0
  9
$ANGDIR
 70
     0
  9
$PDMODE
 70
     0
  9
$PDSIZE
 40
0.3125
  9
$PLINEWID
 40
0.0
  9
$COORDS
 70
     1
  9
$SPLFRAME
 70
     0
  9
$SPLINETYPE
 70
     6
  9
$SPLINESEGS
 70
     8
  9
$ATTDIA
 70
     1
  9
$ATTREQ
 70
     1
  9
$HANDLING
 70
     1
  9
$HANDSEED
  5
11D1C
  9
$SURFTAB1
 70
     6
  9
$SURFTAB2
 70
     6
  9
$SURFTYPE
 70
     6
  9
$SURFU
 70
     6
  9
$SURFV
 70
     6
  9
$UCSNAME
  2

  9
$UCSORG
 10
0.0
 20
0.0
 30
0.0
  9
$UCSXDIR
 10
1.0
 20
0.0
 30
0.0
  9
$UCSYDIR
 10
0.0
 20
1.0
 30
0.0
  9
$PUCSNAME
  2

  9
$PUCSORG
 10
0.0
 20
0.0
 30
0.0
  9
$PUCSXDIR
 10
1.0
 20
0.0
 30
0.0
  9
$PUCSYDIR
 10
0.0
 20
1.0
 30
0.0
  9
$USERI1
 70
     0
  9
$USERI2
 70
     0
  9
$USERI3
 70
     0
  9
$USERI4
 70
     0
  9
$USERI5
 70
     0
  9
$USERR1
 40
0.0
  9
$USERR2
 40
0.0
  9
$USERR3
 40
0.0
  9
$USERR4
 40
0.0
  9
$USERR5
 40
0.0
  9
$WORLDVIEW
 70
     1
  9
$SHADEDGE
 70
     3
  9
$SHADEDIF
 70
    70
  9
$TILEMODE
 70
     1
  9
$MAXACTVP
 70
    64
  9
$PLIMCHECK
 70
     0
  9
$PEXTMIN
 10
1.0000000000000000E+20
 20
1.0000000000000000E+20
 30
1.0000000000000000E+20
  9
$PEXTMAX
 10
-1.0000000000000000E+20
 20
-1.0000000000000000E+20
 30
-1.0000000000000000E+20
  9
$PLIMMIN
 10
0.0
 20
0.0
  9
$PLIMMAX
 10
12.0
 20
9.0
  9
$UNITMODE
 70
     0
  9
$VISRETAIN
 70
     1
  9
$PLINEGEN
 70
     0
  9
$PSLTSCALE
 70
     1
  0
ENDSEC
  0
SECTION
  2
TABLES
  0
TABLE
  2
VPORT
 70
     1
  0
VPORT
  2
*ACTIVE
 70
     0
 10
0.0
 20
0.0
 11
1.0
 21
1.0
 12
1058.8800085306650089
 22
-2.1981349393318652
 13
0.0
 23
0.0
 14
1.0
 24
1.0
 15
0.0
 25
0.0
 16
0.0
 26
0.0
 36
63.7428098394932476
 17
3065.0238037109379547
 27
193.9024792926558121
 37
0.0
 40
2.0734840954785319
 41
2.1655172413793098
 42
50.0
 43
0.0
 44
0.0
 50
0.0
 51
0.0
 71
     0
 72
   100
 73
     1
 74
     1
 75
     0
 76
     0
 77
     0
 78
     0
  0
ENDTAB
  0
TABLE
  2
LTYPE
 70
     2
  0
LTYPE
  2
CONTINUOUS
 70
     0
  3
Solid line
 72
    65
 73
     0
 40
0.0
  0
LTYPE
  2
PHANTOM2
 70
     0
  3
___ _ _ ___ _ _ ___ _ _ ___ _ _
 72
    65
 73
     6
 40
1.25
 49
0.625
 49
-0.125
 49
0.125
 49
-0.125
 49
0.125
 49
-0.125
  0
ENDTAB
  0
TABLE
  2
LAYER
 70
     2
  0
LAYER
  2
0
 70
     0
 62
   255
  6
CONTINUOUS
  0
LAYER
  2
DEFPOINTS
 70
     0
 62
     7
  6
CONTINUOUS
  0
ENDTAB
  0
TABLE
  2
STYLE
 70
     2
  0
STYLE
  2
STANDARD
 70
     0
 40
0.0
 41
0.8
 50
0.0
 71
     0
 42
0.2
  3
txt
  4

  0
STYLE
  2
ANNOTATIVE
 70
     0
 40
0.0
 41
1.0
 50
0.0
 71
     0
 42
0.2
  3
txt
  4

  0
ENDTAB
  0
TABLE
  2
VIEW
 70
     0
  0
ENDTAB
  0
TABLE
  2
UCS
 70
     0
  0
ENDTAB
  0
TABLE
  2
APPID
 70
    10
  0
APPID
  2
ACAD
 70
     0
  0
APPID
  2
ACADANNOTATIVE
 70
     0
  0
APPID
  2
ACAD_MLEADERVER
 70
     0
  0
APPID
  2
ACAD_EXEMPT_FROM_CAD_STANDARDS
 70
     0
  0
APPID
  2
ACAD_NAV_VCDISPLAY
 70
     0
  0
APPID
  2
ACAECLAYERSTANDARD
 70
     0
  0
APPID
  2
ACCMTRANSPARENCY
 70
     0
  0
APPID
  2
ACAD_DSTYLE_DIMJAG
 70
     0
  0
APPID
  2
ACAD_DSTYLE_DIMTALN
 70
     0
  0
APPID
  2
ACDBATTR
 70
     0
  0
ENDTAB
  0
TABLE
  2
DIMSTYLE
 70
     2
  0
DIMSTYLE
  2
STANDARD
 70
     0
  3

  4

  5

  6

  7

 40
1.0
 41
0.1875
 42
0.0625
 43
0.38
 44
0.125
 45
0.0
 46
0.0
 47
0.01
 48
0.01
140
0.15625
141
0.09
142
0.0
143
25.3999999999999986
144
1.0
145
0.0
146
1.0
147
0.09
 71
     1
 72
     0
 73
     1
 74
     1
 75
     0
 76
     0
 77
     0
 78
     4
170
     0
171
     2
172
     0
173
     0
174
     0
175
     0
176
     0
177
     0
178
     0
  0
DIMSTYLE
  2
ANNOTATIVE
 70
     0
  3

  4

  5

  6

  7

 40
1.0
 41
0.18
 42
0.0625
 43
0.38
 44
0.18
 45
0.0
 46
0.0
 47
0.0
 48
0.0
140
0.18
141
0.09
142
0.0
143
25.3999999999999986
144
1.0
145
0.0
146
1.0
147
0.09
 71
     0
 72
     0
 73
     1
 74
     1
 75
     0
 76
     0
 77
     0
 78
     0
170
     0
171
     2
172
     0
173
     0
174
     0
175
     0
176
     0
177
     0
178
     0
  0
ENDTAB
  0
ENDSEC
  0
SECTION
  2
BLOCKS
  0
BLOCK
  8
0
  2
$MODEL_SPACE
 70
     0
 10
0.0
 20
0.0
 30
0.0
  3
$MODEL_SPACE
  1

  0
ENDBLK
  5
10C7F
  8
0
  0
BLOCK
 67
     1
  8
0
  2
$PAPER_SPACE
 70
     0
 10
0.0
 20
0.0
 30
0.0
  3
$PAPER_SPACE
  1

  0
ENDBLK
  5
10C7B
 67
     1
  8
0
  0
BLOCK
  8
0
  2
_FILLED
 70
     0
 10
0.0
 20
0.0
 30
0.0
  3
_FILLED
  1

  0
SOLID
  5
9977
  8
0
  6
BYBLOCK
 62
     0
 10
0.0
 20
0.0
 30
0.0
 11
-1.0
 21
0.1666666667
 31
0.0
 12
-1.0
 22
-0.1666666667
 32
0.0
 13
-1.0
 23
-0.1666666667
 33
0.0
  0
ENDBLK
  5
9978
  8
0
  6
BYBLOCK
 62
     0
  0
ENDSEC
  0
SECTION
  2
ENTITIES
  0
ATTDEF
  5
C5C4
  8
0
 10
4125.596930424088896
 20
191.7057648751822967
 30
0.0
 40
0.001
  1
P30595-00
  3

  2
MODELNUMBER
 70
     0
1001
ACDBATTR
1070
     0
1070
     1
  0
ATTDEF
  5
C5C5
  8
0
 10
4125.596930424088896
 20
191.7040982085156884
 30
0.0
 40
0.001
  1
KALLISTA
  3

  2
BRANDNAME
 70
     0
1001
ACDBATTR
1070
     0
1070
     1
  0
ATTDEF
  5
C5C6
  8
0
 10
4125.596930424088896
 20
191.7024315418489948
 30
0.0
 40
0.001
  1
TOILET PAPER HOLDER
  3

  2
PRODUCT
 70
     0
1001
ACDBATTR
1070
     0
1070
     1
  0
LINE
  5
11CB9
  8
0
 10
4122.20002786484838
 20
191.5083443561238994
 30
0.0
 11
4122.20002786484838
 21
192.6783443561238869
 31
0.0
  0
LINE
  5
11CBA
  8
0
 10
4122.6724678648470217
 20
191.5083443561238994
 30
0.0
 11
4122.6724678648470217
 21
192.6783443561238869
 31
0.0
  0
LINE
  5
11CBB
  8
0
 10
4122.2400278648483436
 20
192.7183443561239073
 30
0.0
 11
4122.6324678648479676
 21
192.7183443561239073
 31
0.0
  0
ARC
  5
11CBC
  8
0
 10
4122.6324683372467916
 20
191.5081238837238971
 30
0.0
 40
0.04
 50
270.000000000208388
 51
0.0
  0
ARC
  5
11CBD
  8
0
 10
4122.2400278648483436
 20
192.6783443561238869
 30
0.0
 40
0.04
 50
90.0
 51
180.0
  0
ARC
  5
11CBE
  8
0
 10
4122.6324678648479676
 20
192.6783443561238869
 30
0.0
 40
0.04
 50
0.0
 51
90.0
  0
LINE
  5
11CBF
  8
0
  6
CONTINUOUS
 10
4125.2403769258471584
 20
190.6746964770239003
 30
0.0
 11
4125.5602021197482827
 21
190.6774875492239971
 31
0.0
  0
LINE
  5
11CC0
  8
0
  6
CONTINUOUS
 10
4122.2400273924467911
 20
191.468123883723905
 30
0.0
 11
4125.1800278648479434
 21
191.468123883723905
 31
0.0
  0
LINE
  5
11CC1
  8
0
  6
CONTINUOUS
 10
4122.6724678648470217
 20
191.9405648286239057
 30
0.0
 11
4125.1800278648479434
 21
191.9405648286239057
 31
0.0
  0
LINE
  5
11CC2
  8
0
  6
CONTINUOUS
 10
4125.464892386647989
 20
192.7320329185239132
 30
0.0
 11
4125.2403769258471584
 21
192.7339922352238943
 31
0.0
  0
LINE
  5
11CC3
  8
0
  6
CONTINUOUS
 10
4125.20002786484838
 20
190.7146949540239973
 30
0.0
 11
4125.20002786484838
 21
192.6939937583238986
 31
0.0
  0
LINE
  5
11CC4
  8
0
 10
4125.4842891186481211
 20
192.6320367262239017
 30
0.0
 11
4125.4842891186481211
 21
190.7766519846238964
 31
0.0
  0
LINE
  5
11CC5
  8
0
  6
CONTINUOUS
 10
4125.5800278648475796
 20
190.7701752675239106
 30
0.0
 11
4125.5800278648475796
 21
190.6974871322238982
 31
0.0
  0
LINE
  5
11CC6
  8
0
  6
CONTINUOUS
 10
4125.6000278648471067
 20
190.8048164008239098
 30
0.0
 11
4125.6000278648471067
 21
192.603872328323888
 31
0.0
  0
ARC
  5
11CC7
  8
0
  6
CONTINUOUS
 10
4122.2400273924467911
 20
191.5081238837238971
 30
0.0
 40
0.04
 50
179.9999999999006093
 51
269.999999999687418
  0
ARC
  5
11CC8
  8
0
  6
CONTINUOUS
 10
4125.5997595718481534
 20
190.6682343561238895
 30
0.0
 40
0.118
 50
98.2204128115013759
 51
168.1149620342000901
  0
ARC
  5
11CC9
  8
0
  6
CONTINUOUS
 10
4125.240027917648149
 20
190.7146951389239007
 30
0.0
 40
0.0399999573
 50
180.0002648362003015
 51
270.499921424994227
  0
ARC
  5
11CCA
  8
0
  6
CONTINUOUS
 10
4125.5800278648475796
 20
190.8048164184239965
 30
0.0
 40
0.02
 50
278.2211441074783806
 51
0.0
  0
ARC
  5
11CCB
  8
0
  6
CONTINUOUS
 10
4125.4647178554469065
 20
190.6966550322239016
 30
0.0
 40
0.02
 50
270.5000710063192741
 51
348.1150630516033857
  0
ARC
  5
11CCC
  8
0
  6
CONTINUOUS
 10
4125.1800278648479434
 20
191.4881238837238868
 30
0.0
 40
0.02
 50
270.000000000104194
 51
0.0
  0
ARC
  5
11CCD
  8
0
  6
CONTINUOUS
 10
4125.5600275591468744
 20
190.6974871323238858
 30
0.0
 40
0.0199999763
 50
270.5001351392838842
 51
359.9990612592998787
  0
ARC
  5
11CCE
  8
0
  6
CONTINUOUS
 10
4125.5997595718481534
 20
192.7404543561239052
 30
0.0
 40
0.118
 50
191.8849369485986074
 51
261.7793431973793759
  0
ARC
  5
11CCF
  8
0
  6
CONTINUOUS
 10
4125.2400279520479671
 20
192.6939935621238931
 30
0.0
 40
0.0399999629
 50
89.5001279115976729
 51
179.9997189837006033
  0
ARC
  5
11CD0
  8
0
  6
CONTINUOUS
 10
4125.4647178554469065
 20
192.7120336800238931
 30
0.0
 40
0.02
 50
11.88493694839668
 51
89.4999984791922856
  0
ARC
  5
11CD1
  8
0
  6
CONTINUOUS
 10
4125.5800278648475796
 20
192.6038722938239118
 30
0.0
 40
0.02
 50
0.0
 51
81.7802954203194048
  0
ARC
  5
11CD2
  8
0
  6
CONTINUOUS
 10
4125.1800278648479434
 20
191.9205648286238954
 30
0.0
 40
0.02
 50
0.0
 51
89.9999999998957776
  0
ARC
  5
11CD3
  8
0
 10
4125.4624451972686074
 20
192.6920356249239887
 30
0.0
 40
0.0277686393868383
 50
343.3205156788152976
 51
16.673804187690461
  0
ARC
  5
11CD4
  8
0
 10
4125.6150350210446049
 20
192.6463160325614865
 30
0.0
 40
0.1315233423515947
 50
163.3205156788152976
 51
186.2328087301731045
  0
ARC
  5
11CD5
  8
0
 10
4125.728829479401611
 20
190.7727794176724103
 30
0.0
 40
0.2445710220122459
 50
179.0927338279882974
 51
191.3554339837691884
  0
ARC
  5
11CD6
  8
0
 10
4125.4637107968619603
 20
190.7168411684334899
 30
0.0
 40
0.0265038976376168
 50
342.912378208974701
 51
17.0779976003538714
  0
ARC
  5
11CD7
  8
0
 10
4125.6000275658971077
 20
190.7701752781352127
 30
0.0
 40
0.0199997010490549
 50
120.1682079685350999
 51
180.0000303993707007
  0
ENDSEC
  0
EOF
