  0
SECTION
  2
HEADER
  9
$ACADVER
  1
AC1009
  9
$INSBASE
 10
4316.9736902404047214
 20
585.8780235185672609
 30
0.0
  9
$EXTMIN
 10
4315.9413857370236656
 20
584.8457190151856366
 30
0.0
  9
$EXTMAX
 10
4318.0059947437866867
 20
586.946756074597829
 30
0.0
  9
$LIMMIN
 10
0.0
 20
0.0
  9
$LIMMAX
 10
11.6929133858000007
 20
8.2677165353999982
  9
$ORTHOMODE
 70
     0
  9
$REGENMODE
 70
     1
  9
$FILLMODE
 70
     1
  9
$QTEXTMODE
 70
     0
  9
$MIRRTEXT
 70
     0
  9
$DRAGMODE
 70
     2
  9
$LTSCALE
 40
0.6431102362
  9
$OSMODE
 70
    19
  9
$ATTMODE
 70
     1
  9
$TEXTSIZE
 40
0.2
  9
$TRACEWID
 40
0.05
  9
$TEXTSTYLE
  7
STANDARD
  9
$CLAYER
  8
0
  9
$CELTYPE
  6
BYLAYER
  9
$CECOLOR
 62
   256
  9
$DIMSCALE
 40
1.0
  9
$DIMASZ
 40
0.1875
  9
$DIMEXO
 40
0.0625
  9
$DIMDLI
 40
0.4443307087
  9
$DIMRND
 40
0.0
  9
$DIMDLE
 40
0.0
  9
$DIMEXE
 40
0.125
  9
$DIMTP
 40
0.01
  9
$DIMTM
 40
0.01
  9
$DIMTXT
 40
2.0
  9
$DIMCEN
 40
0.1052362205
  9
$DIMTSZ
 40
0.0
  9
$DIMTOL
 70
     1
  9
$DIMLIM
 70
     0
  9
$DIMTIH
 70
     1
  9
$DIMTOH
 70
     1
  9
$DIMSE1
 70
     0
  9
$DIMSE2
 70
     0
  9
$DIMTAD
 70
     0
  9
$DIMZIN
 70
     0
  9
$DIMBLK
  1

  9
$DIMASO
 70
     1
  9
$DIMSHO
 70
     1
  9
$DIMPOST
  1
\X
  9
$DIMAPOST
  1

  9
$DIMALT
 70
     1
  9
$DIMALTD
 70
     2
  9
$DIMALTF
 40
25.3999999999999986
  9
$DIMLFAC
 40
1.0
  9
$DIMTOFL
 70
     0
  9
$DIMTVP
 40
0.0
  9
$DIMTIX
 70
     0
  9
$DIMSOXD
 70
     0
  9
$DIMSAH
 70
     0
  9
$DIMBLK1
  1

  9
$DIMBLK2
  1

  9
$DIMSTYLE
  2
STANDARD
  9
$DIMCLRD
 70
     0
  9
$DIMCLRE
 70
     0
  9
$DIMCLRT
 70
     0
  9
$DIMTFAC
 40
1.0
  9
$DIMGAP
 40
0.09
  9
$LUNITS
 70
     2
  9
$LUPREC
 70
     4
  9
$SKETCHINC
 40
0.1
  9
$FILLETRAD
 40
0.0
  9
$AUNITS
 70
     0
  9
$AUPREC
 70
     0
  9
$MENU
  1
.
  9
$ELEVATION
 40
0.0
  9
$PELEVATION
 40
0.0
  9
$THICKNESS
 40
0.0
  9
$LIMCHECK
 70
     0
  9
$BLIPMODE
 70
     0
  9
$CHAMFERA
 40
0.0
  9
$CHAMFERB
 40
0.0
  9
$SKPOLY
 70
     0
  9
$TDCREATE
 40
2458060.468368056230247
  9
$TDUPDATE
 40
2459695.4979976848699152
  9
$TDINDWG
 40
4.6885950231000004
  9
$TDUSRTIMER
 40
4.6885950231000004
  9
$USRTIMER
 70
     1
  9
$ANGBASE
 50
0.0
  9
$ANGDIR
 70
     0
  9
$PDMODE
 70
     0
  9
$PDSIZE
 40
0.3125
  9
$PLINEWID
 40
0.0
  9
$COORDS
 70
     1
  9
$SPLFRAME
 70
     0
  9
$SPLINETYPE
 70
     6
  9
$SPLINESEGS
 70
     8
  9
$ATTDIA
 70
     1
  9
$ATTREQ
 70
     1
  9
$HANDLING
 70
     1
  9
$HANDSEED
  5
2428E
  9
$SURFTAB1
 70
     6
  9
$SURFTAB2
 70
     6
  9
$SURFTYPE
 70
     6
  9
$SURFU
 70
     6
  9
$SURFV
 70
     6
  9
$UCSNAME
  2

  9
$UCSORG
 10
0.0
 20
0.0
 30
0.0
  9
$UCSXDIR
 10
1.0
 20
0.0
 30
0.0
  9
$UCSYDIR
 10
0.0
 20
1.0
 30
0.0
  9
$PUCSNAME
  2

  9
$PUCSORG
 10
0.0
 20
0.0
 30
0.0
  9
$PUCSXDIR
 10
1.0
 20
0.0
 30
0.0
  9
$PUCSYDIR
 10
0.0
 20
1.0
 30
0.0
  9
$USERI1
 70
     0
  9
$USERI2
 70
     0
  9
$USERI3
 70
     0
  9
$USERI4
 70
     0
  9
$USERI5
 70
     0
  9
$USERR1
 40
0.0
  9
$USERR2
 40
0.0
  9
$USERR3
 40
0.0
  9
$USERR4
 40
0.0
  9
$USERR5
 40
0.0
  9
$WORLDVIEW
 70
     1
  9
$SHADEDGE
 70
     3
  9
$SHADEDIF
 70
    70
  9
$TILEMODE
 70
     1
  9
$MAXACTVP
 70
    64
  9
$PLIMCHECK
 70
     0
  9
$PEXTMIN
 10
1.0000000000000000E+20
 20
1.0000000000000000E+20
 30
1.0000000000000000E+20
  9
$PEXTMAX
 10
-1.0000000000000000E+20
 20
-1.0000000000000000E+20
 30
-1.0000000000000000E+20
  9
$PLIMMIN
 10
0.0
 20
0.0
  9
$PLIMMAX
 10
12.0
 20
9.0
  9
$UNITMODE
 70
     0
  9
$VISRETAIN
 70
     1
  9
$PLINEGEN
 70
     0
  9
$PSLTSCALE
 70
     1
  0
ENDSEC
  0
SECTION
  2
TABLES
  0
TABLE
  2
VPORT
 70
     1
  0
VPORT
  2
*ACTIVE
 70
     0
 10
0.0
 20
0.0
 11
1.0
 21
1.0
 12
80.5422937560301762
 22
-12.8323733683915808
 13
0.0
 23
0.0
 14
1.0
 24
1.0
 15
0.0
 25
0.0
 16
0.0
 26
0.0
 36
98.7941898181710343
 17
4236.431396484375
 27
598.728610913283319
 37
0.0
 40
2.114195955400159
 41
1.6896551724137929
 42
50.0
 43
0.0
 44
0.0
 50
0.0
 51
0.0
 71
     0
 72
   100
 73
     1
 74
     1
 75
     0
 76
     0
 77
     0
 78
     0
  0
ENDTAB
  0
TABLE
  2
LTYPE
 70
     2
  0
LTYPE
  2
CONTINUOUS
 70
     0
  3
Solid line
 72
    65
 73
     0
 40
0.0
  0
LTYPE
  2
PHANTOM2
 70
     0
  3
___ _ _ ___ _ _ ___ _ _ ___ _ _
 72
    65
 73
     6
 40
1.25
 49
0.625
 49
-0.125
 49
0.125
 49
-0.125
 49
0.125
 49
-0.125
  0
ENDTAB
  0
TABLE
  2
LAYER
 70
     2
  0
LAYER
  2
0
 70
     0
 62
   255
  6
CONTINUOUS
  0
LAYER
  2
DEFPOINTS
 70
     0
 62
     7
  6
CONTINUOUS
  0
ENDTAB
  0
TABLE
  2
STYLE
 70
     1
  0
STYLE
  2
STANDARD
 70
     0
 40
0.0
 41
0.8
 50
0.0
 71
     0
 42
0.2
  3
txt
  4

  0
ENDTAB
  0
TABLE
  2
VIEW
 70
     0
  0
ENDTAB
  0
TABLE
  2
UCS
 70
     0
  0
ENDTAB
  0
TABLE
  2
APPID
 70
    10
  0
APPID
  2
ACAD
 70
     0
  0
APPID
  2
ACAD_MLEADERVER
 70
     0
  0
APPID
  2
ACAD_EXEMPT_FROM_CAD_STANDARDS
 70
     0
  0
APPID
  2
ACAD_NAV_VCDISPLAY
 70
     0
  0
APPID
  2
ACAECLAYERSTANDARD
 70
     0
  0
APPID
  2
ACCMTRANSPARENCY
 70
     0
  0
APPID
  2
ACAD_DSTYLE_DIMJAG
 70
     0
  0
APPID
  2
ACAD_DSTYLE_DIMTALN
 70
     0
  0
APPID
  2
ACDBATTR
 70
     0
  0
APPID
  2
DCO15
 70
     0
  0
ENDTAB
  0
TABLE
  2
DIMSTYLE
 70
     1
  0
DIMSTYLE
  2
STANDARD
 70
     0
  3

  4

  5

  6

  7

 40
1.0
 41
0.1875
 42
0.0625
 43
0.38
 44
0.125
 45
0.0
 46
0.0
 47
0.01
 48
0.01
140
0.15625
141
0.09
142
0.0
143
25.3999999999999986
144
1.0
145
0.0
146
1.0
147
0.09
 71
     1
 72
     0
 73
     1
 74
     1
 75
     0
 76
     0
 77
     0
 78
     4
170
     0
171
     2
172
     0
173
     0
174
     0
175
     0
176
     0
177
     0
178
     0
  0
ENDTAB
  0
ENDSEC
  0
SECTION
  2
BLOCKS
  0
BLOCK
  8
0
  2
$MODEL_SPACE
 70
     0
 10
0.0
 20
0.0
 30
0.0
  3
$MODEL_SPACE
  1

  0
ENDBLK
  5
21
  8
0
  0
BLOCK
 67
     1
  8
0
  2
$PAPER_SPACE
 70
     0
 10
0.0
 20
0.0
 30
0.0
  3
$PAPER_SPACE
  1

  0
ENDBLK
  5
1D
 67
     1
  8
0
  0
ENDSEC
  0
SECTION
  2
ENTITIES
  0
ATTDEF
  5
3930
  8
DEFPOINTS
 10
4316.9738685397278459
 20
585.8815678345690685
 30
0.0
 40
0.001
  1
P30681-00
  3

  2
MODELNUMBER
 70
     0
1001
ACDBATTR
1070
     0
1070
     1
  0
ATTDEF
  5
3931
  8
DEFPOINTS
 10
4316.9738685397278459
 20
585.879901167902517
 30
0.0
 40
0.001
  1
KLYNE
  3

  2
TRADENAME
 70
     0
1001
ACDBATTR
1070
     0
1070
     1
  0
ATTDEF
  5
3932
  8
DEFPOINTS
 10
4316.9738685397278459
 20
585.8782345012358519
 30
0.0
 40
0.001
  1
ROBE HOOK
  3

  2
PRODUCT
 70
     0
1001
ACDBATTR
1070
     0
1070
     1
  0
LINE
  5
241A4
  8
0
 10
4317.516470715797368
 20
586.527526626808708
 30
0.0
 11
4317.4641350022448023
 21
586.527526626808708
 31
0.0
  0
LINE
  5
241A5
  8
0
 10
4316.483245478567369
 20
586.527526626808708
 30
0.0
 11
4316.4309097650129843
 21
586.527526626808708
 31
0.0
  0
LINE
  5
241A7
  8
0
 10
4316.041083619523306
 20
586.9103280219486578
 30
0.0
 11
4316.4803159804196184
 21
586.9103280219486578
 31
0.0
  0
LINE
  5
241A8
  8
0
 10
4317.4670645003898244
 20
586.9103280219486578
 30
0.0
 11
4317.9062968612888653
 21
586.9103280219486578
 31
0.0
  0
LINE
  5
241A9
  8
0
 10
4316.041083619523306
 20
584.8457190151856366
 30
0.0
 11
4317.9062968612888653
 21
584.8457190151856366
 31
0.0
  0
LINE
  5
241AA
  8
0
 10
4315.9413857370236656
 20
586.8106270405530722
 30
0.0
 11
4315.9413857370236656
 21
584.9454199965812222
 31
0.0
  0
LINE
  5
241AB
  8
0
 10
4318.0059947437866867
 20
586.8106270405530722
 30
0.0
 11
4318.0059947437866867
 21
584.9454199965812222
 31
0.0
  0
ARC
  5
241AC
  8
0
 10
4316.0412347092878917
 20
586.8104790543318359
 30
0.0
 40
0.099849081930094
 50
90.0866989369711462
 51
179.9150819532021899
  0
ARC
  5
241AD
  8
0
 10
4316.0412347092878917
 20
584.9455679828024586
 30
0.0
 40
0.099849081930094
 50
180.0849180467976964
 51
269.9133010630288823
  0
ARC
  5
241AE
  8
0
 10
4317.9061457715206416
 20
586.8104790543318359
 30
0.0
 40
0.099849081930094
 50
0.0849180467977145
 51
89.9133010630288538
  0
ARC
  5
241AF
  8
0
 10
4317.9061457715206416
 20
584.9455679828024586
 30
0.0
 40
0.099849081930094
 50
270.0866989369711177
 51
359.9150819532022751
  0
LINE
  5
241B0
  8
0
 10
4317.4272237819159272
 20
586.946756074597829
 30
0.0
 11
4316.5201566988889681
 21
586.946756074597829
 31
0.0
  0
LINE
  5
241B1
  8
0
 10
4316.4395442815166462
 20
585.2360547703796101
 30
0.0
 11
4317.5078361992918872
 21
585.2360547703796101
 31
0.0
  0
LINE
  5
241B2
  8
0
 10
4316.5391811082090499
 20
585.7351429506397835
 30
0.0
 11
4317.408199372598574
 21
585.7351429506397835
 31
0.0
  0
ARC
  5
241B3
  8
0
 10
4316.4315734169049392
 20
586.4874420628068492
 30
0.0
 40
0.0400900574339754
 50
90.9485192044251676
 51
180.3785689589167021
  0
LINE
  5
241B4
  8
0
 10
4316.3914842345548095
 20
586.4871771787087482
 30
0.0
 11
4316.4020746480546222
 21
585.2763040051087273
 31
0.0
  0
ARC
  5
241B5
  8
0
 10
4316.4423918062311714
 20
585.2762712585248437
 30
0.0
 40
0.0403171714748757
 50
179.9534629741795868
 51
265.9499367283571019
  0
LINE
  5
241B6
  8
0
 10
4316.4801575163546659
 20
586.9064294271087192
 30
0.0
 11
4316.4878117905564068
 21
585.9672255993086765
 31
0.0
  0
ARC
  5
241B7
  8
0
 10
4314.8733043073907538
 20
585.9596603122278111
 30
0.0
 40
1.6145252078438801
 50
357.8059808322980189
 51
0.2684755893864569
  0
ARC
  5
241B8
  8
0
 10
4316.0164168519640953
 20
585.9174972432961113
 30
0.0
 40
0.4706393318432422
 50
353.0049490564977077
 51
357.6075206140579894
  0
LINE
  5
241B9
  8
0
 10
4316.4835530621548969
 20
585.8601810867087352
 30
0.0
 11
4316.3999633499306583
 21
585.5177029137558975
 31
0.0
  0
LINE
  5
241BA
  8
0
 10
4316.4878117905564068
 20
585.9672255993086765
 30
0.0
 11
4316.4992706109551364
 21
585.772835934108798
 31
0.0
  0
ARC
  5
241BB
  8
0
 10
4316.5392110211296313
 20
585.7751503498349166
 30
0.0
 40
0.0400074103776662
 50
183.3163938010067113
 51
269.9571608277532277
  0
LINE
  5
241BC
  8
0
 10
4316.5117410933389692
 20
585.7460643402718006
 30
0.0
 11
4316.4128825248717476
 21
585.2487998801572076
 31
0.0
  0
ARC
  5
241BD
  8
0
 10
4317.5158070639054131
 20
586.4874420628068492
 30
0.0
 40
0.0400900574339754
 50
359.6214310410833264
 51
89.0514807955748182
  0
LINE
  5
241BE
  8
0
 10
4317.5558962462546333
 20
586.4871771787087482
 30
0.0
 11
4317.5453058327548206
 21
585.2763040051087273
 31
0.0
  0
ARC
  5
241BF
  8
0
 10
4317.504988674579181
 20
585.2762712585248437
 30
0.0
 40
0.0403171714748757
 50
274.0500632716427845
 51
0.0465370258203879
  0
ARC
  5
241C0
  8
0
 10
4317.4272237819222937
 20
586.9067555625051682
 30
0.0
 40
0.0400005120925322
 50
359.5328462604729793
 51
90.0000000080770661
  0
LINE
  5
241C1
  8
0
 10
4317.467222964454777
 20
586.9064294271087192
 30
0.0
 11
4317.4595686902557645
 21
585.9672255993086765
 31
0.0
  0
ARC
  5
241C2
  8
0
 10
4319.0740761734195985
 20
585.9596603122278111
 30
0.0
 40
1.6145252078438801
 50
179.7315244106135026
 51
182.1940191677020096
  0
ARC
  5
241C3
  8
0
 10
4317.9309636288462571
 20
585.9174972432961113
 30
0.0
 40
0.4706393318432422
 50
182.3924793859420106
 51
186.995050943502207
  0
LINE
  5
241C4
  8
0
 10
4317.4638274186545459
 20
585.8601810867087352
 30
0.0
 11
4317.5474171308806035
 21
585.5177029137558975
 31
0.0
  0
LINE
  5
241C5
  8
0
 10
4317.4595686902557645
 20
585.9672255993086765
 30
0.0
 11
4317.4481098698552159
 21
585.772835934108798
 31
0.0
  0
ARC
  5
241C6
  8
0
 10
4317.4081694596798116
 20
585.7751503498349166
 30
0.0
 40
0.0400074103776662
 50
270.0428391722467723
 51
356.6836061989932887
  0
LINE
  5
241C7
  8
0
 10
4317.4356393874695641
 20
585.7460643402718006
 30
0.0
 11
4317.5344979559376952
 21
585.2487998801572076
 31
0.0
  0
ARC
  5
241C8
  8
0
 10
4316.5201566988889681
 20
586.9067555625051682
 30
0.0
 40
0.0400005120925322
 50
89.9999999919229197
 51
180.4671537395269922
  0
VIEWPORT
  5
7BC8
 67
     1
  8
0
 10
8.4975296442687753
 20
4.5
 30
0.0
 40
16.9950592885375507
 41
9.0
 68
     1
 69
     1
1001
ACAD
1000
MVIEW
1002
{
1070
    16
1010
0.0
1020
0.0
1030
0.0
1010
0.0
1020
0.0
1030
1.0
1040
0.0
1040
9.0
1040
8.4975296442687753
1040
4.5
1040
50.0
1040
0.0
1040
0.0
1070
     0
1070
   100
1070
     1
1070
     1
1070
     0
1070
     0
1070
     0
1070
     0
1040
0.0
1040
0.0
1040
0.0
1040
1.0
1040
1.0
1040
0.0
1040
0.0
1070
     0
1002
{
1002
}
1002
}
  0
ENDSEC
  0
EOF
