  0
SECTION
  2
HEADER
  9
$ACADVER
  1
AC1009
  9
$INSBASE
 10
4314.5689171917993008
 20
589.4803579779684242
 30
0.0
  9
$EXTMIN
 10
4312.5722962800227833
 20
588.4472140560623075
 30
0.0
  9
$EXTMAX
 10
4314.5797591718255717
 20
590.5490905339988785
 30
0.0
  9
$LIMMIN
 10
0.0
 20
0.0
  9
$LIMMAX
 10
11.6929133858000007
 20
8.2677165353999982
  9
$ORTHOMODE
 70
     0
  9
$REGENMODE
 70
     1
  9
$FILLMODE
 70
     1
  9
$QTEXTMODE
 70
     0
  9
$MIRRTEXT
 70
     0
  9
$DRAGMODE
 70
     2
  9
$LTSCALE
 40
0.6431102362
  9
$OSMODE
 70
    19
  9
$ATTMODE
 70
     1
  9
$TEXTSIZE
 40
0.2
  9
$TRACEWID
 40
0.05
  9
$TEXTSTYLE
  7
STANDARD
  9
$CLAYER
  8
0
  9
$CELTYPE
  6
BYLAYER
  9
$CECOLOR
 62
   256
  9
$DIMSCALE
 40
1.0
  9
$DIMASZ
 40
0.1875
  9
$DIMEXO
 40
0.0625
  9
$DIMDLI
 40
0.4443307087
  9
$DIMRND
 40
0.0
  9
$DIMDLE
 40
0.0
  9
$DIMEXE
 40
0.125
  9
$DIMTP
 40
0.01
  9
$DIMTM
 40
0.01
  9
$DIMTXT
 40
2.0
  9
$DIMCEN
 40
0.1052362205
  9
$DIMTSZ
 40
0.0
  9
$DIMTOL
 70
     1
  9
$DIMLIM
 70
     0
  9
$DIMTIH
 70
     1
  9
$DIMTOH
 70
     1
  9
$DIMSE1
 70
     0
  9
$DIMSE2
 70
     0
  9
$DIMTAD
 70
     0
  9
$DIMZIN
 70
     0
  9
$DIMBLK
  1

  9
$DIMASO
 70
     1
  9
$DIMSHO
 70
     1
  9
$DIMPOST
  1
\X
  9
$DIMAPOST
  1

  9
$DIMALT
 70
     1
  9
$DIMALTD
 70
     2
  9
$DIMALTF
 40
25.3999999999999986
  9
$DIMLFAC
 40
1.0
  9
$DIMTOFL
 70
     0
  9
$DIMTVP
 40
0.0
  9
$DIMTIX
 70
     0
  9
$DIMSOXD
 70
     0
  9
$DIMSAH
 70
     0
  9
$DIMBLK1
  1

  9
$DIMBLK2
  1

  9
$DIMSTYLE
  2
STANDARD
  9
$DIMCLRD
 70
     0
  9
$DIMCLRE
 70
     0
  9
$DIMCLRT
 70
     0
  9
$DIMTFAC
 40
1.0
  9
$DIMGAP
 40
0.09
  9
$LUNITS
 70
     2
  9
$LUPREC
 70
     4
  9
$SKETCHINC
 40
0.1
  9
$FILLETRAD
 40
0.0
  9
$AUNITS
 70
     0
  9
$AUPREC
 70
     0
  9
$MENU
  1
.
  9
$ELEVATION
 40
0.0
  9
$PELEVATION
 40
0.0
  9
$THICKNESS
 40
0.0
  9
$LIMCHECK
 70
     0
  9
$BLIPMODE
 70
     0
  9
$CHAMFERA
 40
0.0
  9
$CHAMFERB
 40
0.0
  9
$SKPOLY
 70
     0
  9
$TDCREATE
 40
2458060.468368056230247
  9
$TDUPDATE
 40
2459695.5006249998696148
  9
$TDINDWG
 40
4.6912802083000003
  9
$TDUSRTIMER
 40
4.6912802083000003
  9
$USRTIMER
 70
     1
  9
$ANGBASE
 50
0.0
  9
$ANGDIR
 70
     0
  9
$PDMODE
 70
     0
  9
$PDSIZE
 40
0.3125
  9
$PLINEWID
 40
0.0
  9
$COORDS
 70
     1
  9
$SPLFRAME
 70
     0
  9
$SPLINETYPE
 70
     6
  9
$SPLINESEGS
 70
     8
  9
$ATTDIA
 70
     1
  9
$ATTREQ
 70
     1
  9
$HANDLING
 70
     1
  9
$HANDSEED
  5
243FE
  9
$SURFTAB1
 70
     6
  9
$SURFTAB2
 70
     6
  9
$SURFTYPE
 70
     6
  9
$SURFU
 70
     6
  9
$SURFV
 70
     6
  9
$UCSNAME
  2

  9
$UCSORG
 10
0.0
 20
0.0
 30
0.0
  9
$UCSXDIR
 10
1.0
 20
0.0
 30
0.0
  9
$UCSYDIR
 10
0.0
 20
1.0
 30
0.0
  9
$PUCSNAME
  2

  9
$PUCSORG
 10
0.0
 20
0.0
 30
0.0
  9
$PUCSXDIR
 10
1.0
 20
0.0
 30
0.0
  9
$PUCSYDIR
 10
0.0
 20
1.0
 30
0.0
  9
$USERI1
 70
     0
  9
$USERI2
 70
     0
  9
$USERI3
 70
     0
  9
$USERI4
 70
     0
  9
$USERI5
 70
     0
  9
$USERR1
 40
0.0
  9
$USERR2
 40
0.0
  9
$USERR3
 40
0.0
  9
$USERR4
 40
0.0
  9
$USERR5
 40
0.0
  9
$WORLDVIEW
 70
     1
  9
$SHADEDGE
 70
     3
  9
$SHADEDIF
 70
    70
  9
$TILEMODE
 70
     1
  9
$MAXACTVP
 70
    64
  9
$PLIMCHECK
 70
     0
  9
$PEXTMIN
 10
1.0000000000000000E+20
 20
1.0000000000000000E+20
 30
1.0000000000000000E+20
  9
$PEXTMAX
 10
-1.0000000000000000E+20
 20
-1.0000000000000000E+20
 30
-1.0000000000000000E+20
  9
$PLIMMIN
 10
0.0
 20
0.0
  9
$PLIMMAX
 10
12.0
 20
9.0
  9
$UNITMODE
 70
     0
  9
$VISRETAIN
 70
     1
  9
$PLINEGEN
 70
     0
  9
$PSLTSCALE
 70
     1
  0
ENDSEC
  0
SECTION
  2
TABLES
  0
TABLE
  2
VPORT
 70
     1
  0
VPORT
  2
*ACTIVE
 70
     0
 10
0.0
 20
0.0
 11
1.0
 21
1.0
 12
77.1446312415491633
 22
-9.2304586182526691
 13
0.0
 23
0.0
 14
1.0
 24
1.0
 15
0.0
 25
0.0
 16
0.0
 26
0.0
 36
98.7941898181710343
 17
4236.431396484375
 27
598.728610913283319
 37
0.0
 40
2.1150406312431791
 41
1.6896551724137929
 42
50.0
 43
0.0
 44
0.0
 50
0.0
 51
0.0
 71
     0
 72
   100
 73
     1
 74
     1
 75
     0
 76
     0
 77
     0
 78
     0
  0
ENDTAB
  0
TABLE
  2
LTYPE
 70
     2
  0
LTYPE
  2
CONTINUOUS
 70
     0
  3
Solid line
 72
    65
 73
     0
 40
0.0
  0
LTYPE
  2
PHANTOM2
 70
     0
  3
___ _ _ ___ _ _ ___ _ _ ___ _ _
 72
    65
 73
     6
 40
1.25
 49
0.625
 49
-0.125
 49
0.125
 49
-0.125
 49
0.125
 49
-0.125
  0
ENDTAB
  0
TABLE
  2
LAYER
 70
     2
  0
LAYER
  2
0
 70
     0
 62
   255
  6
CONTINUOUS
  0
LAYER
  2
DEFPOINTS
 70
     0
 62
     7
  6
CONTINUOUS
  0
ENDTAB
  0
TABLE
  2
STYLE
 70
     1
  0
STYLE
  2
STANDARD
 70
     0
 40
0.0
 41
0.8
 50
0.0
 71
     0
 42
0.2
  3
txt
  4

  0
ENDTAB
  0
TABLE
  2
VIEW
 70
     0
  0
ENDTAB
  0
TABLE
  2
UCS
 70
     0
  0
ENDTAB
  0
TABLE
  2
APPID
 70
    10
  0
APPID
  2
ACAD
 70
     0
  0
APPID
  2
ACAD_MLEADERVER
 70
     0
  0
APPID
  2
ACAD_EXEMPT_FROM_CAD_STANDARDS
 70
     0
  0
APPID
  2
ACAD_NAV_VCDISPLAY
 70
     0
  0
APPID
  2
ACAECLAYERSTANDARD
 70
     0
  0
APPID
  2
ACCMTRANSPARENCY
 70
     0
  0
APPID
  2
ACAD_DSTYLE_DIMJAG
 70
     0
  0
APPID
  2
ACAD_DSTYLE_DIMTALN
 70
     0
  0
APPID
  2
ACDBATTR
 70
     0
  0
APPID
  2
DCO15
 70
     0
  0
ENDTAB
  0
TABLE
  2
DIMSTYLE
 70
     1
  0
DIMSTYLE
  2
STANDARD
 70
     0
  3

  4

  5

  6

  7

 40
1.0
 41
0.1875
 42
0.0625
 43
0.38
 44
0.125
 45
0.0
 46
0.0
 47
0.01
 48
0.01
140
0.15625
141
0.09
142
0.0
143
25.3999999999999986
144
1.0
145
0.0
146
1.0
147
0.09
 71
     1
 72
     0
 73
     1
 74
     1
 75
     0
 76
     0
 77
     0
 78
     4
170
     0
171
     2
172
     0
173
     0
174
     0
175
     0
176
     0
177
     0
178
     0
  0
ENDTAB
  0
ENDSEC
  0
SECTION
  2
BLOCKS
  0
BLOCK
  8
0
  2
$MODEL_SPACE
 70
     0
 10
0.0
 20
0.0
 30
0.0
  3
$MODEL_SPACE
  1

  0
ENDBLK
  5
21
  8
0
  0
BLOCK
 67
     1
  8
0
  2
$PAPER_SPACE
 70
     0
 10
0.0
 20
0.0
 30
0.0
  3
$PAPER_SPACE
  1

  0
ENDBLK
  5
1D
 67
     1
  8
0
  0
ENDSEC
  0
SECTION
  2
ENTITIES
  0
ATTDEF
  5
3930
  8
DEFPOINTS
 10
4314.5690925051558224
 20
589.48388046594755
 30
0.0
 40
0.001
  1
P30681-BL
  3

  2
MODELNUMBER
 70
     0
1001
ACDBATTR
1070
     0
1070
     1
  0
ATTDEF
  5
3931
  8
DEFPOINTS
 10
4314.5690925051558224
 20
589.4822137992807711
 30
0.0
 40
0.001
  1
KLYNE
  3

  2
TRADENAME
 70
     0
1001
ACDBATTR
1070
     0
1070
     1
  0
ATTDEF
  5
3932
  8
DEFPOINTS
 10
4314.5690925051558224
 20
589.4805471326142197
 30
0.0
 40
0.001
  1
ROBE HOOK
  3

  2
PRODUCT
 70
     0
1001
ACDBATTR
1070
     0
1070
     1
  0
LINE
  5
2428E
  8
0
 10
4314.5689171917993008
 20
590.3798884117308035
 30
0.0
 11
4314.5689171917993008
 21
588.5808275442060449
 31
0.0
  0
LINE
  5
2428F
  8
0
 10
4314.1689171917987551
 20
590.47070855288041
 30
0.0
 11
4314.1689171917987551
 21
588.4900074030562109
 31
0.0
  0
LINE
  5
24290
  8
0
 10
4314.4524183154990169
 20
590.4961130037587509
 30
0.0
 11
4314.4524183154990169
 21
588.4646029521777564
 31
0.0
  0
LINE
  5
24291
  8
0
 10
4312.5821679301006952
 20
589.3751703934185571
 30
0.0
 11
4312.5722978030989907
 21
590.5061749238334414
 31
0.0
  0
LINE
  5
24292
  8
0
 10
4312.8074609668983612
 20
589.5779792212445045
 30
0.0
 11
4312.7993322354022894
 21
590.5094395951310844
 31
0.0
  0
LINE
  5
24293
  8
0
 10
4312.8462199423001948
 20
589.6803610862099276
 30
0.0
 11
4313.8772920256960788
 21
589.6803465320898567
 31
0.0
  0
LINE
  5
24294
  8
0
 10
4312.609805063202657
 20
589.3374774100410605
 30
0.0
 11
4314.1427365198396728
 21
588.8393682073292439
 31
0.0
  0
LINE
  5
24295
  8
0
 10
4313.9205212390988891
 20
590.090210147497487
 30
0.0
 11
4313.9133651287002067
 21
589.2702011161152313
 31
0.0
  0
LINE
  5
24296
  8
0
 10
4313.8633063137012869
 20
589.2319373149098283
 30
0.0
 11
4312.8745867061952595
 21
589.491719075412334
 31
0.0
  0
LINE
  5
24297
  8
0
 10
4312.6115981836983337
 20
590.5465178930098773
 30
0.0
 11
4312.7586356619103753
 21
590.54908444180478
 31
0.0
  0
LINE
  5
24298
  8
0
 10
4314.2085682152774098
 20
590.5107071154507139
 30
0.0
 11
4314.4325436859726324
 21
590.5126617198113763
 31
0.0
  0
ARC
  5
24299
  8
0
 10
4314.2089172774503822
 20
590.4707085528806374
 30
0.0
 40
0.0400000856507794
 50
90.5000000098146842
 51
180.0000000003061018
  0
ARC
  5
2429A
  8
0
 10
4314.4327182166598504
 20
590.4926624813755325
 30
0.0
 40
0.0199999999744635
 50
9.934725573839966
 51
90.5000004337995136
  0
ARC
  5
2429B
  8
0
 10
4314.5686488978044508
 20
590.5164710852462804
 30
0.0
 40
0.1179999989181992
 50
189.9347253697679889
 51
261.7792273770153884
  0
ARC
  5
2429C
  8
0
 10
4314.5489164848377186
 20
590.3798884117413763
 30
0.0
 40
0.020000706961147
 50
359.9999999696457849
 51
81.779227375277074
  0
ARC
  5
2429D
  8
0
 10
4313.9605197161536125
 20
590.0898610860766667
 30
0.0
 40
0.040000000133281
 50
90.0000000785822039
 51
179.4999998393072929
  0
LINE
  5
2429E
  8
0
 10
4314.1489171918001375
 20
590.1298610862099849
 30
0.0
 11
4313.9605197161536125
 21
590.1298610862099849
 31
0.0
  0
ARC
  5
2429F
  8
0
 10
4314.1489171918001375
 20
590.1098610862098894
 30
0.0
 40
0.0200000000000031
 50
359.9999999999674856
 51
90.0000000000521254
  0
ARC
  5
242A0
  8
0
 10
4313.8734173235243361
 20
589.270586286107573
 30
0.0
 40
0.0399496620049878
 50
255.3393397183687057
 51
359.4475808863043085
  0
ARC
  5
242A1
  8
0
 10
4312.8974575401744005
 20
589.5787646094109959
 30
0.0
 40
0.0900000002003359
 50
180.500000066512797
 51
255.2785303827940879
  0
ARC
  5
242A2
  8
0
 10
4312.6221664069016697
 20
589.3755194548373311
 30
0.0
 40
0.0399999998790728
 50
180.499999725647001
 51
251.9990001432664997
  0
ARC
  5
242A3
  8
0
 10
4314.1489171917328349
 20
588.8583892298612454
 30
0.0
 40
0.020000000080521
 50
251.9990001775678934
 51
0.0
  0
ARC
  5
242A4
  8
0
 10
4312.6122962799727247
 20
590.5065239852526702
 30
0.0
 40
0.0399999999512547
 50
91.0000000243148719
 51
180.5000000333301955
  0
ARC
  5
242A5
  8
0
 10
4312.7593337581911328
 20
590.509090533710264
 30
0.0
 40
0.0400000002886279
 50
0.5000003969626095
 51
90.9999996113307361
  0
ARC
  5
242A6
  8
0
 10
4312.8462199422992853
 20
589.7203610862101186
 30
0.0
 40
0.04000000000015
 50
180.4999999973337026
 51
270.0000000006775167
  0
ARC
  5
242A7
  8
0
 10
4313.8772670627922707
 20
589.7203716461485783
 30
0.0
 40
0.0400251218432592
 50
270.0357342845775861
 51
359.4851967378060067
  0
LINE
  5
242A9
  8
0
 10
4314.2085682152774098
 20
588.4500088404861344
 30
0.0
 11
4314.5287427088542245
 21
588.4472147199539904
 31
0.0
  0
ARC
  5
242AA
  8
0
 10
4314.2089172774503822
 20
588.4900074030562109
 30
0.0
 40
0.0400000856507794
 50
179.9999999996938129
 51
269.4999999901853016
  0
ARC
  5
242AB
  8
0
 10
4314.4327182166598504
 20
588.4680534745613159
 30
0.0
 40
0.0199999999744635
 50
269.4999995662004721
 51
350.0652744261599878
  0
ARC
  5
242AC
  8
0
 10
4314.5686488978044508
 20
588.4442448706904543
 30
0.0
 40
0.1179999989181992
 50
98.2207726229846259
 51
170.0652746302320111
  0
ARC
  5
242AD
  8
0
 10
4314.5489164848377186
 20
588.5808275441953583
 30
0.0
 40
0.0200007069611442
 50
278.2207726247743835
 51
0.0000000303541961
  0
ARC
  5
242AE
  8
0
 10
4314.5693054438097533
 20
588.5460402262784783
 30
0.0
 40
0.0203888169017401
 50
123.6554814476407955
 51
179.5734942076915104
  0
LINE
  5
242AF
  8
0
 10
4314.5489171917997737
 20
588.5461919978099559
 30
0.0
 11
4314.5489171917997737
 21
588.4672204323098867
 31
0.0
  0
ARC
  5
242B0
  8
0
 10
4314.5289057133577444
 20
588.4672255351539434
 30
0.0
 40
0.0200114790916135
 50
269.5332891958271944
 51
359.9853898142008006
  0
VIEWPORT
  5
7BC8
 67
     1
  8
0
 10
8.4975296442687753
 20
4.5
 30
0.0
 40
16.9950592885375507
 41
9.0
 68
     1
 69
     1
1001
ACAD
1000
MVIEW
1002
{
1070
    16
1010
0.0
1020
0.0
1030
0.0
1010
0.0
1020
0.0
1030
1.0
1040
0.0
1040
9.0
1040
8.4975296442687753
1040
4.5
1040
50.0
1040
0.0
1040
0.0
1070
     0
1070
   100
1070
     1
1070
     1
1070
     0
1070
     0
1070
     0
1070
     0
1040
0.0
1040
0.0
1040
0.0
1040
1.0
1040
1.0
1040
0.0
1040
0.0
1070
     0
1002
{
1002
}
1002
}
  0
ENDSEC
  0
EOF
