  0
SECTION
  2
HEADER
  9
$ACADVER
  1
AC1009
  9
$INSBASE
 10
5312.7884269663891246
 20
219.2188866540876973
 30
0.0
  9
$EXTMIN
 10
5309.0088994073094
 20
217.9196740556876932
 30
0.0
  9
$EXTMAX
 10
5312.7996505552218878
 20
220.5180992524877013
 30
0.0
  9
$LIMMIN
 10
0.0
 20
0.0
  9
$LIMMAX
 10
11.6929133858000007
 20
8.2677165353999982
  9
$ORTHOMODE
 70
     0
  9
$REGENMODE
 70
     1
  9
$FILLMODE
 70
     1
  9
$QTEXTMODE
 70
     0
  9
$MIRRTEXT
 70
     0
  9
$DRAGMODE
 70
     2
  9
$LTSCALE
 40
0.6431102362
  9
$OSMODE
 70
  4095
  9
$ATTMODE
 70
     1
  9
$TEXTSIZE
 40
0.2
  9
$TRACEWID
 40
0.05
  9
$TEXTSTYLE
  7
STANDARD
  9
$CLAYER
  8
0
  9
$CELTYPE
  6
BYLAYER
  9
$CECOLOR
 62
   256
  9
$DIMSCALE
 40
1.0
  9
$DIMASZ
 40
0.1875
  9
$DIMEXO
 40
0.0625
  9
$DIMDLI
 40
0.4443307087
  9
$DIMRND
 40
0.0
  9
$DIMDLE
 40
0.0
  9
$DIMEXE
 40
0.125
  9
$DIMTP
 40
0.01
  9
$DIMTM
 40
0.01
  9
$DIMTXT
 40
2.0
  9
$DIMCEN
 40
0.1052362205
  9
$DIMTSZ
 40
0.0
  9
$DIMTOL
 70
     1
  9
$DIMLIM
 70
     0
  9
$DIMTIH
 70
     1
  9
$DIMTOH
 70
     1
  9
$DIMSE1
 70
     0
  9
$DIMSE2
 70
     0
  9
$DIMTAD
 70
     0
  9
$DIMZIN
 70
     0
  9
$DIMBLK
  1

  9
$DIMASO
 70
     1
  9
$DIMSHO
 70
     1
  9
$DIMPOST
  1
\X
  9
$DIMAPOST
  1

  9
$DIMALT
 70
     1
  9
$DIMALTD
 70
     2
  9
$DIMALTF
 40
25.3999999999999986
  9
$DIMLFAC
 40
1.0
  9
$DIMTOFL
 70
     0
  9
$DIMTVP
 40
0.0
  9
$DIMTIX
 70
     0
  9
$DIMSOXD
 70
     0
  9
$DIMSAH
 70
     0
  9
$DIMBLK1
  1

  9
$DIMBLK2
  1

  9
$DIMSTYLE
  2
STANDARD
  9
$DIMCLRD
 70
     0
  9
$DIMCLRE
 70
     0
  9
$DIMCLRT
 70
     0
  9
$DIMTFAC
 40
1.0
  9
$DIMGAP
 40
0.09
  9
$LUNITS
 70
     2
  9
$LUPREC
 70
     4
  9
$SKETCHINC
 40
0.1
  9
$FILLETRAD
 40
0.0
  9
$AUNITS
 70
     0
  9
$AUPREC
 70
     0
  9
$MENU
  1
.
  9
$ELEVATION
 40
0.0
  9
$PELEVATION
 40
0.0
  9
$THICKNESS
 40
0.0
  9
$LIMCHECK
 70
     0
  9
$BLIPMODE
 70
     0
  9
$CHAMFERA
 40
0.0
  9
$CHAMFERB
 40
0.0
  9
$SKPOLY
 70
     0
  9
$TDCREATE
 40
2458060.468368056230247
  9
$TDUPDATE
 40
2461015.5635416670702398
  9
$TDINDWG
 40
0.462634375
  9
$TDUSRTIMER
 40
0.462634375
  9
$USRTIMER
 70
     1
  9
$ANGBASE
 50
0.0
  9
$ANGDIR
 70
     0
  9
$PDMODE
 70
     0
  9
$PDSIZE
 40
0.3125
  9
$PLINEWID
 40
0.0
  9
$COORDS
 70
     1
  9
$SPLFRAME
 70
     0
  9
$SPLINETYPE
 70
     6
  9
$SPLINESEGS
 70
     8
  9
$ATTDIA
 70
     1
  9
$ATTREQ
 70
     1
  9
$HANDLING
 70
     1
  9
$HANDSEED
  5
D965
  9
$SURFTAB1
 70
     6
  9
$SURFTAB2
 70
     6
  9
$SURFTYPE
 70
     6
  9
$SURFU
 70
     6
  9
$SURFV
 70
     6
  9
$UCSNAME
  2

  9
$UCSORG
 10
0.0
 20
0.0
 30
0.0
  9
$UCSXDIR
 10
1.0
 20
0.0
 30
0.0
  9
$UCSYDIR
 10
0.0
 20
1.0
 30
0.0
  9
$PUCSNAME
  2

  9
$PUCSORG
 10
0.0
 20
0.0
 30
0.0
  9
$PUCSXDIR
 10
1.0
 20
0.0
 30
0.0
  9
$PUCSYDIR
 10
0.0
 20
1.0
 30
0.0
  9
$USERI1
 70
     0
  9
$USERI2
 70
     0
  9
$USERI3
 70
     0
  9
$USERI4
 70
     0
  9
$USERI5
 70
     0
  9
$USERR1
 40
0.0
  9
$USERR2
 40
0.0
  9
$USERR3
 40
0.0
  9
$USERR4
 40
0.0
  9
$USERR5
 40
0.0
  9
$WORLDVIEW
 70
     1
  9
$SHADEDGE
 70
     3
  9
$SHADEDIF
 70
    70
  9
$TILEMODE
 70
     1
  9
$MAXACTVP
 70
    64
  9
$PLIMCHECK
 70
     0
  9
$PEXTMIN
 10
1.0000000000000000E+20
 20
1.0000000000000000E+20
 30
1.0000000000000000E+20
  9
$PEXTMAX
 10
-1.0000000000000000E+20
 20
-1.0000000000000000E+20
 30
-1.0000000000000000E+20
  9
$PLIMMIN
 10
0.0
 20
0.0
  9
$PLIMMAX
 10
12.0
 20
9.0
  9
$UNITMODE
 70
     0
  9
$VISRETAIN
 70
     1
  9
$PLINEGEN
 70
     0
  9
$PSLTSCALE
 70
     1
  0
ENDSEC
  0
SECTION
  2
TABLES
  0
TABLE
  2
VPORT
 70
     1
  0
VPORT
  2
*ACTIVE
 70
     0
 10
0.0
 20
0.0
 11
1.0
 21
1.0
 12
1447.5245142390779165
 22
119.7830689355817952
 13
0.0
 23
0.0
 14
1.0
 24
1.0
 15
0.0
 25
0.0
 16
0.0
 26
0.0
 36
10.1719523591980305
 17
3863.3797607421870453
 27
99.4358177185058736
 37
0.0
 40
2.6164073780927311
 41
2.2182448036951499
 42
50.0
 43
0.0
 44
0.0
 50
0.0
 51
0.0
 71
     0
 72
   100
 73
     1
 74
     1
 75
     0
 76
     0
 77
     0
 78
     0
  0
ENDTAB
  0
TABLE
  2
LTYPE
 70
     2
  0
LTYPE
  2
CONTINUOUS
 70
     0
  3
Solid line
 72
    65
 73
     0
 40
0.0
  0
LTYPE
  2
PHANTOM2
 70
     0
  3
___ _ _ ___ _ _ ___ _ _ ___ _ _
 72
    65
 73
     6
 40
1.25
 49
0.625
 49
-0.125
 49
0.125
 49
-0.125
 49
0.125
 49
-0.125
  0
ENDTAB
  0
TABLE
  2
LAYER
 70
     2
  0
LAYER
  2
0
 70
     0
 62
   255
  6
CONTINUOUS
  0
LAYER
  2
DEFPOINTS
 70
     0
 62
     7
  6
CONTINUOUS
  0
ENDTAB
  0
TABLE
  2
STYLE
 70
     1
  0
STYLE
  2
STANDARD
 70
     0
 40
0.0
 41
0.8
 50
0.0
 71
     0
 42
0.2
  3
txt
  4

  0
ENDTAB
  0
TABLE
  2
VIEW
 70
     0
  0
ENDTAB
  0
TABLE
  2
UCS
 70
     0
  0
ENDTAB
  0
TABLE
  2
APPID
 70
     9
  0
APPID
  2
ACAD
 70
     0
  0
APPID
  2
ACAD_MLEADERVER
 70
     0
  0
APPID
  2
ACAD_EXEMPT_FROM_CAD_STANDARDS
 70
     0
  0
APPID
  2
ACAD_NAV_VCDISPLAY
 70
     0
  0
APPID
  2
ACAECLAYERSTANDARD
 70
     0
  0
APPID
  2
ACCMTRANSPARENCY
 70
     0
  0
APPID
  2
ACAD_DSTYLE_DIMJAG
 70
     0
  0
APPID
  2
ACAD_DSTYLE_DIMTALN
 70
     0
  0
APPID
  2
ACDBATTR
 70
     0
  0
ENDTAB
  0
TABLE
  2
DIMSTYLE
 70
     1
  0
DIMSTYLE
  2
STANDARD
 70
     0
  3

  4

  5

  6

  7

 40
1.0
 41
0.1875
 42
0.0625
 43
0.38
 44
0.125
 45
0.0
 46
0.0
 47
0.01
 48
0.01
140
0.15625
141
0.09
142
0.0
143
25.3999999999999986
144
1.0
145
0.0
146
1.0
147
0.09
 71
     1
 72
     0
 73
     1
 74
     1
 75
     0
 76
     0
 77
     0
 78
     4
170
     0
171
     2
172
     0
173
     0
174
     0
175
     0
176
     0
177
     0
178
     0
  0
ENDTAB
  0
ENDSEC
  0
SECTION
  2
BLOCKS
  0
BLOCK
  8
0
  2
$MODEL_SPACE
 70
     0
 10
0.0
 20
0.0
 30
0.0
  3
$MODEL_SPACE
  1

  0
ENDBLK
  5
21
  8
0
  0
BLOCK
 67
     1
  8
0
  2
$PAPER_SPACE
 70
     0
 10
0.0
 20
0.0
 30
0.0
  3
$PAPER_SPACE
  1

  0
ENDBLK
  5
1D
 67
     1
  8
0
  0
BLOCK
  8
0
  2
_FILLED
 70
     0
 10
0.0
 20
0.0
 30
0.0
  3
_FILLED
  1

  0
SOLID
  5
8AD0
  8
0
  6
BYBLOCK
 62
     0
 10
0.0
 20
0.0
 30
0.0
 11
-1.0
 21
0.1666666667
 31
0.0
 12
-1.0
 22
-0.1666666667
 32
0.0
 13
-1.0
 23
-0.1666666667
 33
0.0
  0
ENDBLK
  5
8AD1
  8
0
  6
BYBLOCK
 62
     0
  0
ENDSEC
  0
SECTION
  2
ENTITIES
  0
ATTDEF
  5
3930
  8
DEFPOINTS
 10
5312.788983888553048
 20
219.2194167615706988
 30
0.0
 40
0.001
  1
P31000-00
  3

  2
MODELNUMBER
 70
     0
1001
ACDBATTR
1070
     0
1070
     1
  0
ATTDEF
  5
3931
  8
DEFPOINTS
 10
5312.788983888553048
 20
219.2177500949040052
 30
0.0
 40
0.001
  1
KALLISTA
  3

  2
BRANDNAME
 70
     0
1001
ACDBATTR
1070
     0
1070
     1
  0
ATTDEF
  5
3932
  8
DEFPOINTS
 10
5312.788983888553048
 20
219.2160834282373969
 30
0.0
 40
0.001
  1
TOWEL BAR
  3

  2
PRODUCT
 70
     0
1001
ACDBATTR
1070
     0
1070
     1
  0
LINE
  5
D829
  8
0
 10
5312.7884269663891246
 20
217.9196740556876932
 30
0.0
 11
5312.7884269663891246
 21
220.5180992524877013
 31
0.0
  0
LINE
  5
D82A
  8
0
 10
5312.7884269663891246
 20
220.5180992524877013
 30
0.0
 11
5312.5682212043902837
 21
220.5180992524877013
 31
0.0
  0
ARC
  5
D82B
  8
0
 10
5312.5682212043902837
 20
220.4787291737877126
 30
0.0
 40
0.0393700787000002
 50
90.0
 51
174.4018245602960917
  0
LINE
  5
D82C
  8
0
 10
5312.5290389010051513
 20
220.4825697724888016
 30
0.0
 11
5312.5228739441899961
 21
220.4196740556778025
 31
0.0
  0
ARC
  5
D82D
  8
0
 10
5312.5228739440017307
 20
220.3212488589653901
 30
0.0
 40
0.0984251967124204
 50
89.9999998903080183
 51
180.0000001034420052
  0
LINE
  5
D82E
  8
0
 10
5312.4244487471887624
 20
220.3212488587876123
 30
0.0
 11
5312.3063385110881427
 21
220.3212488587876123
 31
0.0
  0
LINE
  5
D82F
  8
0
 10
5312.3063385110526724
 20
220.3212488587824964
 30
0.0
 11
5312.3063385110881427
 21
218.1165244493876969
 31
0.0
  0
LINE
  5
D830
  8
0
 10
5312.3063385110881427
 20
218.1165244493876969
 30
0.0
 11
5312.4244487471887624
 21
218.1165244493876969
 31
0.0
  0
ARC
  5
D831
  8
0
 10
5312.5228739440890422
 20
218.1165244493876969
 30
0.0
 40
0.0984251968999992
 50
179.9999999999984084
 51
270.0
  0
LINE
  5
D832
  8
0
 10
5312.5228739440890422
 20
218.0180992524877013
 30
0.0
 11
5312.5290389010106082
 21
217.9552035356238093
 31
0.0
  0
ARC
  5
D833
  8
0
 10
5312.5682212043902837
 20
217.9590441343877103
 30
0.0
 40
0.0393700786999988
 50
185.5981755315694954
 51
270.0
  0
LINE
  5
D834
  8
0
 10
5312.5682212043902837
 20
217.9196740556876932
 30
0.0
 11
5312.7884269663891246
 21
217.9196740556876932
 31
0.0
  0
ARC
  5
D835
  8
0
 10
5311.4377396341888016
 20
217.8606189375877022
 30
0.0
 40
0.9055118109999974
 50
16.4159617017589206
 51
90.0
  0
LINE
  5
D836
  8
0
 10
5311.4377396341888016
 20
218.7661307485876989
 30
0.0
 11
5309.2200229533900711
 21
218.7661307485876989
 31
0.0
  0
LINE
  5
D837
  8
0
 10
5309.2200229533900711
 20
218.7661307485876989
 30
0.0
 11
5309.0088994073894355
 21
219.2188866540876973
 31
0.0
  0
LINE
  5
D838
  8
0
 10
5309.0088994073894355
 20
219.2188866540876973
 30
0.0
 11
5309.2200229533900711
 21
219.6716425595876956
 31
0.0
  0
LINE
  5
D839
  8
0
 10
5309.2200229533900711
 20
219.6716425595876956
 30
0.0
 11
5309.2200229533900711
 21
218.7661307485876989
 31
0.0
  0
LINE
  5
D83A
  8
0
 10
5309.2200229533900711
 20
219.6716425595876956
 30
0.0
 11
5311.4377396341888016
 21
219.6716425595876956
 31
0.0
  0
ARC
  5
D83B
  8
0
 10
5311.4377396341888016
 20
220.5771543706347018
 30
0.0
 40
0.9055118110469981
 50
270.0
 51
343.5840382960165016
  0
LINE
  5
D83C
  8
0
 10
5312.5228739440890422
 20
220.4196740546489082
 30
0.0
 11
5312.5228739440890422
 21
218.0180992524877013
 31
0.0
  0
LINE
  5
D83D
  8
0
 10
5312.4244487471887624
 20
218.1165244493876969
 30
0.0
 11
5312.4244487471887624
 21
220.3212488587876123
 31
0.0
  0
LINE
  5
D83E
  8
0
 10
5312.7884269663891246
 20
219.7570381327876987
 30
0.0
 11
5312.5682212043902837
 21
219.7570381327876987
 31
0.0
  0
ARC
  5
D83F
  8
0
 10
5312.5679384110226238
 20
219.6690168782573096
 30
0.0
 40
0.0880217088063937
 50
89.8159216122628976
 51
101.3283661358428986
  0
ARC
  5
D840
  8
0
 10
5312.5598327866782711
 20
219.7063255375533117
 30
0.0
 40
0.0498515580811392
 50
100.6167910837722985
 51
118.2558037058633005
  0
ARC
  5
D841
  8
0
 10
5312.5462842577289848
 20
219.7322045685334899
 30
0.0
 40
0.0206446437480939
 50
119.1362835895753989
 51
135.4953737052996132
  0
ARC
  5
D842
  8
0
 10
5312.5384581725411408
 20
219.7397738972420029
 30
0.0
 40
0.009757671058088
 50
134.9820032957426861
 51
164.8663909686848115
  0
LINE
  5
D843
  8
0
 10
5312.5290389008732745
 20
219.7423213402184956
 30
0.0
 11
5312.5228739440890422
 21
219.7162690812876917
 31
0.0
  0
ARC
  5
D844
  8
0
 10
5312.5185085759076173
 20
219.5374816563480067
 30
0.0
 40
0.1788407105663941
 50
88.6013138966859088
 51
113.895996112184207
  0
ARC
  5
D845
  8
0
 10
5312.4699694508990433
 20
219.6520683031799024
 30
0.0
 40
0.0544522077010532
 50
116.040959976691795
 51
136.3268998052452901
  0
ARC
  5
D846
  8
0
 10
5312.4459150279208188
 20
219.6746180390591974
 30
0.0
 40
0.0214843922879437
 50
135.5252686596022045
 51
177.6471963203117923
  0
LINE
  5
D847
  8
0
 10
5312.4244487471887624
 20
219.6755000298877007
 30
0.0
 11
5312.3063385110626768
 21
219.6755000298512073
 31
0.0
  0
ARC
  5
D848
  8
0
 10
5311.995371132328728
 20
219.9113400886897978
 30
0.0
 40
0.3902835430676948
 50
301.4214502848851112
 51
322.823039541886601
  0
ARC
  5
D849
  8
0
 10
5311.6959817526612824
 20
220.4106754720035042
 30
0.0
 40
0.9724866464681173
 50
284.1617735095155126
 51
301.1367361158078779
  0
ARC
  5
D84A
  8
0
 10
5311.479786181673262
 20
221.183088983314093
 30
0.0
 40
1.7744402221310871
 50
275.147871072207181
 51
284.8284381853305831
  0
ARC
  5
D84B
  8
0
 10
5311.4385139224041268
 20
221.5532608207028034
 30
0.0
 40
2.1468366697443888
 50
269.979335434077484
 51
275.3584855758592767
  0
LINE
  5
D84C
  8
0
 10
5311.4377396341888016
 20
219.4064242905876938
 30
0.0
 11
5309.2200229533900711
 21
219.4064242905876938
 31
0.0
  0
LINE
  5
D84D
  8
0
 10
5312.7884269663891246
 20
218.6807351753876958
 30
0.0
 11
5312.5682212043902837
 21
218.6807351753876958
 31
0.0
  0
ARC
  5
D84E
  8
0
 10
5312.5679384110226238
 20
218.7687564299181133
 30
0.0
 40
0.0880217088063937
 50
258.6716338641571156
 51
270.1840783877370882
  0
ARC
  5
D84F
  8
0
 10
5312.5598327866782711
 20
218.7314477706221112
 30
0.0
 40
0.0498515580811392
 50
241.7441962941367137
 51
259.3832089162277157
  0
ARC
  5
D850
  8
0
 10
5312.5462842577289848
 20
218.7055687396419046
 30
0.0
 40
0.0206446437480939
 50
224.5046262947003868
 51
240.8637164104245869
  0
ARC
  5
D851
  8
0
 10
5312.5384581725411408
 20
218.6979994109333063
 30
0.0
 40
0.009757671058088
 50
195.1336090313151885
 51
225.0179967042572002
  0
LINE
  5
D852
  8
0
 10
5312.5290389008732745
 20
218.6954519679568136
 30
0.0
 11
5312.5228739440890422
 21
218.7215042268877028
 31
0.0
  0
ARC
  5
D853
  8
0
 10
5312.5185085759076173
 20
218.9002916518273025
 30
0.0
 40
0.1788407105663941
 50
246.104003887815793
 51
271.3986861033141054
  0
ARC
  5
D854
  8
0
 10
5312.4699694508990433
 20
218.7857050049954921
 30
0.0
 40
0.0544522077010532
 50
223.6731001947547099
 51
243.9590400233080913
  0
ARC
  5
D855
  8
0
 10
5312.4459150279208188
 20
218.7631552691161971
 30
0.0
 40
0.0214843922879437
 50
182.3528036796882077
 51
224.4747313403966018
  0
LINE
  5
D856
  8
0
 10
5312.4244487471887624
 20
218.7622732782876938
 30
0.0
 11
5312.3063385110626768
 21
218.762273278324102
 31
0.0
  0
ARC
  5
D857
  8
0
 10
5311.995371132328728
 20
218.5264332194855115
 30
0.0
 40
0.3902835430676948
 50
37.1769604581134274
 51
58.5785497151149031
  0
ARC
  5
D858
  8
0
 10
5311.6959817526612824
 20
218.0270978361718051
 30
0.0
 40
0.9724866464681173
 50
58.8632638841921008
 51
75.8382264904844874
  0
ARC
  5
D859
  8
0
 10
5311.479786181673262
 20
217.2546843248611026
 30
0.0
 40
1.7744402221310871
 50
75.1715618146693458
 51
84.8521289277927764
  0
ARC
  5
D85A
  8
0
 10
5311.4385139224041268
 20
216.8845124874725059
 30
0.0
 40
2.1468366697443888
 50
84.6415144241406665
 51
90.0206645659224165
  0
LINE
  5
D85B
  8
0
 10
5311.4377396341888016
 20
219.0313490175877007
 30
0.0
 11
5309.2200229533900711
 21
219.0313490175877007
 31
0.0
  0
LINE
  5
D85C
  8
0
 10
5309.2200229532763842
 20
219.4064242905876938
 30
0.0
 11
5309.0088994073094
 21
219.218886654258398
 31
0.0
  0
LINE
  5
D85D
  8
0
 10
5309.2200229533900711
 20
219.0313490175877007
 30
0.0
 11
5309.0088994073894355
 21
219.2188866540876973
 31
0.0
  0
ENDSEC
  0
EOF
