  0
SECTION
  2
HEADER
  9
$ACADVER
  1
AC1009
  9
$INSBASE
 10
6166.3845116375987345
 20
1013.4605687299959982
 30
0.0
  9
$EXTMIN
 10
6158.9806641571340151
 20
1009.6148311185410194
 30
-0.0000000000112498
  9
$EXTMAX
 10
6174.0098923489167646
 20
1013.4796505918419598
 30
0.0000000000002956
  9
$LIMMIN
 10
0.0
 20
0.0
  9
$LIMMAX
 10
11.6929133858000007
 20
8.2677165353999982
  9
$ORTHOMODE
 70
     0
  9
$REGENMODE
 70
     1
  9
$FILLMODE
 70
     1
  9
$QTEXTMODE
 70
     0
  9
$MIRRTEXT
 70
     0
  9
$DRAGMODE
 70
     2
  9
$LTSCALE
 40
0.6431102362
  9
$OSMODE
 70
  4095
  9
$ATTMODE
 70
     1
  9
$TEXTSIZE
 40
0.2
  9
$TRACEWID
 40
0.05
  9
$TEXTSTYLE
  7
STANDARD
  9
$CLAYER
  8
0
  9
$CELTYPE
  6
BYLAYER
  9
$CECOLOR
 62
   256
  9
$DIMSCALE
 40
1.0
  9
$DIMASZ
 40
0.1875
  9
$DIMEXO
 40
0.0625
  9
$DIMDLI
 40
0.4443307087
  9
$DIMRND
 40
0.0
  9
$DIMDLE
 40
0.0
  9
$DIMEXE
 40
0.125
  9
$DIMTP
 40
0.01
  9
$DIMTM
 40
0.01
  9
$DIMTXT
 40
2.0
  9
$DIMCEN
 40
0.1052362205
  9
$DIMTSZ
 40
0.0
  9
$DIMTOL
 70
     1
  9
$DIMLIM
 70
     0
  9
$DIMTIH
 70
     1
  9
$DIMTOH
 70
     1
  9
$DIMSE1
 70
     0
  9
$DIMSE2
 70
     0
  9
$DIMTAD
 70
     0
  9
$DIMZIN
 70
     0
  9
$DIMBLK
  1

  9
$DIMASO
 70
     1
  9
$DIMSHO
 70
     1
  9
$DIMPOST
  1
\X
  9
$DIMAPOST
  1

  9
$DIMALT
 70
     1
  9
$DIMALTD
 70
     2
  9
$DIMALTF
 40
25.3999999999999986
  9
$DIMLFAC
 40
1.0
  9
$DIMTOFL
 70
     0
  9
$DIMTVP
 40
0.0
  9
$DIMTIX
 70
     0
  9
$DIMSOXD
 70
     0
  9
$DIMSAH
 70
     0
  9
$DIMBLK1
  1

  9
$DIMBLK2
  1

  9
$DIMSTYLE
  2
STANDARD
  9
$DIMCLRD
 70
     0
  9
$DIMCLRE
 70
     0
  9
$DIMCLRT
 70
     0
  9
$DIMTFAC
 40
1.0
  9
$DIMGAP
 40
0.09
  9
$LUNITS
 70
     2
  9
$LUPREC
 70
     4
  9
$SKETCHINC
 40
0.1
  9
$FILLETRAD
 40
0.0
  9
$AUNITS
 70
     0
  9
$AUPREC
 70
     0
  9
$MENU
  1
.
  9
$ELEVATION
 40
0.0
  9
$PELEVATION
 40
0.0
  9
$THICKNESS
 40
0.0
  9
$LIMCHECK
 70
     0
  9
$BLIPMODE
 70
     0
  9
$CHAMFERA
 40
0.0
  9
$CHAMFERB
 40
0.0
  9
$SKPOLY
 70
     0
  9
$TDCREATE
 40
2458060.468368056230247
  9
$TDUPDATE
 40
2461039.6405671290121973
  9
$TDINDWG
 40
1.6183914352
  9
$TDUSRTIMER
 40
1.6183914352
  9
$USRTIMER
 70
     1
  9
$ANGBASE
 50
0.0
  9
$ANGDIR
 70
     0
  9
$PDMODE
 70
     0
  9
$PDSIZE
 40
0.3125
  9
$PLINEWID
 40
0.0
  9
$COORDS
 70
     1
  9
$SPLFRAME
 70
     0
  9
$SPLINETYPE
 70
     6
  9
$SPLINESEGS
 70
     8
  9
$ATTDIA
 70
     1
  9
$ATTREQ
 70
     1
  9
$HANDLING
 70
     1
  9
$HANDSEED
  5
2145A
  9
$SURFTAB1
 70
     6
  9
$SURFTAB2
 70
     6
  9
$SURFTYPE
 70
     6
  9
$SURFU
 70
     6
  9
$SURFV
 70
     6
  9
$UCSNAME
  2

  9
$UCSORG
 10
0.0
 20
0.0
 30
0.0
  9
$UCSXDIR
 10
1.0
 20
0.0
 30
0.0
  9
$UCSYDIR
 10
0.0
 20
1.0
 30
0.0
  9
$PUCSNAME
  2

  9
$PUCSORG
 10
0.0
 20
0.0
 30
0.0
  9
$PUCSXDIR
 10
1.0
 20
0.0
 30
0.0
  9
$PUCSYDIR
 10
0.0
 20
1.0
 30
0.0
  9
$USERI1
 70
     0
  9
$USERI2
 70
     0
  9
$USERI3
 70
     0
  9
$USERI4
 70
     0
  9
$USERI5
 70
     0
  9
$USERR1
 40
0.0
  9
$USERR2
 40
0.0
  9
$USERR3
 40
0.0
  9
$USERR4
 40
0.0
  9
$USERR5
 40
0.0
  9
$WORLDVIEW
 70
     1
  9
$SHADEDGE
 70
     3
  9
$SHADEDIF
 70
    70
  9
$TILEMODE
 70
     1
  9
$MAXACTVP
 70
    64
  9
$PLIMCHECK
 70
     0
  9
$PEXTMIN
 10
1.0000000000000000E+20
 20
1.0000000000000000E+20
 30
1.0000000000000000E+20
  9
$PEXTMAX
 10
-1.0000000000000000E+20
 20
-1.0000000000000000E+20
 30
-1.0000000000000000E+20
  9
$PLIMMIN
 10
0.0
 20
0.0
  9
$PLIMMAX
 10
12.0
 20
9.0
  9
$UNITMODE
 70
     0
  9
$VISRETAIN
 70
     1
  9
$PLINEGEN
 70
     0
  9
$PSLTSCALE
 70
     1
  0
ENDSEC
  0
SECTION
  2
TABLES
  0
TABLE
  2
VPORT
 70
     1
  0
VPORT
  2
*ACTIVE
 70
     0
 10
0.0
 20
0.0
 11
1.0
 21
1.0
 12
2255.1299218077128899
 22
878.9676357526525408
 13
0.0
 23
0.0
 14
1.0
 24
1.0
 15
0.0
 25
0.0
 16
0.0
 26
0.0
 36
60.4960186965801583
 17
3911.3653564453120453
 27
132.5796051025390057
 37
0.0
 40
6.796416659231415
 41
2.2182448036951499
 42
50.0
 43
0.0
 44
0.0
 50
0.0
 51
0.0
 71
     0
 72
   100
 73
     1
 74
     1
 75
     0
 76
     0
 77
     0
 78
     0
  0
ENDTAB
  0
TABLE
  2
LTYPE
 70
     2
  0
LTYPE
  2
CONTINUOUS
 70
     0
  3
Solid line
 72
    65
 73
     0
 40
0.0
  0
LTYPE
  2
PHANTOM2
 70
     0
  3
___ _ _ ___ _ _ ___ _ _ ___ _ _
 72
    65
 73
     6
 40
1.25
 49
0.625
 49
-0.125
 49
0.125
 49
-0.125
 49
0.125
 49
-0.125
  0
ENDTAB
  0
TABLE
  2
LAYER
 70
     2
  0
LAYER
  2
0
 70
     0
 62
   255
  6
CONTINUOUS
  0
LAYER
  2
DEFPOINTS
 70
     0
 62
     7
  6
CONTINUOUS
  0
ENDTAB
  0
TABLE
  2
STYLE
 70
     1
  0
STYLE
  2
STANDARD
 70
     0
 40
0.0
 41
0.8
 50
0.0
 71
     0
 42
0.2
  3
txt
  4

  0
ENDTAB
  0
TABLE
  2
VIEW
 70
     1
  0
ENDTAB
  0
TABLE
  2
UCS
 70
     0
  0
ENDTAB
  0
TABLE
  2
APPID
 70
    11
  0
APPID
  2
ACAD
 70
     0
  0
APPID
  2
ACAD_MLEADERVER
 70
     0
  0
APPID
  2
ACAD_EXEMPT_FROM_CAD_STANDARDS
 70
     0
  0
APPID
  2
ACAD_NAV_VCDISPLAY
 70
     0
  0
APPID
  2
ACAECLAYERSTANDARD
 70
     0
  0
APPID
  2
ACCMTRANSPARENCY
 70
     0
  0
APPID
  2
ACAD_DSTYLE_DIMJAG
 70
     0
  0
APPID
  2
ACAD_DSTYLE_DIMTALN
 70
     0
  0
APPID
  2
ACDBATTR
 70
     0
  0
APPID
  2
ACADANNOTATIVE
 70
     0
  0
APPID
  2
DCO15
 70
     0
  0
ENDTAB
  0
TABLE
  2
DIMSTYLE
 70
     1
  0
DIMSTYLE
  2
STANDARD
 70
     0
  3

  4

  5

  6

  7

 40
1.0
 41
0.1875
 42
0.0625
 43
0.38
 44
0.125
 45
0.0
 46
0.0
 47
0.01
 48
0.01
140
0.15625
141
0.09
142
0.0
143
25.3999999999999986
144
1.0
145
0.0
146
1.0
147
0.09
 71
     1
 72
     0
 73
     1
 74
     1
 75
     0
 76
     0
 77
     0
 78
     4
170
     0
171
     2
172
     0
173
     0
174
     0
175
     0
176
     0
177
     0
178
     0
  0
ENDTAB
  0
ENDSEC
  0
SECTION
  2
BLOCKS
  0
BLOCK
  8
0
  2
$MODEL_SPACE
 70
     0
 10
0.0
 20
0.0
 30
0.0
  3
$MODEL_SPACE
  1

  0
ENDBLK
  5
21
  8
0
  0
BLOCK
 67
     1
  8
0
  2
$PAPER_SPACE
 70
     0
 10
0.0
 20
0.0
 30
0.0
  3
$PAPER_SPACE
  1

  0
ENDBLK
  5
1D
 67
     1
  8
0
  0
BLOCK
  8
0
  2
_FILLED
 70
     0
 10
0.0
 20
0.0
 30
0.0
  3
_FILLED
  1

  0
SOLID
  5
1FCD6
  8
0
  6
BYBLOCK
 62
     0
 10
0.0
 20
0.0
 30
0.0
 11
-1.0
 21
0.1666666667
 31
0.0
 12
-1.0
 22
-0.1666666667
 32
0.0
 13
-1.0
 23
-0.1666666667
 33
0.0
  0
ENDBLK
  5
1FCD7
  8
0
  6
BYBLOCK
 62
     0
  0
ENDSEC
  0
SECTION
  2
ENTITIES
  0
ATTDEF
  5
20569
  8
DEFPOINTS
 10
6166.3845116375987345
 20
1013.4639020633300106
 30
0.0
 40
0.001
  1
P31001-00
  3

  2
MODELNUMBER
 70
     0
1001
ACDBATTR
1070
     0
1070
     1
  0
ATTDEF
  5
2056A
  8
DEFPOINTS
 10
6166.3845116375987345
 20
1013.4622352229499711
 30
0.0
 40
0.001
  1
KALLISTA
  3

  2
BRANDNAME
 70
     0
1001
ACDBATTR
1070
     0
1070
     1
  0
ATTDEF
  5
2056B
  8
DEFPOINTS
 10
6166.3845116375987345
 20
1013.4605687299959982
 30
0.0
 40
0.001
  1
TOWEL BAR
  3

  2
PRODUCT
 70
     0
1001
ACDBATTR
1070
     0
1070
     1
  0
LINE
  5
213A1
  8
0
 10
6160.837243921049776
 20
1010.7046632181959467
 30
0.0
 11
6171.9317793541504216
 21
1010.7046632181959467
 31
0.0
  0
LINE
  5
213A2
  8
0
 10
6171.9317793541504216
 20
1010.0747419582960447
 30
0.0
 11
6160.837243921049776
 21
1010.0747419582960447
 31
0.0
  0
LINE
  5
213A3
  8
0
 10
6160.837243921049776
 20
1010.1366614190959581
 30
0.0
 11
6160.837243921049776
 21
1009.8921647168959908
 31
0.0
  0
LINE
  5
213A4
  8
0
 10
6160.837243921049776
 20
1009.8921647168959908
 30
0.0
 11
6160.3844880155511419
 21
1009.6810411708960373
 31
0.0
  0
LINE
  5
213A5
  8
0
 10
6160.3844880155511419
 20
1009.6810411708960373
 30
0.0
 11
6159.9317321100497793
 21
1009.8921647168959908
 31
0.0
  0
LINE
  5
213A6
  8
0
 10
6159.9317321100497793
 20
1009.8921647168959908
 30
0.0
 11
6159.9317321100497793
 21
1012.1098813976959718
 31
0.0
  0
LINE
  5
213A7
  8
0
 10
6160.837243921049776
 20
1010.6427437573960333
 30
0.0
 11
6160.837243921049776
 21
1012.1098813976959718
 31
0.0
  0
ARC
  5
213A8
  8
0
 10
6161.0247815575039567
 20
1010.3897025882190519
 30
0.0
 40
0.3149606298538845
 50
126.5434342342853995
 51
233.4565657657146005
  0
ARC
  5
213A9
  8
0
 10
6161.742755732149817
 20
1012.1098813976959718
 30
0.0
 40
0.9055118109999991
 50
106.4159617083436018
 51
179.9999999970947897
  0
ARC
  5
213AA
  8
0
 10
6159.0262202990497826
 20
1012.1098813976959718
 30
0.0
 40
0.9055118109999963
 50
0.0
 51
73.5840382982311638
  0
LINE
  5
213AB
  8
0
 10
6159.2821258108497204
 20
1012.9784802745959951
 30
0.0
 11
6161.4868502203462413
 21
1012.9784802745599563
 31
0.0
  0
LINE
  5
213AC
  8
0
 10
6161.4868502203462413
 20
1012.9784802745599563
 30
0.0
 11
6161.4868502202489253
 21
1013.096590510795977
 31
0.0
  0
LINE
  5
213AD
  8
0
 10
6159.2821258108497204
 20
1012.9784802745959951
 30
0.0
 11
6159.2821258108497204
 21
1013.096590510795977
 31
0.0
  0
LINE
  5
213AE
  8
0
 10
6159.2821258108497204
 20
1013.096590510795977
 30
0.0
 11
6161.4868502202489253
 21
1013.096590510795977
 31
0.0
  0
ARC
  5
213AF
  8
0
 10
6161.4868502202489253
 20
1013.1950157076960295
 30
0.0
 40
0.098425196900001
 50
270.0
 51
359.999999999895806
  0
ARC
  5
213B0
  8
0
 10
6159.2821258108497204
 20
1013.1950157076960295
 30
0.0
 40
0.0984251968999965
 50
179.9999999999934914
 51
270.0
  0
LINE
  5
213B1
  8
0
 10
6159.1208048971493554
 20
1013.2011806645119805
 30
0.0
 11
6159.1837006139512596
 21
1013.1950157076960295
 31
0.0
  0
LINE
  5
213B2
  8
0
 10
6159.1837006139512596
 20
1013.1950157076960295
 30
0.0
 11
6161.5852754171501147
 21
1013.1950157076960295
 31
0.0
  0
LINE
  5
213B3
  8
0
 10
6161.5852754171501147
 20
1013.1950157076960295
 30
0.0
 11
6161.6481711339429239
 21
1013.2011806644959506
 31
0.0
  0
ARC
  5
213B4
  8
0
 10
6161.6443305352513562
 20
1013.2403629678790367
 30
0.0
 40
0.0393700786983883
 50
275.5981754269669182
 51
0.0000000255274881
  0
LINE
  5
213B5
  8
0
 10
6161.6837006139503501
 20
1013.240362967895976
 30
0.0
 11
6161.6837006139503501
 21
1013.4605687299959982
 31
0.0
  0
LINE
  5
213B6
  8
0
 10
6161.6837006139503501
 20
1013.4605687299959982
 30
0.0
 11
6159.0852754171501147
 21
1013.4605687299959982
 31
0.0
  0
LINE
  5
213B7
  8
0
 10
6159.0852754171501147
 20
1013.4605687299959982
 30
0.0
 11
6159.0852754171501147
 21
1013.240362967895976
 31
0.0
  0
ARC
  5
213B8
  8
0
 10
6159.1245213015681657
 20
1013.2402503517939749
 30
0.0
 40
0.0392460459940317
 50
179.8355901588035124
 51
264.5662346429165837
  0
LINE
  5
213BA
  8
0
 10
6159.9317321100497793
 20
1009.8921647168959908
 30
0.0
 11
6160.837243921049776
 21
1009.8921647168959908
 31
0.0
  0
ARC
  5
213BB
  8
0
 10
6159.4611233376790551
 20
1012.4820151533519947
 30
0.0
 40
0.6814208645073627
 50
17.2482917677818293
 51
46.7669307273959518
  0
ARC
  5
213BC
  8
0
 10
6158.2661738744509421
 20
1012.1110125436889575
 30
0.0
 40
1.9326391332547159
 50
8.3540167561861747
 51
17.2482917677818293
  0
ARC
  5
213BD
  8
0
 10
6158.4242644535797808
 20
1012.1342277010520547
 30
0.0
 40
1.7728531052644829
 50
359.2131416449016115
 51
8.3540167561861747
  0
LINE
  5
213BE
  8
0
 10
6160.1932534858278814
 20
1012.1098813976959718
 30
0.0
 11
6160.1969503790496674
 21
1009.8921647168959908
 31
0.0
  0
LINE
  5
213BF
  8
0
 10
6160.5720256520498879
 20
1009.8921647168959908
 30
0.0
 11
6160.5720256520498879
 21
1012.1098813976959718
 31
0.0
  0
ARC
  5
213C0
  8
0
 10
6162.6620122349431767
 20
1012.1098813976959718
 30
0.0
 40
2.0899865828934652
 50
168.8019923059111989
 51
180.0
  0
ARC
  5
213C1
  8
0
 10
6161.7757105095997758
 20
1012.285341838271961
 30
0.0
 40
1.186483890836084
 50
150.4668334486104015
 51
168.8019923059111989
  0
ARC
  5
213C2
  8
0
 10
6161.0358911230487138
 20
1012.7044770333980068
 30
0.0
 40
0.3361856863749685
 50
125.4091359821130993
 51
150.4668334486104015
  0
LINE
  5
213C3
  8
0
 10
6159.9278746397649229
 20
1012.9784802745859906
 30
0.0
 11
6159.927874639750371
 21
1013.096590510795977
 31
0.0
  0
LINE
  5
213C4
  8
0
 10
6160.8411013914510477
 20
1012.9784802745959951
 30
0.0
 11
6160.8411013914510477
 21
1013.096590510795977
 31
0.0
  0
ARC
  5
213C5
  8
0
 10
6160.0927443639684498
 20
1013.193162346886993
 30
0.0
 40
0.2056471273419421
 50
179.4836242490709992
 51
195.3738940030438869
  0
ARC
  5
213C6
  8
0
 10
6159.9876215403419337
 20
1013.1642582223420277
 30
0.0
 40
0.0966230177940205
 50
195.3738940030438869
 51
217.4150942631247858
  0
ARC
  5
213C7
  8
0
 10
6159.9290796665918606
 20
1013.1194751374939642
 30
0.0
 40
0.0229163310500862
 50
217.4150942631247858
 51
266.9857823389954774
  0
ARC
  5
213C8
  8
0
 10
6160.8378453963568973
 20
1013.1237511142350058
 30
0.0
 40
0.0273550705223008
 50
276.8359578924719813
 51
326.4899402370036228
  0
ARC
  5
213C9
  8
0
 10
6160.7682051926522036
 20
1013.1698625453600471
 30
0.0
 40
0.1108776546096251
 50
326.4899402370036228
 51
348.3442867994037897
  0
ARC
  5
213CA
  8
0
 10
6160.635316947082174
 20
1013.1972752740219903
 30
0.0
 40
0.2465638495699142
 50
348.3442867994037897
 51
359.4749212976922195
  0
LINE
  5
213CB
  8
0
 10
6159.8871055883491863
 20
1013.1950157076960295
 30
0.0
 11
6159.8610533294167908
 21
1013.201180664480944
 31
0.0
  0
LINE
  5
213CC
  8
0
 10
6160.8818704428504134
 20
1013.1950157076960295
 30
0.0
 11
6160.9079227024358261
 21
1013.2011806646579544
 31
0.0
  0
ARC
  5
213CD
  8
0
 10
6160.8976998917923993
 20
1013.2205071276799799
 30
0.0
 40
0.0218636232730976
 50
297.8767808559247214
 51
346.9193744313906791
  0
ARC
  5
213CE
  8
0
 10
6160.7707587715685804
 20
1013.2500020059260351
 30
0.0
 40
0.1521862837977707
 50
346.9193744313906791
 51
356.3686207267730879
  0
LINE
  5
213CF
  8
0
 10
6160.9226394942488696
 20
1013.240362967895976
 30
0.0
 11
6160.9226394942488696
 21
1013.4605687299959982
 31
0.0
  0
ARC
  5
213D0
  8
0
 10
6159.9222671160569007
 20
1013.2389519052389915
 30
0.0
 40
0.0759436893789778
 50
178.9353613426773961
 51
199.4035602313126958
  0
ARC
  5
213D1
  8
0
 10
6159.8788394128332584
 20
1013.2236555635580544
 30
0.0
 40
0.0299008454603932
 50
199.4035602313126958
 51
218.4126979483544915
  0
ARC
  5
213D2
  8
0
 10
6159.8646211884433797
 20
1013.2123812063190371
 30
0.0
 40
0.0117550736118726
 50
218.412697948349404
 51
252.3310632645120961
  0
LINE
  5
213D3
  8
0
 10
6159.8463234266773725
 20
1013.2389519052389915
 30
0.0
 11
6159.8463234266773725
 21
1013.4605687299959982
 31
0.0
  0
LINE
  5
213D4
  8
0
 10
6171.9317793541504216
 20
1010.1366614190959581
 30
0.0
 11
6171.9317793541504216
 21
1009.8921647168959908
 31
0.0
  0
LINE
  5
213D5
  8
0
 10
6171.9317793541504216
 20
1009.8921647168959908
 30
0.0
 11
6172.3845352596499652
 21
1009.6810411708960373
 31
0.0
  0
LINE
  5
213D6
  8
0
 10
6172.3845352596499652
 20
1009.6810411708960373
 30
0.0
 11
6172.8372911651513277
 21
1009.8921647168959908
 31
0.0
  0
LINE
  5
213D7
  8
0
 10
6172.8372911651513277
 20
1009.8921647168959908
 30
0.0
 11
6172.8372911651513277
 21
1012.1098813976959718
 31
0.0
  0
LINE
  5
213D8
  8
0
 10
6171.9317793541504216
 20
1010.6427437573960333
 30
0.0
 11
6171.9317793541504216
 21
1012.1098813976959718
 31
0.0
  0
ARC
  5
213D9
  8
0
 10
6171.7442417176962408
 20
1010.3897025882190519
 30
0.0
 40
0.3149606298538845
 50
306.5434342342854279
 51
53.4565657657146431
  0
ARC
  5
213DA
  8
0
 10
6171.02626754305129
 20
1012.1098813976959718
 30
0.0
 40
0.9055118109999991
 50
0.0000000029051441
 51
73.5840382916563698
  0
ARC
  5
213DB
  8
0
 10
6173.7428029761504149
 20
1012.1098813976959718
 30
0.0
 40
0.9055118109999963
 50
106.4159617017687935
 51
180.0
  0
LINE
  5
213DC
  8
0
 10
6173.4868974643495676
 20
1012.9784802745959951
 30
0.0
 11
6171.2821730548539563
 21
1012.9784802745599563
 31
0.0
  0
LINE
  5
213DD
  8
0
 10
6171.2821730548539563
 20
1012.9784802745599563
 30
0.0
 11
6171.2821730549512722
 21
1013.096590510795977
 31
0.0
  0
LINE
  5
213DE
  8
0
 10
6173.4868974643495676
 20
1012.9784802745959951
 30
0.0
 11
6173.4868974643495676
 21
1013.096590510795977
 31
0.0
  0
LINE
  5
213DF
  8
0
 10
6173.4868974643495676
 20
1013.096590510795977
 30
0.0
 11
6171.2821730549512722
 21
1013.096590510795977
 31
0.0
  0
ARC
  5
213E0
  8
0
 10
6171.2821730549512722
 20
1013.1950157076960295
 30
0.0
 40
0.098425196900001
 50
180.000000000104194
 51
270.0
  0
ARC
  5
213E1
  8
0
 10
6173.4868974643495676
 20
1013.1950157076960295
 30
0.0
 40
0.0984251968999965
 50
270.0
 51
0.0000000000065138
  0
LINE
  5
213E2
  8
0
 10
6173.6482183780508421
 20
1013.2011806645119805
 30
0.0
 11
6173.5853226612489379
 21
1013.1950157076960295
 31
0.0
  0
LINE
  5
213E3
  8
0
 10
6173.5853226612489379
 20
1013.1950157076960295
 30
0.0
 11
6171.1837478580500829
 21
1013.1950157076960295
 31
0.0
  0
LINE
  5
213E4
  8
0
 10
6171.1837478580500829
 20
1013.1950157076960295
 30
0.0
 11
6171.1208521412572736
 21
1013.2011806644959506
 31
0.0
  0
ARC
  5
213E5
  8
0
 10
6171.1246927399488413
 20
1013.2403629678790367
 30
0.0
 40
0.0393700786983883
 50
179.9999999744725017
 51
264.4018245730330818
  0
LINE
  5
213E6
  8
0
 10
6171.0853226612498474
 20
1013.240362967895976
 30
0.0
 11
6171.0853226612498474
 21
1013.4605687299959982
 31
0.0
  0
LINE
  5
213E7
  8
0
 10
6171.0853226612498474
 20
1013.4605687299959982
 30
0.0
 11
6173.6837478580500829
 21
1013.4605687299959982
 31
0.0
  0
LINE
  5
213E8
  8
0
 10
6173.6837478580500829
 20
1013.4605687299959982
 30
0.0
 11
6173.6837478580500829
 21
1013.240362967895976
 31
0.0
  0
ARC
  5
213E9
  8
0
 10
6173.6445019736320319
 20
1013.2402503517939749
 30
0.0
 40
0.0392460459940317
 50
275.4337653570833027
 51
0.1644098411964241
  0
LINE
  5
213EA
  8
0
 10
6172.8372911651513277
 20
1009.8921647168959908
 30
0.0
 11
6171.9317793541504216
 21
1009.8921647168959908
 31
0.0
  0
ARC
  5
213EB
  8
0
 10
6173.3078999375220519
 20
1012.4820151533519947
 30
0.0
 40
0.6814208645073627
 50
133.2330692726040127
 51
162.7517082322181068
  0
ARC
  5
213EC
  8
0
 10
6174.5028494007492554
 20
1012.1110125436889575
 30
0.0
 40
1.9326391332547159
 50
162.7517082322181068
 51
171.645983243813788
  0
ARC
  5
213ED
  8
0
 10
6174.3447588216204167
 20
1012.1342277010520547
 30
0.0
 40
1.7728531052644829
 50
171.645983243813788
 51
180.7868583550917947
  0
LINE
  5
213EE
  8
0
 10
6172.5757697893723162
 20
1012.1098813976959718
 30
0.0
 11
6172.5720728961496206
 21
1009.8921647168959908
 31
0.0
  0
LINE
  5
213EF
  8
0
 10
6172.1969976231503097
 20
1009.8921647168959908
 30
0.0
 11
6172.1969976231503097
 21
1012.1098813976959718
 31
0.0
  0
ARC
  5
213F0
  8
0
 10
6170.1070110402561113
 20
1012.1098813976959718
 30
0.0
 40
2.0899865828934652
 50
0.0
 51
11.1980076940887603
  0
ARC
  5
213F1
  8
0
 10
6170.9933127656013312
 20
1012.285341838271961
 30
0.0
 40
1.186483890836084
 50
11.1980076940887603
 51
29.5331665513896411
  0
ARC
  5
213F2
  8
0
 10
6171.7331321521523932
 20
1012.7044770333980068
 30
0.0
 40
0.3361856863749685
 50
29.5331665513896411
 51
54.5908640178868794
  0
LINE
  5
213F3
  8
0
 10
6172.8411486354352746
 20
1012.9784802745859906
 30
0.0
 11
6172.8411486354498265
 21
1013.096590510795977
 31
0.0
  0
LINE
  5
213F4
  8
0
 10
6171.9279218837491499
 20
1012.9784802745959951
 30
0.0
 11
6171.9279218837491499
 21
1013.096590510795977
 31
0.0
  0
ARC
  5
213F5
  8
0
 10
6172.6762789112317478
 20
1013.193162346886993
 30
0.0
 40
0.2056471273419421
 50
344.6261059969560279
 51
0.5163757509289871
  0
ARC
  5
213F6
  8
0
 10
6172.7814017348582638
 20
1013.1642582223420277
 30
0.0
 40
0.0966230177940205
 50
322.5849057368752142
 51
344.6261059969560279
  0
ARC
  5
213F7
  8
0
 10
6172.8399436086083369
 20
1013.1194751374939642
 30
0.0
 40
0.0229163310500862
 50
273.0142176610045226
 51
322.5849057368752142
  0
ARC
  5
213F8
  8
0
 10
6171.9311778788433003
 20
1013.1237511142350058
 30
0.0
 40
0.0273550705223008
 50
213.5100597629964057
 51
263.164042107527905
  0
ARC
  5
213F9
  8
0
 10
6172.000818082547994
 20
1013.1698625453600471
 30
0.0
 40
0.1108776546096251
 50
191.6557132005960966
 51
213.5100597629964057
  0
ARC
  5
213FA
  8
0
 10
6172.1337063281180235
 20
1013.1972752740219903
 30
0.0
 40
0.2465638495699142
 50
180.525078702307809
 51
191.6557132005960966
  0
LINE
  5
213FB
  8
0
 10
6172.8819176868510112
 20
1013.1950157076960295
 30
0.0
 11
6172.9079699457834067
 21
1013.201180664480944
 31
0.0
  0
LINE
  5
213FC
  8
0
 10
6171.8871528323506936
 20
1013.1950157076960295
 30
0.0
 11
6171.861100572765281
 21
1013.2011806646579544
 31
0.0
  0
ARC
  5
213FD
  8
0
 10
6171.8713233834077982
 20
1013.2205071276799799
 30
0.0
 40
0.0218636232730976
 50
193.0806255686092925
 51
242.123219144075307
  0
ARC
  5
213FE
  8
0
 10
6171.9982645036307076
 20
1013.2500020059260351
 30
0.0
 40
0.1521862837977707
 50
183.6313792732269121
 51
193.0806255686092925
  0
LINE
  5
213FF
  8
0
 10
6171.8463837809513279
 20
1013.240362967895976
 30
0.0
 11
6171.8463837809513279
 21
1013.4605687299959982
 31
0.0
  0
ARC
  5
21400
  8
0
 10
6172.8467561591442063
 20
1013.2389519052389915
 30
0.0
 40
0.0759436893789778
 50
340.5964397686872758
 51
1.0646386573225399
  0
ARC
  5
21401
  8
0
 10
6172.8901838623669391
 20
1013.2236555635580544
 30
0.0
 40
0.0299008454603932
 50
321.5873020516455085
 51
340.5964397686872758
  0
ARC
  5
21402
  8
0
 10
6172.9044020867568179
 20
1013.2123812063190371
 30
0.0
 40
0.0117550736118726
 50
287.6689367354878755
 51
321.5873020516506244
  0
LINE
  5
21403
  8
0
 10
6172.9226998485219156
 20
1013.2389519052389915
 30
0.0
 11
6172.9226998485219156
 21
1013.4605687299959982
 31
0.0
  0
LINE
  5
21404
  8
0
 10
6160.1969503790496674
 20
1009.8921647168959908
 30
0.0
 11
6160.3844880155511419
 21
1009.6810411708960373
 31
0.0
  0
LINE
  5
21405
  8
0
 10
6160.3844880155511419
 20
1009.6810411708960373
 30
0.0
 11
6160.5720256520498879
 21
1009.8921647168959908
 31
0.0
  0
LINE
  5
21406
  8
0
 10
6172.1969976231503097
 20
1009.8921647168959908
 30
0.0
 11
6172.3845352596499652
 21
1009.6810411708960373
 31
0.0
  0
LINE
  5
21407
  8
0
 10
6172.3845352596499652
 20
1009.6810411708960373
 30
0.0
 11
6172.5720728961496206
 21
1009.8921647168959908
 31
0.0
  0
ENDSEC
  0
EOF
