  0
SECTION
  2
HEADER
  9
$ACADVER
  1
AC1009
  9
$INSBASE
 10
5171.1667436992884177
 20
462.8697750513130131
 30
0.0
  9
$EXTMIN
 10
5170.0417436992383955
 20
458.7447750513128994
 30
0.0
  9
$EXTMAX
 10
5172.2917436993384399
 20
466.9947750513130131
 30
0.0
  9
$LIMMIN
 10
0.0
 20
0.0
  9
$LIMMAX
 10
11.6929133858000007
 20
8.2677165353999982
  9
$ORTHOMODE
 70
     0
  9
$REGENMODE
 70
     1
  9
$FILLMODE
 70
     1
  9
$QTEXTMODE
 70
     0
  9
$MIRRTEXT
 70
     0
  9
$DRAGMODE
 70
     2
  9
$LTSCALE
 40
0.6431102362
  9
$OSMODE
 70
  4095
  9
$ATTMODE
 70
     1
  9
$TEXTSIZE
 40
0.2
  9
$TRACEWID
 40
0.05
  9
$TEXTSTYLE
  7
STANDARD
  9
$CLAYER
  8
0
  9
$CELTYPE
  6
BYLAYER
  9
$CECOLOR
 62
   256
  9
$DIMSCALE
 40
1.0
  9
$DIMASZ
 40
0.1875
  9
$DIMEXO
 40
0.0625
  9
$DIMDLI
 40
0.4443307087
  9
$DIMRND
 40
0.0
  9
$DIMDLE
 40
0.0
  9
$DIMEXE
 40
0.125
  9
$DIMTP
 40
0.01
  9
$DIMTM
 40
0.01
  9
$DIMTXT
 40
2.0
  9
$DIMCEN
 40
0.1052362205
  9
$DIMTSZ
 40
0.0
  9
$DIMTOL
 70
     1
  9
$DIMLIM
 70
     0
  9
$DIMTIH
 70
     1
  9
$DIMTOH
 70
     1
  9
$DIMSE1
 70
     0
  9
$DIMSE2
 70
     0
  9
$DIMTAD
 70
     0
  9
$DIMZIN
 70
     0
  9
$DIMBLK
  1

  9
$DIMASO
 70
     1
  9
$DIMSHO
 70
     1
  9
$DIMPOST
  1
\X
  9
$DIMAPOST
  1

  9
$DIMALT
 70
     1
  9
$DIMALTD
 70
     2
  9
$DIMALTF
 40
25.3999999999999986
  9
$DIMLFAC
 40
1.0
  9
$DIMTOFL
 70
     0
  9
$DIMTVP
 40
0.0
  9
$DIMTIX
 70
     0
  9
$DIMSOXD
 70
     0
  9
$DIMSAH
 70
     0
  9
$DIMBLK1
  1

  9
$DIMBLK2
  1

  9
$DIMSTYLE
  2
STANDARD
  9
$DIMCLRD
 70
     0
  9
$DIMCLRE
 70
     0
  9
$DIMCLRT
 70
     0
  9
$DIMTFAC
 40
1.0
  9
$DIMGAP
 40
0.09
  9
$LUNITS
 70
     2
  9
$LUPREC
 70
     4
  9
$SKETCHINC
 40
0.1
  9
$FILLETRAD
 40
0.0
  9
$AUNITS
 70
     0
  9
$AUPREC
 70
     0
  9
$MENU
  1
.
  9
$ELEVATION
 40
0.0
  9
$PELEVATION
 40
0.0
  9
$THICKNESS
 40
0.0
  9
$LIMCHECK
 70
     0
  9
$BLIPMODE
 70
     0
  9
$CHAMFERA
 40
0.0
  9
$CHAMFERB
 40
0.0
  9
$SKPOLY
 70
     0
  9
$TDCREATE
 40
2458060.468368056230247
  9
$TDUPDATE
 40
2460024.6731712957844138
  9
$TDINDWG
 40
0.6488728009
  9
$TDUSRTIMER
 40
0.6488728009
  9
$USRTIMER
 70
     1
  9
$ANGBASE
 50
0.0
  9
$ANGDIR
 70
     0
  9
$PDMODE
 70
     0
  9
$PDSIZE
 40
0.3125
  9
$PLINEWID
 40
0.0
  9
$COORDS
 70
     1
  9
$SPLFRAME
 70
     0
  9
$SPLINETYPE
 70
     6
  9
$SPLINESEGS
 70
     8
  9
$ATTDIA
 70
     1
  9
$ATTREQ
 70
     1
  9
$HANDLING
 70
     1
  9
$HANDSEED
  5
1854C
  9
$SURFTAB1
 70
     6
  9
$SURFTAB2
 70
     6
  9
$SURFTYPE
 70
     6
  9
$SURFU
 70
     6
  9
$SURFV
 70
     6
  9
$UCSNAME
  2

  9
$UCSORG
 10
0.0
 20
0.0
 30
0.0
  9
$UCSXDIR
 10
1.0
 20
0.0
 30
0.0
  9
$UCSYDIR
 10
0.0
 20
1.0
 30
0.0
  9
$PUCSNAME
  2

  9
$PUCSORG
 10
0.0
 20
0.0
 30
0.0
  9
$PUCSXDIR
 10
1.0
 20
0.0
 30
0.0
  9
$PUCSYDIR
 10
0.0
 20
1.0
 30
0.0
  9
$USERI1
 70
     0
  9
$USERI2
 70
     0
  9
$USERI3
 70
     0
  9
$USERI4
 70
     0
  9
$USERI5
 70
     0
  9
$USERR1
 40
0.0
  9
$USERR2
 40
0.0
  9
$USERR3
 40
0.0
  9
$USERR4
 40
0.0
  9
$USERR5
 40
0.0
  9
$WORLDVIEW
 70
     1
  9
$SHADEDGE
 70
     3
  9
$SHADEDIF
 70
    70
  9
$TILEMODE
 70
     1
  9
$MAXACTVP
 70
    64
  9
$PLIMCHECK
 70
     0
  9
$PEXTMIN
 10
1.0000000000000000E+20
 20
1.0000000000000000E+20
 30
1.0000000000000000E+20
  9
$PEXTMAX
 10
-1.0000000000000000E+20
 20
-1.0000000000000000E+20
 30
-1.0000000000000000E+20
  9
$PLIMMIN
 10
0.0
 20
0.0
  9
$PLIMMAX
 10
12.0
 20
9.0
  9
$UNITMODE
 70
     0
  9
$VISRETAIN
 70
     1
  9
$PLINEGEN
 70
     0
  9
$PSLTSCALE
 70
     1
  0
ENDSEC
  0
SECTION
  2
TABLES
  0
TABLE
  2
VPORT
 70
     1
  0
VPORT
  2
*ACTIVE
 70
     0
 10
0.0
 20
0.0
 11
1.0
 21
1.0
 12
1367.6226763164759177
 22
336.8745128545630223
 13
0.0
 23
0.0
 14
1.0
 24
1.0
 15
0.0
 25
0.0
 16
0.0
 26
0.0
 36
17.1152628219792007
 17
3803.5440673828129547
 27
125.9952621967499056
 37
0.0
 40
8.3185283845379576
 41
2.5251322751322749
 42
50.0
 43
0.0
 44
0.0
 50
0.0
 51
0.0
 71
     0
 72
   100
 73
     1
 74
     1
 75
     0
 76
     0
 77
     0
 78
     0
  0
ENDTAB
  0
TABLE
  2
LTYPE
 70
     2
  0
LTYPE
  2
CONTINUOUS
 70
     0
  3
Solid line
 72
    65
 73
     0
 40
0.0
  0
LTYPE
  2
PHANTOM2
 70
     0
  3
___ _ _ ___ _ _ ___ _ _ ___ _ _
 72
    65
 73
     6
 40
1.25
 49
0.625
 49
-0.125
 49
0.125
 49
-0.125
 49
0.125
 49
-0.125
  0
ENDTAB
  0
TABLE
  2
LAYER
 70
     2
  0
LAYER
  2
0
 70
     0
 62
   255
  6
CONTINUOUS
  0
LAYER
  2
DEFPOINTS
 70
     0
 62
     7
  6
CONTINUOUS
  0
ENDTAB
  0
TABLE
  2
STYLE
 70
     1
  0
STYLE
  2
STANDARD
 70
     0
 40
0.0
 41
0.8
 50
0.0
 71
     0
 42
0.2
  3
txt
  4

  0
ENDTAB
  0
TABLE
  2
VIEW
 70
     0
  0
ENDTAB
  0
TABLE
  2
UCS
 70
     0
  0
ENDTAB
  0
TABLE
  2
APPID
 70
    10
  0
APPID
  2
ACAD
 70
     0
  0
APPID
  2
ACAD_MLEADERVER
 70
     0
  0
APPID
  2
ACAD_EXEMPT_FROM_CAD_STANDARDS
 70
     0
  0
APPID
  2
ACAD_NAV_VCDISPLAY
 70
     0
  0
APPID
  2
ACAECLAYERSTANDARD
 70
     0
  0
APPID
  2
ACCMTRANSPARENCY
 70
     0
  0
APPID
  2
ACAD_DSTYLE_DIMJAG
 70
     0
  0
APPID
  2
ACAD_DSTYLE_DIMTALN
 70
     0
  0
APPID
  2
ACDBATTR
 70
     0
  0
APPID
  2
ACADANNOTATIVE
 70
     0
  0
ENDTAB
  0
TABLE
  2
DIMSTYLE
 70
     2
  0
DIMSTYLE
  2
STANDARD
 70
     0
  3

  4

  5

  6

  7

 40
1.0
 41
0.1875
 42
0.0625
 43
0.38
 44
0.125
 45
0.0
 46
0.0
 47
0.01
 48
0.01
140
0.15625
141
0.09
142
0.0
143
25.3999999999999986
144
1.0
145
0.0
146
1.0
147
0.09
 71
     1
 72
     0
 73
     1
 74
     1
 75
     0
 76
     0
 77
     0
 78
     4
170
     0
171
     2
172
     0
173
     0
174
     0
175
     0
176
     0
177
     0
178
     0
  0
DIMSTYLE
  2
ANNOTATIVE
 70
     0
  3

  4

  5

  6

  7

 40
0.0
 41
0.18
 42
0.0625
 43
0.38
 44
0.18
 45
0.0
 46
0.0
 47
0.0
 48
0.0
140
0.18
141
0.09
142
0.0
143
25.3999999999999986
144
1.0
145
0.0
146
1.0
147
0.09
 71
     0
 72
     0
 73
     1
 74
     1
 75
     0
 76
     0
 77
     0
 78
     0
170
     0
171
     2
172
     0
173
     0
174
     0
175
     0
176
     0
177
     0
178
     0
  0
ENDTAB
  0
ENDSEC
  0
SECTION
  2
BLOCKS
  0
BLOCK
  8
0
  2
$MODEL_SPACE
 70
     0
 10
0.0
 20
0.0
 30
0.0
  3
$MODEL_SPACE
  1

  0
ENDBLK
  5
21
  8
0
  0
BLOCK
 67
     1
  8
0
  2
$PAPER_SPACE
 70
     0
 10
0.0
 20
0.0
 30
0.0
  3
$PAPER_SPACE
  1

  0
ENDBLK
  5
1D
 67
     1
  8
0
  0
BLOCK
  8
0
  2
_FILLED
 70
     0
 10
0.0
 20
0.0
 30
0.0
  3
_FILLED
  1

  0
SOLID
  5
13053
  8
0
  6
BYBLOCK
 62
     0
 10
0.0
 20
0.0
 30
0.0
 11
-1.0
 21
0.1666666667
 31
0.0
 12
-1.0
 22
-0.1666666667
 32
0.0
 13
-1.0
 23
-0.1666666667
 33
0.0
  0
ENDBLK
  5
13054
  8
0
  6
BYBLOCK
 62
     0
  0
ENDSEC
  0
SECTION
  2
ENTITIES
  0
ATTDEF
  5
3930
  8
DEFPOINTS
 10
5171.164547029795358
 20
462.8744090028071128
 30
0.0
 40
0.001
  1
P31003-PL
  3

  2
MODELNUMBER
 70
     0
1001
ACDBATTR
1070
     0
1070
     1
  0
ATTDEF
  5
3931
  8
DEFPOINTS
 10
5171.164547029795358
 20
462.8727423361405044
 30
0.0
 40
0.001
  1
FOR TOWN
  3

  2
TRADENAME
 70
     0
1001
ACDBATTR
1070
     0
1070
     1
  0
ATTDEF
  5
3932
  8
DEFPOINTS
 10
5171.164547029795358
 20
462.8710756694737825
 30
0.0
 40
0.001
  1
SHOWER DOOR HANDLE
  3

  2
PRODUCT
 70
     0
1001
ACDBATTR
1070
     0
1070
     1
  0
ARC
  5
1831A
  8
0
 10
5171.1688522216509227
 20
459.0649361922568801
 30
0.0
 40
0.1432969461715374
 50
90.8431009755773147
 51
126.2273640250715943
  0
ARC
  5
1831B
  8
0
 10
5171.1530025608553842
 20
459.1042702396363779
 30
0.0
 40
0.102733960053901
 50
132.0714157102781883
 51
183.4796115551307878
  0
ARC
  5
1831C
  8
0
 10
5171.283949462936107
 20
459.1084293241059981
 30
0.0
 40
0.2337227163666675
 50
182.5489565774311131
 51
213.4659084877160069
  0
ARC
  5
1831D
  8
0
 10
5171.206597699941085
 20
459.0491834497811965
 30
0.0
 40
0.1366918943012419
 50
210.6275242412727096
 51
241.2893924386083881
  0
ARC
  5
1831E
  8
0
 10
5171.168170060454031
 20
458.9775305194690986
 30
0.0
 40
0.0553927286003604
 50
240.546894044061105
 51
268.5244721848068821
  0
ARC
  5
1831F
  8
0
 10
5171.1693580921792091
 20
459.1129235478783812
 30
0.0
 40
0.1087593133928722
 50
141.5653362309153067
 51
179.7339069031665133
  0
ARC
  5
18320
  8
0
 10
5171.2976362376639372
 20
459.1099229234536097
 30
0.0
 40
0.2370622090625051
 50
179.1526678310023897
 51
204.8840234830740883
  0
ARC
  5
18321
  8
0
 10
5171.2382542014483988
 20
459.0711553575172843
 30
0.0
 40
0.1671906929418503
 50
201.3926936858725014
 51
235.3317595933748123
  0
ARC
  5
18322
  8
0
 10
5171.1673750459558505
 20
459.0139767382693776
 30
0.0
 40
0.0839016558787326
 50
253.2195237567779031
 51
269.5688542341700895
  0
ARC
  5
18323
  8
0
 10
5171.1646351768249588
 20
459.0649361922568801
 30
0.0
 40
0.1432969461715374
 50
53.7726359749283631
 51
89.1568990244226853
  0
ARC
  5
18324
  8
0
 10
5171.1804848376232258
 20
459.1042702396363779
 30
0.0
 40
0.102733960053901
 50
356.5203884448691838
 51
47.9285842897239931
  0
ARC
  5
18325
  8
0
 10
5171.049537935540684
 20
459.1084293241059981
 30
0.0
 40
0.2337227163666675
 50
326.5340915122840215
 51
357.4510434225688869
  0
ARC
  5
18326
  8
0
 10
5171.126889698535706
 20
459.0491834497811965
 30
0.0
 40
0.1366918943012419
 50
298.7106075613917255
 51
329.3724757587273189
  0
ARC
  5
18327
  8
0
 10
5171.1653173380218504
 20
458.9775305194690986
 30
0.0
 40
0.0553927286003604
 50
271.4755278151931179
 51
299.4531059559387813
  0
ARC
  5
18328
  8
0
 10
5171.1641293062975819
 20
459.1129235478783812
 30
0.0
 40
0.1087593133928722
 50
0.2660930968335294
 51
38.4346637690846222
  0
ARC
  5
18329
  8
0
 10
5171.0358511608137633
 20
459.1099229234536097
 30
0.0
 40
0.2370622090625051
 50
335.1159765169259117
 51
0.8473321689976113
  0
ARC
  5
1832A
  8
0
 10
5171.0952331970293017
 20
459.0711553575172843
 30
0.0
 40
0.1671906929418503
 50
304.6682404066252161
 51
338.607306314127527
  0
ARC
  5
1832B
  8
0
 10
5171.16611235252185
 20
459.0139767382693776
 30
0.0
 40
0.0839016558787326
 50
270.4311457658299105
 51
286.7804762432220969
  0
LINE
  5
1832C
  8
0
 10
5170.7604936993384399
 20
460.1706318326129121
 30
0.0
 11
5170.7604936993384399
 21
465.5689182700130004
 31
0.0
  0
LINE
  5
1832D
  8
0
 10
5171.5729936993393494
 20
460.1706318326425276
 30
0.0
 11
5171.5729936993393494
 21
465.568918269983385
 31
0.0
  0
LINE
  5
1832E
  8
0
 10
5170.7256062552378353
 20
458.7447750513128994
 30
0.0
 11
5171.6078811432389557
 21
458.7447750513128994
 31
0.0
  0
LINE
  5
1832F
  8
0
 10
5170.7616153666385799
 20
458.8326025313128866
 30
0.0
 11
5171.5718716662377119
 21
458.8326025313128866
 31
0.0
  0
LINE
  5
18330
  8
0
 10
5170.797297063838414
 20
458.9178519743128959
 30
0.0
 11
5171.5361903345383325
 21
458.9178519743128959
 31
0.0
  0
LINE
  5
18331
  8
0
 10
5170.984489726438369
 20
459.3697750513130131
 30
0.0
 11
5171.3489976668388408
 21
459.3697750513130131
 31
0.0
  0
LINE
  5
18332
  8
0
 10
5171.6503075500377236
 20
458.7623486443130219
 30
0.0
 11
5172.274170106238671
 21
459.386211200513003
 31
0.0
  0
LINE
  5
18333
  8
0
 10
5171.6136664429377561
 20
458.8499143208130135
 30
0.0
 11
5172.1866041404382486
 21
459.4228520183128808
 31
0.0
  0
LINE
  5
18334
  8
0
 10
5170.0593172923390739
 20
459.3862112006129905
 30
0.0
 11
5170.6831798485391118
 21
458.7623486444130094
 31
0.0
  0
LINE
  5
18335
  8
0
 10
5170.1468826053378507
 20
459.4228527123129879
 30
0.0
 11
5170.7198207105384427
 21
458.8499145958130043
 31
0.0
  0
LINE
  5
18336
  8
0
 10
5171.5786167413098156
 20
458.9354255674418255
 30
0.0
 11
5172.1010931836390228
 21
459.4579020099129139
 31
0.0
  0
LINE
  5
18337
  8
0
 10
5171.3914240698377398
 20
459.3873486405129256
 30
0.0
 11
5171.6491701192389883
 21
459.6450946900129111
 31
0.0
  0
LINE
  5
18338
  8
0
 10
5170.2323942149387221
 20
459.4579020099129139
 30
0.0
 11
5170.7548706575389588
 21
458.9354255674130059
 31
0.0
  0
LINE
  5
18339
  8
0
 10
5170.6843172886392495
 20
459.6450946808129174
 30
0.0
 11
5170.9420633250383617
 21
459.3873486444130094
 31
0.0
  0
LINE
  5
1833A
  8
0
 10
5170.0417436992383955
 20
460.3109124954054892
 30
0.0
 11
5170.0417436992383955
 21
459.4286376073129077
 31
0.0
  0
LINE
  5
1833B
  8
0
 10
5170.1295711696384387
 20
460.2749030237129091
 30
0.0
 11
5170.1295711696384387
 21
459.4646470790129911
 31
0.0
  0
LINE
  5
1833C
  8
0
 10
5170.2148206224383102
 20
460.2392216866077774
 30
0.0
 11
5170.2148206224383102
 21
459.5003284161130068
 31
0.0
  0
LINE
  5
1833D
  8
0
 10
5170.6667436992383955
 20
460.0520290189140837
 30
0.0
 11
5170.6667436992383955
 21
459.6875210838128964
 31
0.0
  0
LINE
  5
1833E
  8
0
 10
5171.6667436993384399
 20
459.6875210829384741
 30
0.0
 11
5171.6667436993384399
 21
460.052029019787426
 31
0.0
  0
LINE
  5
1833F
  8
0
 10
5172.118666776338614
 20
459.5003284146673082
 30
0.0
 11
5172.118666776338614
 21
460.239221688058592
 31
0.0
  0
LINE
  5
18340
  8
0
 10
5172.2039161829388831
 20
459.4646467873129154
 30
0.0
 11
5172.2039161829388831
 21
460.2749033154129847
 31
0.0
  0
LINE
  5
18341
  8
0
 10
5172.2917436993384399
 20
459.4286376074130089
 30
0.0
 11
5172.2917436993384399
 21
460.3109124953653009
 31
0.0
  0
ARC
  5
18342
  8
0
 10
5170.1112886218979838
 20
459.4325912438526984
 30
0.0
 40
0.0696572143396757
 50
183.2537690905190004
 51
221.7462311400281862
  0
ARC
  5
18343
  8
0
 10
5170.2772576922661756
 20
459.5013378835100752
 30
0.0
 40
0.0624452297064674
 50
180.9262635562517971
 51
224.0737356300539034
  0
ARC
  5
18344
  8
0
 10
5170.729134818269813
 20
458.8132937555508875
 30
0.0
 40
0.068609500698457
 50
227.9480026228542044
 51
267.051997369951323
  0
ARC
  5
18345
  8
0
 10
5170.8032199785911871
 20
458.9921511542617054
 30
0.0
 40
0.0745348848143989
 50
229.5578143964611115
 51
265.4421856940256248
  0
ARC
  5
18346
  8
0
 10
5170.7303982658868335
 20
459.6890348548424186
 30
0.0
 40
0.0636725636193818
 50
181.3622957649012903
 51
223.6376993364949044
  0
ARC
  5
18347
  8
0
 10
5170.9925308861784288
 20
459.4491881124195061
 30
0.0
 40
0.0798191363287312
 50
230.7819091268389968
 51
264.2180856222702232
  0
ARC
  5
18348
  8
0
 10
5171.6030999018457806
 20
458.8163179891313916
 30
0.0
 40
0.0717025259031782
 50
273.8234130439641945
 51
311.1765869489431111
  0
ARC
  5
18349
  8
0
 10
5171.5344358128977547
 20
458.9820877640041203
 30
0.0
 40
0.0642597465246523
 50
271.5645747866440161
 51
313.4354253038158049
  0
ARC
  5
1834A
  8
0
 10
5171.3460846970610874
 20
459.4368075835259901
 30
0.0
 40
0.067095795455566
 50
272.4882833361132271
 51
312.5117113042346091
  0
ARC
  5
1834B
  8
0
 10
5171.5958147548690249
 20
459.6920479990089916
 30
0.0
 40
0.0710732589144289
 50
318.6518667173431822
 51
356.3481500022642763
  0
ARC
  5
1834C
  8
0
 10
5172.0560546641008841
 20
459.5014103886983889
 30
0.0
 40
0.0626214601131558
 50
315.9900051128926179
 51
359.0099938542143718
  0
ARC
  5
1834D
  8
0
 10
5172.2265800066288648
 20
459.4307764788625263
 30
0.0
 40
0.0651987854087027
 50
316.8799476674624884
 51
358.1200523780518097
  0
ARC
  5
1834E
  8
0
 10
5172.1384825380946495
 20
459.467267576408176
 30
0.0
 40
0.0654861085505409
 50
317.2934275791968162
 51
357.7063797158868965
  0
ARC
  5
1834F
  8
0
 10
5170.1984961933831073
 20
459.4687137435702766
 30
0.0
 40
0.0690448887235435
 50
183.3766097415654883
 51
221.6225528660843906
  0
ARC
  5
18350
  8
0
 10
5170.7665610668482259
 20
458.9036486083020918
 30
0.0
 40
0.0712180104055067
 50
228.9817290121737017
 51
266.017917355983684
  0
ARC
  5
18351
  8
0
 10
5171.569495916211963
 20
458.8974453165961904
 30
0.0
 40
0.0648862927857643
 50
272.0982995919030145
 51
312.9012935664828206
  0
LINE
  5
18352
  8
0
 10
5172.2868158300234427
 20
459.4058259839001721
 30
0.0
 11
5171.1667436993875526
 21
459.8697750513629217
 31
0.0
  0
LINE
  5
18353
  8
0
 10
5171.1667436993875526
 20
459.8697750513629217
 30
0.0
 11
5171.6305392705626218
 21
458.7500734930184763
 31
0.0
  0
LINE
  5
18354
  8
0
 10
5171.1667436993875526
 20
459.8697750513629217
 30
0.0
 11
5170.7028790988415494
 21
458.7499068422055188
 31
0.0
  0
LINE
  5
18355
  8
0
 10
5171.1667436993875526
 20
459.8697750513629217
 30
0.0
 11
5170.0469337473341511
 21
459.4059345818437237
 31
0.0
  0
LINE
  5
18356
  8
0
 10
5170.7256062552378353
 20
460.994775051412887
 30
0.0
 11
5170.7604936993384399
 21
460.994775051412887
 31
0.0
  0
LINE
  5
18357
  8
0
 10
5171.5729936993393494
 20
460.994775051412887
 30
0.0
 11
5171.6078811432389557
 21
460.994775051412887
 31
0.0
  0
LINE
  5
18358
  8
0
 10
5170.984489726438369
 20
460.3697750514130007
 30
0.0
 11
5171.3489976668388408
 21
460.3697750514130007
 31
0.0
  0
LINE
  5
18359
  8
0
 10
5171.6503075500377236
 20
460.9772014584128783
 30
0.0
 11
5172.274170106238671
 21
460.3533389022130109
 31
0.0
  0
LINE
  5
1835A
  8
0
 10
5171.6136664429377561
 20
460.8896357819130003
 30
0.0
 11
5172.1866041404382486
 21
460.3166980844130194
 31
0.0
  0
LINE
  5
1835B
  8
0
 10
5170.0593172923390739
 20
460.3533389021129096
 30
0.0
 11
5170.6831798485391118
 21
460.9772014583128907
 31
0.0
  0
LINE
  5
1835C
  8
0
 10
5170.1468826053378507
 20
460.3166973904129122
 30
0.0
 11
5170.7198207105384427
 21
460.8896355069130095
 31
0.0
  0
LINE
  5
1835D
  8
0
 10
5171.5786167413098156
 20
460.8041245352841884
 30
0.0
 11
5172.1010931836390228
 21
460.2816480928129863
 31
0.0
  0
LINE
  5
1835E
  8
0
 10
5171.3914240698377398
 20
460.3522014622129745
 30
0.0
 11
5171.6491701192389883
 21
460.0944554127129891
 31
0.0
  0
LINE
  5
1835F
  8
0
 10
5170.2323942149387221
 20
460.2816480928129863
 30
0.0
 11
5170.7548706575389588
 21
460.8041245353128943
 31
0.0
  0
LINE
  5
18360
  8
0
 10
5170.6843172886392495
 20
460.0944554219129827
 30
0.0
 11
5170.9420633250383617
 21
460.3522014583130044
 31
0.0
  0
ARC
  5
18361
  8
0
 10
5170.1112886218943459
 20
460.3069588588753049
 30
0.0
 40
0.0696572143358992
 50
138.2537688594372867
 51
176.7462309171164918
  0
ARC
  5
18362
  8
0
 10
5170.2772576922661756
 20
460.2382122192158249
 30
0.0
 40
0.0624452297064674
 50
135.9262643699460966
 51
179.0737364437480892
  0
ARC
  5
18363
  8
0
 10
5170.729134818269813
 20
460.9262563471751264
 30
0.0
 40
0.068609500698457
 50
92.9480026300487623
 51
132.0519973771457956
  0
ARC
  5
18364
  8
0
 10
5170.8032199785911871
 20
460.7473989484641947
 30
0.0
 40
0.0745348848143989
 50
124.976379213297804
 51
130.4421856035388885
  0
ARC
  5
18365
  8
0
 10
5170.7303982658868335
 20
460.0505152478834248
 30
0.0
 40
0.0636725636193876
 50
136.3623006635050103
 51
178.6377042350954127
  0
ARC
  5
18366
  8
0
 10
5170.9925308861784288
 20
460.2903619903065078
 30
0.0
 40
0.0798191363287312
 50
95.7819143777298336
 51
129.2180908731610032
  0
ARC
  5
18367
  8
0
 10
5171.6030999018457806
 20
460.9232321135943948
 30
0.0
 40
0.0717025259031782
 50
48.8234130510568392
 51
86.1765869560358766
  0
ARC
  5
18368
  8
0
 10
5171.5344358128977547
 20
460.7574623387217798
 30
0.0
 40
0.0642597465246523
 50
46.5645746961842022
 51
53.1278303115669885
  0
ARC
  5
18369
  8
0
 10
5171.3460846970610874
 20
460.3027425192000237
 30
0.0
 40
0.067095795455566
 50
47.4882886957654407
 51
87.5117166638867445
  0
ARC
  5
1836A
  8
0
 10
5171.5958147548690249
 20
460.0475021037169086
 30
0.0
 40
0.0710732589144105
 50
3.651849997732441
 51
41.3481332826616779
  0
ARC
  5
1836B
  8
0
 10
5172.0560546641008841
 20
460.2381397140276249
 30
0.0
 40
0.0626214601131437
 50
0.9900061457724959
 51
44.0099948871050088
  0
ARC
  5
1836C
  8
0
 10
5172.2265800066288648
 20
460.308773623863317
 30
0.0
 40
0.0651987854087027
 50
1.8799476219481941
 51
43.1200523325374476
  0
ARC
  5
1836D
  8
0
 10
5172.1384825380946495
 20
460.2722825263177242
 30
0.0
 40
0.0654861085505409
 50
2.2936202841130529
 51
42.7065724208032194
  0
ARC
  5
1836E
  8
0
 10
5170.1984961933831073
 20
460.2708363591556235
 30
0.0
 40
0.0690448887235435
 50
138.3774471339156094
 51
176.623390258434398
  0
ARC
  5
1836F
  8
0
 10
5170.7665610668482259
 20
460.8359014944236947
 30
0.0
 40
0.0712180104055067
 50
94.8871971329306518
 51
131.0182709878262983
  0
ARC
  5
18370
  8
0
 10
5171.569495916211963
 20
460.8421047861297097
 30
0.0
 40
0.0648862927857643
 50
47.0987064335171581
 51
86.9098959085479379
  0
LINE
  5
18371
  8
0
 10
5172.2868158300234427
 20
460.3337241188257281
 30
0.0
 11
5171.1667436993875526
 21
459.8697750513629217
 31
0.0
  0
LINE
  5
18372
  8
0
 10
5171.1667436993875526
 20
459.8697750513629217
 30
0.0
 11
5171.371761145959681
 21
460.3647309515062034
 31
0.0
  0
LINE
  5
18373
  8
0
 10
5171.5729936993393494
 20
460.8505493111720739
 30
0.0
 11
5171.6305392705626218
 21
460.9894766097074807
 31
0.0
  0
LINE
  5
18374
  8
0
 10
5171.1667436993875526
 20
459.8697750513629217
 30
0.0
 11
5170.9619854241245775
 21
460.3641052562514915
 31
0.0
  0
LINE
  5
18375
  8
0
 10
5170.7604936993384399
 20
460.8505493106820836
 30
0.0
 11
5170.7028790988415494
 21
460.9896432605203813
 31
0.0
  0
LINE
  5
18376
  8
0
 10
5171.1667436993875526
 20
459.8697750513629217
 30
0.0
 11
5170.0469337473341511
 21
460.3336155208822902
 31
0.0
  0
LINE
  5
18377
  8
0
 10
5170.7256062552378353
 20
466.9947750513130131
 30
0.0
 11
5171.6078811432389557
 21
466.9947750513130131
 31
0.0
  0
LINE
  5
18378
  8
0
 10
5170.7616153666385799
 20
466.9069475713129123
 30
0.0
 11
5171.5718716662377119
 21
466.9069475713129123
 31
0.0
  0
LINE
  5
18379
  8
0
 10
5170.797297063838414
 20
466.8216981283130167
 30
0.0
 11
5171.5361903345383325
 21
466.8216981283130167
 31
0.0
  0
LINE
  5
1837A
  8
0
 10
5170.984489726438369
 20
466.3697750513128994
 30
0.0
 11
5171.3489976668388408
 21
466.3697750513128994
 31
0.0
  0
LINE
  5
1837B
  8
0
 10
5171.6503075500377236
 20
466.9772014583130044
 30
0.0
 11
5172.274170106238671
 21
466.3533389021130233
 31
0.0
  0
LINE
  5
1837C
  8
0
 10
5171.6136664429377561
 20
466.889635781812899
 30
0.0
 11
5172.1866041404382486
 21
466.3166980843129181
 31
0.0
  0
LINE
  5
1837D
  8
0
 10
5170.0593172923390739
 20
466.3533389020129789
 30
0.0
 11
5170.6831798485391118
 21
466.9772014582130168
 31
0.0
  0
LINE
  5
1837E
  8
0
 10
5170.1468826053378507
 20
466.3166973903129815
 30
0.0
 11
5170.7198207105384427
 21
466.8896355068130219
 31
0.0
  0
LINE
  5
1837F
  8
0
 10
5171.5786167413098156
 20
466.8041245351842008
 30
0.0
 11
5172.1010931836390228
 21
466.2816480927129987
 31
0.0
  0
LINE
  5
18380
  8
0
 10
5171.3914240698377398
 20
466.3522014621128733
 30
0.0
 11
5171.6491701192389883
 21
466.0944554126130015
 31
0.0
  0
LINE
  5
18381
  8
0
 10
5170.2323942149387221
 20
466.2816480927129987
 30
0.0
 11
5170.7548706575389588
 21
466.8041245352130204
 31
0.0
  0
LINE
  5
18382
  8
0
 10
5170.6843172886392495
 20
466.0944554218128815
 30
0.0
 11
5170.9420633250383617
 21
466.3522014582130168
 31
0.0
  0
LINE
  5
18383
  8
0
 10
5170.0417436992383955
 20
465.4286376072204234
 30
0.0
 11
5170.0417436992383955
 21
466.3109124953130049
 31
0.0
  0
LINE
  5
18384
  8
0
 10
5170.1295711696384387
 20
465.4646470789128898
 30
0.0
 11
5170.1295711696384387
 21
466.2749030236129215
 31
0.0
  0
LINE
  5
18385
  8
0
 10
5170.2148206224383102
 20
465.500328416018192
 30
0.0
 11
5170.2148206224383102
 21
466.2392216865129058
 31
0.0
  0
LINE
  5
18386
  8
0
 10
5170.6667436992383955
 20
465.687521083711772
 30
0.0
 11
5170.6667436992383955
 21
466.0520290188130161
 31
0.0
  0
LINE
  5
18387
  8
0
 10
5171.6667436993384399
 20
466.0520290196873816
 30
0.0
 11
5171.6667436993384399
 21
465.6875210828386003
 31
0.0
  0
LINE
  5
18388
  8
0
 10
5172.118666776338614
 20
466.2392216879586044
 30
0.0
 11
5172.118666776338614
 21
465.5003284145673206
 31
0.0
  0
LINE
  5
18389
  8
0
 10
5172.2039161829388831
 20
466.2749033153128835
 30
0.0
 11
5172.2039161829388831
 21
465.4646467872129278
 31
0.0
  0
LINE
  5
1838A
  8
0
 10
5172.2917436993384399
 20
466.3109124952129037
 30
0.0
 11
5172.2917436993384399
 21
465.4286376072606117
 31
0.0
  0
ARC
  5
1838B
  8
0
 10
5170.1112886218979838
 20
466.3069588587732142
 30
0.0
 40
0.0696572143396757
 50
138.2537688599717001
 51
176.7462309094809996
  0
ARC
  5
1838C
  8
0
 10
5170.2772576922661756
 20
466.2382122191157237
 30
0.0
 40
0.0624452297064674
 50
135.9262643699460966
 51
179.0737364437480892
  0
ARC
  5
1838D
  8
0
 10
5170.729134818269813
 20
466.9262563470750251
 30
0.0
 40
0.068609500698457
 50
92.9480026300487623
 51
132.0519973771457956
  0
ARC
  5
1838E
  8
0
 10
5170.8032199785911871
 20
466.7473989483642072
 30
0.0
 40
0.0745348848143989
 50
94.5578143059744463
 51
130.4421856035388885
  0
ARC
  5
1838F
  8
0
 10
5170.7303982658868335
 20
466.050515247783494
 30
0.0
 40
0.0636725636193818
 50
136.3623006635050103
 51
178.6377042350987097
  0
ARC
  5
18390
  8
0
 10
5170.9925308861784288
 20
466.2903619902064065
 30
0.0
 40
0.0798191363287312
 50
95.7819143777298336
 51
129.2180908731610032
  0
ARC
  5
18391
  8
0
 10
5171.6030999018457806
 20
466.9232321134944073
 30
0.0
 40
0.0717025259031782
 50
48.8234130510568392
 51
86.1765869560358766
  0
ARC
  5
18392
  8
0
 10
5171.5344358128977547
 20
466.7574623386219059
 30
0.0
 40
0.0642597465246523
 50
46.5645746961842022
 51
88.4354252133560124
  0
ARC
  5
18393
  8
0
 10
5171.3460846970610874
 20
466.3027425190999793
 30
0.0
 40
0.067095795455566
 50
47.4882886957654407
 51
87.5117166638867445
  0
ARC
  5
18394
  8
0
 10
5171.5958147548690249
 20
466.0475021036169778
 30
0.0
 40
0.0710732589144289
 50
3.6518499977356922
 51
41.3481332826567822
  0
ARC
  5
18395
  8
0
 10
5172.0560546641008841
 20
466.2381397139275805
 30
0.0
 40
0.0626214601131558
 50
0.9900061457855215
 51
44.0099948871073394
  0
ARC
  5
18396
  8
0
 10
5172.2265800066288648
 20
466.3087736237633862
 30
0.0
 40
0.0651987854087027
 50
1.8799476219481941
 51
43.1200523325374476
  0
ARC
  5
18397
  8
0
 10
5172.1384825380946495
 20
466.2722825262177935
 30
0.0
 40
0.0654861085505409
 50
2.2936202841130529
 51
42.7065724208032194
  0
ARC
  5
18398
  8
0
 10
5170.1984961933831073
 20
466.2708363590556928
 30
0.0
 40
0.0690448887235435
 50
138.3774471339156094
 51
176.623390258434398
  0
ARC
  5
18399
  8
0
 10
5170.7665610668482259
 20
466.8359014943237071
 30
0.0
 40
0.0712180104055067
 50
93.9820826440162733
 51
131.0182709878262983
  0
ARC
  5
1839A
  8
0
 10
5171.569495916211963
 20
466.8421047860297222
 30
0.0
 40
0.0648862927857643
 50
47.0987064335171581
 51
87.9017004080969997
  0
LINE
  5
1839B
  8
0
 10
5172.2868158300234427
 20
466.3337241187256836
 30
0.0
 11
5171.1667436993875526
 21
465.8697750512628772
 31
0.0
  0
LINE
  5
1839C
  8
0
 10
5171.1667436993875526
 20
465.8697750512628772
 30
0.0
 11
5171.6305392705626218
 21
466.9894766096073795
 31
0.0
  0
LINE
  5
1839D
  8
0
 10
5171.1667436993875526
 20
465.8697750512628772
 30
0.0
 11
5170.7028790988415494
 21
466.9896432604202801
 31
0.0
  0
LINE
  5
1839E
  8
0
 10
5171.1667436993875526
 20
465.8697750512628772
 30
0.0
 11
5170.0469337473341511
 21
466.3336155207821889
 31
0.0
  0
LINE
  5
1839F
  8
0
 10
5170.7256062552378353
 20
464.7447750512129119
 30
0.0
 11
5170.7604936993384399
 21
464.7447750512129119
 31
0.0
  0
LINE
  5
183A0
  8
0
 10
5171.5729936993393494
 20
464.7447750512129119
 30
0.0
 11
5171.6078811432389557
 21
464.7447750512129119
 31
0.0
  0
LINE
  5
183A1
  8
0
 10
5170.984489726438369
 20
465.3697750512129119
 30
0.0
 11
5171.3489976668388408
 21
465.3697750512129119
 31
0.0
  0
LINE
  5
183A2
  8
0
 10
5171.6503075500377236
 20
464.7623486442129206
 30
0.0
 11
5172.274170106238671
 21
465.3862112004130154
 31
0.0
  0
LINE
  5
183A3
  8
0
 10
5171.6136664429377561
 20
464.8499143207129123
 30
0.0
 11
5172.1866041404382486
 21
465.4228520182130069
 31
0.0
  0
LINE
  5
183A4
  8
0
 10
5170.0593172923390739
 20
465.3862112005128893
 30
0.0
 11
5170.6831798485391118
 21
464.7623486443130219
 31
0.0
  0
LINE
  5
183A5
  8
0
 10
5170.1468826053378507
 20
465.4228527122128867
 30
0.0
 11
5170.7198207105384427
 21
464.8499145957130168
 31
0.0
  0
LINE
  5
183A6
  8
0
 10
5171.5786167413098156
 20
464.9354255673417811
 30
0.0
 11
5172.1010931836390228
 21
465.4579020098129831
 31
0.0
  0
LINE
  5
183A7
  8
0
 10
5171.3914240698377398
 20
465.3873486404129949
 30
0.0
 11
5171.6491701192389883
 21
465.6450946899129804
 31
0.0
  0
LINE
  5
183A8
  8
0
 10
5170.2323942149387221
 20
465.4579020098129831
 30
0.0
 11
5170.7548706575389588
 21
464.9354255673130183
 31
0.0
  0
LINE
  5
183A9
  8
0
 10
5170.6843172886392495
 20
465.6450946807129867
 30
0.0
 11
5170.9420633250383617
 21
465.3873486443130219
 31
0.0
  0
ARC
  5
183AA
  8
0
 10
5170.1112886218943459
 20
465.4325912437506076
 30
0.0
 40
0.0696572143358992
 50
183.2537690828835082
 51
221.7462311405627133
  0
ARC
  5
183AB
  8
0
 10
5170.2772576922661756
 20
465.5013378834102014
 30
0.0
 40
0.0624452297064674
 50
180.9262635562517971
 51
224.0737356300539034
  0
ARC
  5
183AC
  8
0
 10
5170.729134818269813
 20
464.8132937554508999
 30
0.0
 40
0.068609500698457
 50
227.9480026228542044
 51
267.051997369951323
  0
ARC
  5
183AD
  8
0
 10
5170.8032199785911871
 20
464.9921511541617178
 30
0.0
 40
0.0745348848143989
 50
229.5578143964611115
 51
235.0236207867021108
  0
ARC
  5
183AE
  8
0
 10
5170.7303982658868335
 20
465.6890348547424878
 30
0.0
 40
0.0636725636193876
 50
181.362295764904502
 51
223.6376993364949044
  0
ARC
  5
183AF
  8
0
 10
5170.9925308861784288
 20
465.4491881123195185
 30
0.0
 40
0.0798191363287312
 50
230.7819091268389968
 51
264.2180856222702232
  0
ARC
  5
183B0
  8
0
 10
5171.6030999018457806
 20
464.8163179890315178
 30
0.0
 40
0.0717025259031782
 50
273.8234130439641945
 51
311.1765869489431111
  0
ARC
  5
183B1
  8
0
 10
5171.5344358128977547
 20
464.9820877639040759
 30
0.0
 40
0.0642597465246523
 50
306.8721696884330186
 51
313.4354253038158049
  0
ARC
  5
183B2
  8
0
 10
5171.3460846970610874
 20
465.4368075834258889
 30
0.0
 40
0.067095795455566
 50
272.4882833361132271
 51
312.5117113042346091
  0
ARC
  5
183B3
  8
0
 10
5171.5958147548690249
 20
465.6920479989088903
 30
0.0
 40
0.0710732589144105
 50
318.6518667173382937
 51
356.3481500022675164
  0
ARC
  5
183B4
  8
0
 10
5172.0560546641008841
 20
465.5014103885982877
 30
0.0
 40
0.0626214601131437
 50
315.9900051128948917
 51
359.0099938542275027
  0
ARC
  5
183B5
  8
0
 10
5172.2265800066288648
 20
465.4307764787625956
 30
0.0
 40
0.0651987854087027
 50
316.8799476674624884
 51
358.1200523780518097
  0
ARC
  5
183B6
  8
0
 10
5172.1384825380946495
 20
465.4672675763080747
 30
0.0
 40
0.0654861085505409
 50
317.2934275791968162
 51
357.7063797158868965
  0
ARC
  5
183B7
  8
0
 10
5170.1984961933831073
 20
465.468713743470289
 30
0.0
 40
0.0690448887235435
 50
183.3766097415654883
 51
221.6225528660843906
  0
ARC
  5
183B8
  8
0
 10
5170.7665610668482259
 20
464.9036486082022179
 30
0.0
 40
0.0712180104055067
 50
228.9817290121737017
 51
265.1128028670693766
  0
ARC
  5
183B9
  8
0
 10
5171.569495916211963
 20
464.8974453164962028
 30
0.0
 40
0.0648862927857643
 50
273.0901040914520763
 51
312.9012935664828206
  0
LINE
  5
183BA
  8
0
 10
5172.2868158300234427
 20
465.4058259838001845
 30
0.0
 11
5171.1667436993875526
 21
465.8697750512628772
 31
0.0
  0
LINE
  5
183BB
  8
0
 10
5171.1667436993875526
 20
465.8697750512628772
 30
0.0
 11
5171.371761145959681
 21
465.3748191511197092
 31
0.0
  0
LINE
  5
183BC
  8
0
 10
5171.5729936993393494
 20
464.8890007914537819
 30
0.0
 11
5171.6305392705626218
 21
464.7500734929184887
 31
0.0
  0
LINE
  5
183BD
  8
0
 10
5171.1667436993875526
 20
465.8697750512628772
 30
0.0
 11
5170.9619854241245775
 21
465.3754448463744211
 31
0.0
  0
LINE
  5
183BE
  8
0
 10
5170.7604936993384399
 20
464.8890007919437721
 30
0.0
 11
5170.7028790988415494
 21
464.7499068421055881
 31
0.0
  0
LINE
  5
183BF
  8
0
 10
5171.1667436993875526
 20
465.8697750512628772
 30
0.0
 11
5170.0469337473341511
 21
465.4059345817436792
 31
0.0
  0
ENDSEC
  0
EOF
