  0
SECTION
  2
HEADER
  9
$ACADVER
  1
AC1009
  9
$INSBASE
 10
61.6748752885213776
 20
49.6300036998590812
 30
0.0
  9
$EXTMIN
 10
51.4998491023938527
 20
48.4883546172753128
 30
-0.0000000000112498
  9
$EXTMAX
 10
71.8539821479949694
 20
50.7737870016439672
 30
0.0000000000002956
  9
$LIMMIN
 10
0.0
 20
0.0
  9
$LIMMAX
 10
11.6929133858000007
 20
8.2677165353999982
  9
$ORTHOMODE
 70
     0
  9
$REGENMODE
 70
     1
  9
$FILLMODE
 70
     1
  9
$QTEXTMODE
 70
     0
  9
$MIRRTEXT
 70
     0
  9
$DRAGMODE
 70
     2
  9
$LTSCALE
 40
0.6431102362
  9
$OSMODE
 70
   575
  9
$ATTMODE
 70
     1
  9
$TEXTSIZE
 40
0.2
  9
$TRACEWID
 40
0.05
  9
$TEXTSTYLE
  7
STANDARD
  9
$CLAYER
  8
0
  9
$CELTYPE
  6
BYLAYER
  9
$CECOLOR
 62
   256
  9
$DIMSCALE
 40
1.0
  9
$DIMASZ
 40
0.1875
  9
$DIMEXO
 40
0.0625
  9
$DIMDLI
 40
0.4443307087
  9
$DIMRND
 40
0.0
  9
$DIMDLE
 40
0.0
  9
$DIMEXE
 40
0.125
  9
$DIMTP
 40
0.01
  9
$DIMTM
 40
0.01
  9
$DIMTXT
 40
1.0
  9
$DIMCEN
 40
0.1052362205
  9
$DIMTSZ
 40
0.0
  9
$DIMTOL
 70
     1
  9
$DIMLIM
 70
     0
  9
$DIMTIH
 70
     1
  9
$DIMTOH
 70
     1
  9
$DIMSE1
 70
     0
  9
$DIMSE2
 70
     0
  9
$DIMTAD
 70
     0
  9
$DIMZIN
 70
     0
  9
$DIMBLK
  1

  9
$DIMASO
 70
     1
  9
$DIMSHO
 70
     1
  9
$DIMPOST
  1
\X
  9
$DIMAPOST
  1

  9
$DIMALT
 70
     1
  9
$DIMALTD
 70
     2
  9
$DIMALTF
 40
25.3999999999999986
  9
$DIMLFAC
 40
1.0
  9
$DIMTOFL
 70
     0
  9
$DIMTVP
 40
0.0
  9
$DIMTIX
 70
     0
  9
$DIMSOXD
 70
     0
  9
$DIMSAH
 70
     0
  9
$DIMBLK1
  1

  9
$DIMBLK2
  1

  9
$DIMSTYLE
  2
STANDARD
  9
$DIMCLRD
 70
     0
  9
$DIMCLRE
 70
     0
  9
$DIMCLRT
 70
     0
  9
$DIMTFAC
 40
1.0
  9
$DIMGAP
 40
0.09
  9
$LUNITS
 70
     2
  9
$LUPREC
 70
     4
  9
$SKETCHINC
 40
0.1
  9
$FILLETRAD
 40
0.0
  9
$AUNITS
 70
     0
  9
$AUPREC
 70
     0
  9
$MENU
  1
.
  9
$ELEVATION
 40
0.0
  9
$PELEVATION
 40
0.0
  9
$THICKNESS
 40
0.0
  9
$LIMCHECK
 70
     0
  9
$BLIPMODE
 70
     0
  9
$CHAMFERA
 40
0.0
  9
$CHAMFERB
 40
0.0
  9
$SKPOLY
 70
     0
  9
$TDCREATE
 40
2458172.4620254631154239
  9
$TDUPDATE
 40
2459507.5319675919599831
  9
$TDINDWG
 40
0.1257235301
  9
$TDUSRTIMER
 40
0.1257235301
  9
$USRTIMER
 70
     1
  9
$ANGBASE
 50
0.0
  9
$ANGDIR
 70
     0
  9
$PDMODE
 70
     0
  9
$PDSIZE
 40
0.3125
  9
$PLINEWID
 40
0.0
  9
$COORDS
 70
     1
  9
$SPLFRAME
 70
     0
  9
$SPLINETYPE
 70
     6
  9
$SPLINESEGS
 70
     8
  9
$ATTDIA
 70
     1
  9
$ATTREQ
 70
     1
  9
$HANDLING
 70
     1
  9
$HANDSEED
  5
B79F
  9
$SURFTAB1
 70
     6
  9
$SURFTAB2
 70
     6
  9
$SURFTYPE
 70
     6
  9
$SURFU
 70
     6
  9
$SURFV
 70
     6
  9
$UCSNAME
  2

  9
$UCSORG
 10
0.0
 20
0.0
 30
0.0
  9
$UCSXDIR
 10
1.0
 20
0.0
 30
0.0
  9
$UCSYDIR
 10
0.0
 20
1.0
 30
0.0
  9
$PUCSNAME
  2

  9
$PUCSORG
 10
0.0
 20
0.0
 30
0.0
  9
$PUCSXDIR
 10
1.0
 20
0.0
 30
0.0
  9
$PUCSYDIR
 10
0.0
 20
1.0
 30
0.0
  9
$USERI1
 70
     0
  9
$USERI2
 70
     0
  9
$USERI3
 70
     0
  9
$USERI4
 70
     0
  9
$USERI5
 70
     0
  9
$USERR1
 40
0.0
  9
$USERR2
 40
0.0
  9
$USERR3
 40
0.0
  9
$USERR4
 40
0.0
  9
$USERR5
 40
0.0
  9
$WORLDVIEW
 70
     1
  9
$SHADEDGE
 70
     3
  9
$SHADEDIF
 70
    70
  9
$TILEMODE
 70
     1
  9
$MAXACTVP
 70
    64
  9
$PLIMCHECK
 70
     0
  9
$PEXTMIN
 10
1.0000000000000000E+20
 20
1.0000000000000000E+20
 30
1.0000000000000000E+20
  9
$PEXTMAX
 10
-1.0000000000000000E+20
 20
-1.0000000000000000E+20
 30
-1.0000000000000000E+20
  9
$PLIMMIN
 10
0.0
 20
0.0
  9
$PLIMMAX
 10
12.0
 20
9.0
  9
$UNITMODE
 70
     0
  9
$VISRETAIN
 70
     1
  9
$PLINEGEN
 70
     0
  9
$PSLTSCALE
 70
     1
  0
ENDSEC
  0
SECTION
  2
TABLES
  0
TABLE
  2
VPORT
 70
     1
  0
VPORT
  2
*ACTIVE
 70
     0
 10
0.0
 20
0.0
 11
1.0
 21
1.0
 12
-62.9342430231516516
 22
44.3187966304974381
 13
0.0
 23
0.0
 14
1.0
 24
1.0
 15
0.0
 25
0.0
 16
0.0
 26
0.0
 36
30.6214257250603907
 17
124.6111586000725993
 27
5.3122741703778242
 37
0.0
 40
10.8548689815089006
 41
2.4470774091627172
 42
50.0
 43
0.0
 44
0.0
 50
0.0
 51
0.0
 71
     0
 72
   100
 73
     1
 74
     1
 75
     0
 76
     0
 77
     0
 78
     0
  0
ENDTAB
  0
TABLE
  2
LTYPE
 70
     2
  0
LTYPE
  2
CONTINUOUS
 70
     0
  3
Solid line
 72
    65
 73
     0
 40
0.0
  0
LTYPE
  2
PHANTOM2
 70
     0
  3
___ _ _ ___ _ _ ___ _ _ ___ _ _
 72
    65
 73
     6
 40
1.25
 49
0.625
 49
-0.125
 49
0.125
 49
-0.125
 49
0.125
 49
-0.125
  0
ENDTAB
  0
TABLE
  2
LAYER
 70
     2
  0
LAYER
  2
0
 70
     0
 62
   255
  6
CONTINUOUS
  0
LAYER
  2
DEFPOINTS
 70
     0
 62
     7
  6
CONTINUOUS
  0
ENDTAB
  0
TABLE
  2
STYLE
 70
     1
  0
STYLE
  2
STANDARD
 70
     0
 40
0.0
 41
0.8
 50
0.0
 71
     0
 42
0.2
  3
txt
  4

  0
ENDTAB
  0
TABLE
  2
VIEW
 70
     0
  0
ENDTAB
  0
TABLE
  2
UCS
 70
     0
  0
ENDTAB
  0
TABLE
  2
APPID
 70
     9
  0
APPID
  2
ACAD
 70
     0
  0
APPID
  2
ACAD_MLEADERVER
 70
     0
  0
APPID
  2
ACAD_EXEMPT_FROM_CAD_STANDARDS
 70
     0
  0
APPID
  2
ACAD_DSTYLE_DIMJAG
 70
     0
  0
APPID
  2
ACAD_DSTYLE_DIMTALN
 70
     0
  0
APPID
  2
ACAD_NAV_VCDISPLAY
 70
     0
  0
APPID
  2
ACAECLAYERSTANDARD
 70
     0
  0
APPID
  2
ACCMTRANSPARENCY
 70
     0
  0
APPID
  2
ACDBATTR
 70
     0
  0
ENDTAB
  0
TABLE
  2
DIMSTYLE
 70
     1
  0
DIMSTYLE
  2
STANDARD
 70
     0
  3

  4

  5

  6

  7

 40
1.0
 41
0.1875
 42
0.0625
 43
0.38
 44
0.125
 45
0.0
 46
0.0
 47
0.01
 48
0.01
140
0.15625
141
0.09
142
0.0
143
25.3999999999999986
144
1.0
145
0.0
146
1.0
147
0.09
 71
     1
 72
     0
 73
     1
 74
     1
 75
     0
 76
     0
 77
     0
 78
     4
170
     0
171
     2
172
     0
173
     0
174
     0
175
     0
176
     0
177
     0
178
     0
  0
ENDTAB
  0
ENDSEC
  0
SECTION
  2
BLOCKS
  0
BLOCK
  8
0
  2
$MODEL_SPACE
 70
     0
 10
0.0
 20
0.0
 30
0.0
  3
$MODEL_SPACE
  1

  0
ENDBLK
  5
21
  8
0
  0
BLOCK
 67
     1
  8
0
  2
$PAPER_SPACE
 70
     0
 10
0.0
 20
0.0
 30
0.0
  3
$PAPER_SPACE
  1

  0
ENDBLK
  5
1D
 67
     1
  8
0
  0
ENDSEC
  0
SECTION
  2
ENTITIES
  0
ATTDEF
  5
383D
  8
DEFPOINTS
 10
61.6748776719037508
 20
49.6289733478141173
 30
0.0
 40
0.001
  1
P31487-PL
  3

  2
MODELNUMBER
 70
     0
1001
ACDBATTR
1070
     0
1070
     1
  0
ATTDEF
  5
383E
  8
DEFPOINTS
 10
61.6748778019823192
 20
49.6273066811474521
 30
0.0
 40
0.001
  1
CENTRAL PARK WEST
  3

  2
TRADENAME
 70
     0
1001
ACDBATTR
1070
     0
1070
     1
  0
ATTDEF
  5
383F
  8
DEFPOINTS
 10
61.6748777999134319
 20
49.625640014480787
 30
0.0
 40
0.001
  1
TOWEL BAR
  3

  2
PRODUCT
 70
     0
1001
ACDBATTR
1070
     0
1070
     1
  0
LINE
  5
B4C0
  8
0
 10
51.5008127231615731
 20
49.985003489859082
 30
0.0
 11
51.5008127174615709
 21
49.2750036998590772
 31
0.0
  0
LINE
  5
B4C1
  8
0
 10
52.9701088038301222
 20
49.2550036998590812
 30
0.0
 11
70.3799221666615722
 21
49.2550036998590812
 31
0.0
  0
LINE
  5
B4C2
  8
0
 10
52.3756771424930108
 20
49.2550036998590812
 30
0.0
 11
52.1308076370615581
 21
49.2550036998590812
 31
0.0
  0
LINE
  5
B4C3
  8
0
 10
51.5208127231615691
 20
49.2555370331590865
 30
0.0
 11
52.0008127231615731
 21
49.2555370331590865
 31
0.0
  0
LINE
  5
B4C4
  8
0
 10
51.5208127231615691
 20
49.6635064740590835
 30
0.0
 11
52.0008127231615731
 21
49.6635064740590835
 31
0.0
  0
LINE
  5
B4C5
  8
0
 10
51.5208119476615707
 20
49.7030852517590915
 30
0.0
 11
52.0008127231615731
 21
49.7030852517590915
 31
0.0
  0
LINE
  5
B4C6
  8
0
 10
51.5208127231615691
 20
49.7673766047590789
 30
0.0
 11
52.0008127231615731
 21
49.7673766047590789
 31
0.0
  0
LINE
  5
B4C7
  8
0
 10
51.5208127231615691
 20
49.8037489453590823
 30
0.0
 11
52.0008127231615731
 21
49.8037489453590823
 31
0.0
  0
LINE
  5
B4C8
  8
0
 10
51.5208127231615691
 20
49.8601175996590769
 30
0.0
 11
52.0008127231615731
 21
49.8601175996590769
 31
0.0
  0
LINE
  5
B4C9
  8
0
 10
51.5208127231615691
 20
49.8903368323590826
 30
0.0
 11
52.0008127231615731
 21
49.8903368323590826
 31
0.0
  0
LINE
  5
B4CA
  8
0
 10
51.5208127231615691
 20
49.9342161349590796
 30
0.0
 11
52.0008127231615731
 21
49.9342161349590796
 31
0.0
  0
LINE
  5
B4CB
  8
0
 10
51.5208127231615691
 20
49.9558340772590768
 30
0.0
 11
52.0008127231615731
 21
49.9558340772590768
 31
0.0
  0
LINE
  5
B4CC
  8
0
 10
51.5208127231615691
 20
49.983669188059082
 30
0.0
 11
52.0008127231615731
 21
49.983669188059082
 31
0.0
  0
LINE
  5
B4CD
  8
0
 10
51.5208127231615691
 20
49.994934482759092
 30
0.0
 11
52.0008127231615731
 21
49.994934482759092
 31
0.0
  0
LINE
  5
B4CE
  8
0
 10
52.9701088038301222
 20
50.0050036998590812
 30
0.0
 11
70.3799221666615722
 21
50.0050036998590812
 31
0.0
  0
LINE
  5
B4CF
  8
0
 10
52.3756770734256492
 20
50.0050036451179665
 30
0.0
 11
51.5208127231615691
 21
50.0044703665590831
 31
0.0
  0
ARC
  5
B4D0
  8
0
 10
52.2797416027615682
 20
49.236852329459083
 30
0.0
 40
0.02
 50
114.8285276815630027
 51
133.9694448026002931
  0
ARC
  5
B4D1
  8
0
 10
52.2797416027615682
 20
49.236852329459083
 30
0.0
 40
0.02
 50
316.0305551974003038
 51
65.1714723184370115
  0
ARC
  5
B4D2
  8
0
 10
52.3639959235615677
 20
49.1677065953590926
 30
0.0
 40
0.02
 50
327.2805551976999823
 51
145.2194448024000053
  0
ARC
  5
B4D3
  8
0
 10
52.4601209847615735
 20
49.1163266797590765
 30
0.0
 40
0.02
 50
338.5305551976998117
 51
156.4694448022997904
  0
ARC
  5
B4D4
  8
0
 10
52.5644227540615674
 20
49.0846870839590821
 30
0.0
 40
0.02
 50
349.780555197700096
 51
167.719444802200087
  0
ARC
  5
B4D5
  8
0
 10
53.0660443434615701
 20
49.236852329459083
 30
0.0
 40
0.02
 50
46.0305551973997211
 51
65.1714723184404647
  0
ARC
  5
B4D6
  8
0
 10
52.6728929731615665
 20
49.0740036998590767
 30
0.0
 40
0.02
 50
1.0305551975998619
 51
178.9694448024000906
  0
ARC
  5
B4D7
  8
0
 10
53.0660443434615701
 20
49.236852329459083
 30
0.0
 40
0.02
 50
114.8285276815595068
 51
223.9694448025996962
  0
ARC
  5
B4D8
  8
0
 10
52.9817900226615706
 20
49.1677065953590926
 30
0.0
 40
0.02
 50
34.7805551976002505
 51
212.7194448022999893
  0
ARC
  5
B4D9
  8
0
 10
52.8856649614615577
 20
49.1163266797590765
 30
0.0
 40
0.02
 50
23.5305551977001102
 51
201.4694448022997904
  0
ARC
  5
B4DA
  8
0
 10
52.7813631921615567
 20
49.0846870839590821
 30
0.0
 40
0.02
 50
12.2805551977999095
 51
190.219444802299904
  0
ARC
  5
B4DB
  8
0
 10
52.2797416027615682
 20
50.0231550701590777
 30
0.0
 40
0.02
 50
226.0305551973997069
 51
245.6190652255451141
  0
ARC
  5
B4DC
  8
0
 10
52.2797416027615682
 20
50.0231550701590777
 30
0.0
 40
0.02
 50
294.7483625478000135
 51
43.9694448025997033
  0
ARC
  5
B4DD
  8
0
 10
52.6728929731615665
 20
49.6300036998590812
 30
0.0
 40
1.139999999999999
 50
19.204897497129501
 51
160.8209833901138097
  0
ARC
  5
B4DE
  8
0
 10
52.6728929731615665
 20
49.6300036998590812
 30
0.0
 40
1.139999999999999
 50
199.176515245274004
 51
340.7951025028705203
  0
ARC
  5
B4DF
  8
0
 10
52.6728929731615665
 20
49.6300036998590812
 30
0.0
 40
0.975
 50
22.6198649480406111
 51
157.4040812780183103
  0
ARC
  5
B4E0
  8
0
 10
52.6728929731615665
 20
49.6300036998590812
 30
0.0
 40
0.975
 50
202.5859160843494919
 51
337.380135051959428
  0
ARC
  5
B4E1
  8
0
 10
52.6728929731615665
 20
49.6300036998590812
 30
0.0
 40
0.8526340065999999
 50
26.0919863022354015
 51
153.9298915150957043
  0
ARC
  5
B4E2
  8
0
 10
52.6728929731615665
 20
49.6300036998590812
 30
0.0
 40
0.8526340065999999
 50
206.0520870050465874
 51
333.9080136977646021
  0
ARC
  5
B4E3
  8
0
 10
52.6728929731615665
 20
49.6300036998590812
 30
0.0
 40
0.742
 50
30.3573003359734095
 51
149.6618600013038929
  0
ARC
  5
B4E4
  8
0
 10
52.6728929731615665
 20
49.6300036998590812
 30
0.0
 40
0.742
 50
210.3169755235352909
 51
329.6426996640266225
  0
ARC
  5
B4E5
  8
0
 10
52.6728929731615665
 20
49.6300036998590812
 30
0.0
 40
0.556
 50
42.4122636303201475
 51
42.9388896046999093
  0
ARC
  5
B4E6
  8
0
 10
52.6728929731615665
 20
49.6300036998590812
 30
0.0
 40
0.556
 50
47.0611103953000978
 51
54.1888896046998312
  0
ARC
  5
B4E7
  8
0
 10
52.6728929731615665
 20
49.6300036998590812
 30
0.0
 40
0.556
 50
58.3111103952998988
 51
65.438889604699753
  0
ARC
  5
B4E8
  8
0
 10
52.6728929731615665
 20
49.6300036998590812
 30
0.0
 40
0.556
 50
69.5611103953001901
 51
76.6888896046999093
  0
ARC
  5
B4E9
  8
0
 10
52.6728929731615665
 20
49.6300036998590812
 30
0.0
 40
0.556
 50
80.8111103952998207
 51
87.938889604699753
  0
ARC
  5
B4EA
  8
0
 10
52.6728929731615665
 20
49.6300036998590812
 30
0.0
 40
0.556
 50
92.0611103952998349
 51
99.1888896047001936
  0
ARC
  5
B4EB
  8
0
 10
52.6728929731615665
 20
49.6300036998590812
 30
0.0
 40
0.556
 50
103.3111103953001049
 51
110.4388896046997957
  0
ARC
  5
B4EC
  8
0
 10
52.6728929731615665
 20
49.6300036998590812
 30
0.0
 40
0.556
 50
114.5611103953002043
 51
121.6888896047000941
  0
ARC
  5
B4ED
  8
0
 10
52.6728929731615665
 20
49.6300036998590812
 30
0.0
 40
0.556
 50
125.8111103952995933
 51
132.9388896046999093
  0
ARC
  5
B4EE
  8
0
 10
52.6728929731615665
 20
49.6300036998590812
 30
0.0
 40
0.556
 50
137.0611103953000907
 51
137.5976125154350882
  0
ARC
  5
B4EF
  8
0
 10
52.6728929731615665
 20
49.6300036998590812
 30
0.0
 40
0.556
 50
222.4122636303202114
 51
222.9388896046999093
  0
ARC
  5
B4F0
  8
0
 10
52.6728929731615665
 20
49.6300036998590812
 30
0.0
 40
0.556
 50
227.0611103953000907
 51
234.1888896047001083
  0
ARC
  5
B4F1
  8
0
 10
52.6728929731615665
 20
49.6300036998590812
 30
0.0
 40
0.556
 50
238.3111103952998917
 51
245.4388896046997104
  0
ARC
  5
B4F2
  8
0
 10
52.6728929731615665
 20
49.6300036998590812
 30
0.0
 40
0.556
 50
249.5611103952998064
 51
256.6888896046999093
  0
ARC
  5
B4F3
  8
0
 10
52.6728929731615665
 20
49.6300036998590812
 30
0.0
 40
0.556
 50
260.8111103952998064
 51
267.9388896047001936
  0
ARC
  5
B4F4
  8
0
 10
52.6728929731615665
 20
49.6300036998590812
 30
0.0
 40
0.556
 50
317.0611103953000907
 51
317.587736369679817
  0
ARC
  5
B4F5
  8
0
 10
52.6728929731615665
 20
49.6300036998590812
 30
0.0
 40
0.556
 50
305.8111103952995791
 51
312.9388896046999093
  0
ARC
  5
B4F6
  8
0
 10
52.6728929731615665
 20
49.6300036998590812
 30
0.0
 40
0.556
 50
272.0611103952998064
 51
279.1888896047001936
  0
ARC
  5
B4F7
  8
0
 10
52.6728929731615665
 20
49.6300036998590812
 30
0.0
 40
0.556
 50
294.5611103952998064
 51
301.6888896047000799
  0
ARC
  5
B4F8
  8
0
 10
52.6728929731615665
 20
49.6300036998590812
 30
0.0
 40
0.556
 50
283.3111103953000907
 51
290.4388896046997957
  0
CIRCLE
  5
B4F9
  8
0
 10
52.6728929731615665
 20
49.6300036998590812
 30
0.0
 40
0.4785000000000001
  0
ARC
  5
B4FA
  8
0
 10
52.6728929731615665
 20
50.1860036998590786
 30
0.0
 40
0.02
 50
181.0305551975997957
 51
358.9694448024001758
  0
ARC
  5
B4FB
  8
0
 10
52.5644227540615674
 20
50.1753203157590875
 30
0.0
 40
0.02
 50
192.280555197799913
 51
10.2194448022998792
  0
ARC
  5
B4FC
  8
0
 10
52.4601209847615735
 20
50.1436807199590788
 30
0.0
 40
0.02
 50
203.530555197700096
 51
21.4694448022998294
  0
ARC
  5
B4FD
  8
0
 10
52.3639959235615677
 20
50.0923008042590823
 30
0.0
 40
0.02
 50
214.7805551975999947
 51
32.719444802299968
  0
ARC
  5
B4FE
  8
0
 10
53.0660443434615701
 20
50.0231550701590777
 30
0.0
 40
0.02
 50
294.8285283637712269
 51
313.9694448026003215
  0
ARC
  5
B4FF
  8
0
 10
53.0660443434615701
 20
50.0231550701590777
 30
0.0
 40
0.02
 50
136.0305551974003038
 51
245.1714716362288016
  0
ARC
  5
B500
  8
0
 10
52.9817900226615706
 20
50.0923008042590823
 30
0.0
 40
0.02
 50
147.2805551977000107
 51
325.2194448023997779
  0
ARC
  5
B501
  8
0
 10
52.8856649614615577
 20
50.1436807199590788
 30
0.0
 40
0.02
 50
158.5305551977002096
 51
336.469444802299904
  0
ARC
  5
B502
  8
0
 10
52.7813631921615567
 20
50.1753203157590875
 30
0.0
 40
0.02
 50
169.780555197700096
 51
347.719444802200087
  0
LINE
  5
B503
  8
0
 10
51.5208127231615691
 20
49.6635064740590835
 30
0.0
 11
51.5114627300615666
 21
49.6633710247590727
 31
0.0
  0
LINE
  5
B504
  8
0
 10
51.5036996612615567
 20
49.8559252861590778
 30
0.0
 11
51.5021658692615603
 21
49.8555820469590927
 31
0.0
  0
ARC
  5
B505
  8
0
 10
51.5207539310781115
 20
49.984523468628737
 30
0.0
 40
0.0199469845729224
 50
89.8311251950995739
 51
178.6210524321998037
  0
ARC
  5
B506
  8
0
 10
51.5207832883064398
 20
49.974963822374697
 30
0.0
 40
0.0199706820764556
 50
89.9155515283229647
 51
179.8039988333487997
  0
ARC
  5
B507
  8
0
 10
51.5209302055055574
 20
49.9618497589881301
 30
0.0
 40
0.0218197453487271
 50
90.3084946636233781
 51
124.1638040952582998
  0
ARC
  5
B508
  8
0
 10
51.5187770484989116
 20
49.9640648001942509
 30
0.0
 40
0.0187855105500645
 50
122.5235400521423941
 51
162.9963740211655931
  0
ARC
  5
B509
  8
0
 10
51.5209643042449912
 20
49.9086618962048689
 30
0.0
 40
0.0255546883199944
 50
90.3398596435678485
 51
118.2963271982085018
  0
ARC
  5
B50A
  8
0
 10
51.5282885573432665
 20
49.8965195487900388
 30
0.0
 40
0.0397240966763997
 50
119.2962147825779056
 51
133.7621874540824933
  0
ARC
  5
B50B
  8
0
 10
51.5204184324139902
 20
49.9356690387576094
 30
0.0
 40
0.020168892953246
 50
88.8798277116958531
 51
130.7401018607220067
  0
ARC
  5
B50C
  8
0
 10
51.5197990601778528
 20
49.9375228097477617
 30
0.0
 40
0.01837504019845
 50
133.0498277210427034
 51
165.9519338367366004
  0
ARC
  5
B50D
  8
0
 10
51.5653455391785727
 20
49.9267629102693888
 30
0.0
 40
0.0651740746105427
 50
166.4949423495160943
 51
171.9559753228078876
  0
ARC
  5
B50E
  8
0
 10
51.5204026092289524
 20
49.8656450144582095
 30
0.0
 40
0.024695223519693
 50
89.0484444224062059
 51
112.4626858557371065
  0
ARC
  5
B50F
  8
0
 10
51.5168303945085171
 20
49.8744423686380287
 30
0.0
 40
0.0152005783935872
 50
112.6893057419696049
 51
140.4449037118870081
  0
ARC
  5
B510
  8
0
 10
51.5186463494211111
 20
49.8734774944530415
 30
0.0
 40
0.0172200950504483
 50
141.8175517224476891
 51
166.0477435390257028
  0
ARC
  5
B511
  8
0
 10
52.0209382038449704
 20
49.7646854154161531
 30
0.0
 40
0.5311510299177075
 50
167.7228789949161865
 51
168.3054681328407014
  0
ARC
  5
B512
  8
0
 10
51.5209372081933381
 20
49.8268823541551384
 30
0.0
 40
0.033235478637001
 50
90.2146045100950857
 51
102.0148494168084028
  0
ARC
  5
B513
  8
0
 10
51.5235183275337505
 20
49.8163277735521106
 30
0.0
 40
0.0440973624550041
 50
102.4403489580794968
 51
111.9317449742976009
  0
ARC
  5
B514
  8
0
 10
51.456271171598047
 20
49.9822245099899405
 30
0.0
 40
0.1349109171714429
 50
290.5824019401856049
 51
292.109145436781489
  0
ARC
  5
B515
  8
0
 10
51.5020995566321389
 20
49.8566275936605479
 30
0.0
 40
0.0010476474930862
 50
230.2559595872037903
 51
273.6290598308991093
  0
ARC
  5
B516
  8
0
 10
51.5027645132742506
 20
49.857013928010403
 30
0.0
 40
0.0017894726907293
 50
189.0247954209359023
 51
221.7629701396917881
  0
ARC
  5
B517
  8
0
 10
51.5187635095891423
 20
49.8594980560784506
 30
0.0
 40
0.0179801632349401
 50
183.2756293219188137
 51
188.8455267916129969
  0
ARC
  5
B518
  8
0
 10
51.5204773634519597
 20
49.7729398189219765
 30
0.0
 40
0.0308109515911515
 50
89.3763556656404177
 51
115.6931725564940052
  0
ARC
  5
B519
  8
0
 10
51.5155433435681402
 20
49.7891781176485182
 30
0.0
 40
0.0142766305727253
 50
126.1615254118076024
 51
157.4156683898683866
  0
ARC
  5
B51A
  8
0
 10
51.524258253309597
 20
49.7861991742656329
 30
0.0
 40
0.0234748588633095
 50
158.871463344103006
 51
177.1357156386370946
  0
ARC
  5
B51B
  8
0
 10
51.5212678253873122
 20
49.7060456362364675
 30
0.0
 40
0.0613326570267301
 50
90.4251515805223534
 51
98.7749578762680329
  0
ARC
  5
B51C
  8
0
 10
51.4855626139234204
 20
49.9294877502599093
 30
0.0
 40
0.1649454377659916
 50
277.3107535246160182
 51
279.191907707851783
  0
ARC
  5
B51D
  8
0
 10
51.5052320201522278
 20
49.7732628331677205
 30
0.0
 40
0.0074967398673582
 50
250.9166151503904132
 51
280.1415267083875733
  0
ARC
  5
B51E
  8
0
 10
51.5041454602170035
 20
49.7687687697206371
 30
0.0
 40
0.002928032601608
 50
193.764494287192889
 51
242.2252628359233029
  0
ARC
  5
B51F
  8
0
 10
51.5115953880124593
 20
49.770928511309279
 30
0.0
 40
0.0106828327209503
 50
184.4409221530549132
 51
195.5086283887499121
  0
ARC
  5
B520
  8
0
 10
51.7776170414257919
 20
49.7884076299611706
 30
0.0
 40
0.2772773789547766
 50
183.3473399545898985
 51
183.785513817635092
  0
ARC
  5
B521
  8
0
 10
51.5107367774657874
 20
49.6858041045125134
 30
0.0
 40
0.0224448228862528
 50
256.6291455977427063
 51
271.8534909182209844
  0
ARC
  5
B522
  8
0
 10
51.5068389788563934
 20
49.6691637317922314
 30
0.0
 40
0.0053544251284405
 50
214.2919614559841932
 51
256.0299712663573928
  0
ARC
  5
B523
  8
0
 10
51.5105104769019917
 20
49.6709898813183131
 30
0.0
 40
0.0094332318116921
 50
186.3584468052603995
 51
210.8896183361430019
  0
ARC
  5
B524
  8
0
 10
51.4817624087346886
 20
49.6683950897836297
 30
0.0
 40
0.0194347790433747
 50
4.574653189489843
 51
11.4155277395652099
  0
ARC
  5
B525
  8
0
 10
51.5196340018243788
 20
49.6442443998606677
 30
0.0
 40
0.0588526414745088
 50
88.8531384430876585
 51
99.413102488332413
  0
ARC
  5
B526
  8
0
 10
51.5116423795812395
 20
49.6913683624059317
 30
0.0
 40
0.011057584571291
 50
98.4968802994208659
 51
135.4365755652214034
  0
ARC
  5
B527
  8
0
 10
51.511837435832831
 20
49.6924313226580878
 30
0.0
 40
0.0104888656359027
 50
140.3271220717298036
 51
168.4484334765056985
  0
ARC
  5
B528
  8
0
 10
51.5437219176528671
 20
49.6857691271666795
 30
0.0
 40
0.0430618619843362
 50
168.2589753015286931
 51
175.1739754175181076
  0
ARC
  5
B529
  8
0
 10
51.5207417187090329
 20
49.2754713951497223
 30
0.0
 40
0.0199344884460563
 50
181.3443748667000079
 51
270.2040816884187961
  0
ARC
  5
B52A
  8
0
 10
52.0162828817858625
 20
48.825629368884762
 30
0.0
 40
1.1694074461625841
 50
84.3862708152326348
 51
90.7579912854924373
  0
ARC
  5
B52B
  8
0
 10
51.9994932758780166
 20
51.4804488224009233
 30
0.0
 40
1.496780215903998
 50
270.0505075959886767
 51
275.0280380615786839
  0
ARC
  5
B52C
  8
0
 10
52.0116650426093727
 20
49.2222827601071629
 30
0.0
 40
0.7336315885597529
 50
80.6627638782848635
 51
90.8475845248260754
  0
ARC
  5
B52D
  8
0
 10
52.0000785564890222
 20
50.6523322738006598
 30
0.0
 40
0.7181165141294591
 50
270.0585763706807825
 51
280.4795767898064014
  0
ARC
  5
B52E
  8
0
 10
52.0150194167535886
 20
49.4259270066972221
 30
0.0
 40
0.4646270723000273
 50
75.5698729432956355
 51
91.7521804502003988
  0
ARC
  5
B52F
  8
0
 10
52.0127131455208698
 20
50.3054315402280281
 30
0.0
 40
0.44547292366357
 50
268.46921088911472
 51
285.3723707359549735
  0
ARC
  5
B530
  8
0
 10
52.0150393576332277
 20
49.4145382593516587
 30
0.0
 40
0.3894706089434253
 50
72.7114212685205104
 51
92.0933736030102352
  0
ARC
  5
B531
  8
0
 10
52.0119611950783209
 20
50.1444762511213185
 30
0.0
 40
0.3772644055733344
 50
268.3066163085964035
 51
288.3583369624564057
  0
ARC
  5
B532
  8
0
 10
52.0029460153865912
 20
49.2682701544686523
 30
0.0
 40
0.4348203304439708
 50
72.9002030596439425
 51
90.2811026135517665
  0
ARC
  5
B533
  8
0
 10
52.0016806377527274
 20
50.0830423976597672
 30
0.0
 40
0.4195368213485256
 50
269.8814695731305733
 51
287.9245713252024075
  0
ARC
  5
B534
  8
0
 10
51.9297389261665927
 20
16.0891977798761303
 30
0.0
 40
33.1664154069817485
 50
89.6526468430725316
 51
89.8772182140102416
  0
LINE
  5
B535
  8
0
 10
51.5208127231615691
 20
49.596500925659079
 30
0.0
 11
52.0008127231615731
 21
49.596500925659079
 31
0.0
  0
LINE
  5
B536
  8
0
 10
51.5208119476615707
 20
49.556922147959078
 30
0.0
 11
52.0008127231615731
 21
49.556922147959078
 31
0.0
  0
LINE
  5
B537
  8
0
 10
51.5208127231615691
 20
49.4926307949590694
 30
0.0
 11
52.0008127231615731
 21
49.4926307949590694
 31
0.0
  0
LINE
  5
B538
  8
0
 10
51.5208127231615691
 20
49.4562584543590802
 30
0.0
 11
52.0008127231615731
 21
49.4562584543590802
 31
0.0
  0
LINE
  5
B539
  8
0
 10
51.5208127231615691
 20
49.3998898000590785
 30
0.0
 11
52.0008127231615731
 21
49.3998898000590785
 31
0.0
  0
LINE
  5
B53A
  8
0
 10
51.5208127231615691
 20
49.3696705673590799
 30
0.0
 11
52.0008127231615731
 21
49.3696705673590799
 31
0.0
  0
LINE
  5
B53B
  8
0
 10
51.5208127231615691
 20
49.3257912647590686
 30
0.0
 11
52.0008127231615731
 21
49.3257912647590686
 31
0.0
  0
LINE
  5
B53C
  8
0
 10
51.5208127231615691
 20
49.3041733224590786
 30
0.0
 11
52.0008127231615731
 21
49.3041733224590786
 31
0.0
  0
LINE
  5
B53D
  8
0
 10
51.5208127231615691
 20
49.2763382116590805
 30
0.0
 11
52.0008127231615731
 21
49.2763382116590805
 31
0.0
  0
LINE
  5
B53E
  8
0
 10
51.5208127231615691
 20
49.2650729169590775
 30
0.0
 11
52.0008127231615731
 21
49.2650729169590775
 31
0.0
  0
LINE
  5
B53F
  8
0
 10
51.5208127231615691
 20
49.596500925659079
 30
0.0
 11
51.5114627300615666
 21
49.5966363749590826
 31
0.0
  0
LINE
  5
B540
  8
0
 10
51.5036996612615567
 20
49.4040821135590775
 30
0.0
 11
51.5021658692615603
 21
49.4044253527590769
 31
0.0
  0
ARC
  5
B541
  8
0
 10
51.5207832883064398
 20
49.2850435773434583
 30
0.0
 40
0.0199706820764556
 50
180.1960011666512003
 51
270.0844484716765805
  0
ARC
  5
B542
  8
0
 10
51.5209302055055574
 20
49.2981576407300182
 30
0.0
 40
0.0218197453487271
 50
235.836195904741686
 51
269.6915053363766219
  0
ARC
  5
B543
  8
0
 10
51.5187770484989116
 20
49.2959425995239116
 30
0.0
 40
0.0187855105500645
 50
197.0036259788344069
 51
237.4764599478575064
  0
ARC
  5
B544
  8
0
 10
51.5209643042449912
 20
49.3513455035132793
 30
0.0
 40
0.0255546883199944
 50
241.7036728017914982
 51
269.6601403564321799
  0
ARC
  5
B545
  8
0
 10
51.5282885573432665
 20
49.3634878509281165
 30
0.0
 40
0.0397240966763997
 50
226.2378125459175067
 51
240.7037852174221086
  0
ARC
  5
B546
  8
0
 10
51.5204184324139902
 20
49.3243383609605601
 30
0.0
 40
0.020168892953246
 50
229.2598981392779933
 51
271.120172288304218
  0
ARC
  5
B547
  8
0
 10
51.5197990601778528
 20
49.3224845899704007
 30
0.0
 40
0.01837504019845
 50
194.0480661632632859
 51
226.9501722789570124
  0
ARC
  5
B548
  8
0
 10
51.5653455391785727
 20
49.3332444894487594
 30
0.0
 40
0.0651740746105427
 50
188.0440246771919988
 51
193.5050576504839057
  0
ARC
  5
B549
  8
0
 10
51.5204026092289524
 20
49.39436238525996
 30
0.0
 40
0.024695223519693
 50
247.5373141442628082
 51
270.9515555775936946
  0
ARC
  5
B54A
  8
0
 10
51.5168303945085171
 20
49.3855650310801408
 30
0.0
 40
0.0152005783935872
 50
219.5550962881129919
 51
247.3106942580303951
  0
ARC
  5
B54B
  8
0
 10
51.5186463494211111
 20
49.386529905265121
 30
0.0
 40
0.0172200950504483
 50
193.9522564609742119
 51
218.1824482775523109
  0
ARC
  5
B54C
  8
0
 10
52.0209382038449704
 20
49.4953219843020094
 30
0.0
 40
0.5311510299177075
 50
191.6945318671592986
 51
192.2771210050833872
  0
ARC
  5
B54D
  8
0
 10
51.5209372081933381
 20
49.4331250455630311
 30
0.0
 40
0.033235478637001
 50
257.9851505831916256
 51
269.7853954899048858
  0
ARC
  5
B54E
  8
0
 10
51.5235183275337505
 20
49.4436796261660518
 30
0.0
 40
0.0440973624550041
 50
248.0682550257023991
 51
257.5596510419205174
  0
ARC
  5
B54F
  8
0
 10
51.456271171598047
 20
49.2777828897282077
 30
0.0
 40
0.1349109171714429
 50
67.8908545632184826
 51
69.4175980598144804
  0
ARC
  5
B550
  8
0
 10
51.5020995566321389
 20
49.4033798060576075
 30
0.0
 40
0.0010476474930862
 50
86.3709401691009049
 51
129.7440404127962097
  0
ARC
  5
B551
  8
0
 10
51.5027645132742506
 20
49.4029934717077666
 30
0.0
 40
0.0017894726907293
 50
138.2370298603078993
 51
170.9752045790640125
  0
ARC
  5
B552
  8
0
 10
51.5187635095891423
 20
49.4005093436397189
 30
0.0
 40
0.0179801632349401
 50
171.1544732083868894
 51
176.7243706780811863
  0
ARC
  5
B553
  8
0
 10
51.5204773634519597
 20
49.4870675807961931
 30
0.0
 40
0.0308109515911515
 50
244.3068274435059948
 51
270.6236443343595965
  0
ARC
  5
B554
  8
0
 10
51.5155433435681402
 20
49.47082928206963
 30
0.0
 40
0.0142766305727253
 50
202.5843316101316134
 51
233.8384745881924118
  0
ARC
  5
B555
  8
0
 10
51.524258253309597
 20
49.4738082254525366
 30
0.0
 40
0.0234748588633095
 50
182.8642843613627917
 51
201.1285366558969088
  0
ARC
  5
B556
  8
0
 10
51.5212678253873122
 20
49.553961763481702
 30
0.0
 40
0.0613326570267301
 50
261.2250421237320097
 51
269.5748484194775756
  0
ARC
  5
B557
  8
0
 10
51.4855626139234204
 20
49.3305196494582532
 30
0.0
 40
0.1649454377659916
 50
80.8080922921477054
 51
82.6892464753840102
  0
ARC
  5
B558
  8
0
 10
51.5052320201522278
 20
49.486744566550442
 30
0.0
 40
0.0074967398673582
 50
79.8584732916124693
 51
109.083384849609601
  0
ARC
  5
B559
  8
0
 10
51.5041454602170035
 20
49.4912386299975111
 30
0.0
 40
0.002928032601608
 50
117.7747371640765977
 51
166.2355057128069973
  0
ARC
  5
B55A
  8
0
 10
51.5115953880124593
 20
49.4890788884088906
 30
0.0
 40
0.0106828327209503
 50
164.4913716112500879
 51
175.5590778469450868
  0
ARC
  5
B55B
  8
0
 10
51.7776170414257919
 20
49.4715997697569918
 30
0.0
 40
0.2772773789547766
 50
176.214486182364908
 51
176.6526600454099878
  0
ARC
  5
B55C
  8
0
 10
51.5107367774657874
 20
49.5742032952056491
 30
0.0
 40
0.0224448228862528
 50
88.1465090817790156
 51
116.2413651000115067
  0
ARC
  5
B55D
  8
0
 10
51.5196340018243788
 20
49.6157629998575018
 30
0.0
 40
0.0588526414745088
 50
260.586897511667587
 51
271.1468615569123131
  0
ARC
  5
B55E
  8
0
 10
51.5116423795812395
 20
49.5686390373122308
 30
0.0
 40
0.011057584571291
 50
191.6533852945308922
 51
261.5031197005786794
  0
ARC
  5
B55F
  8
0
 10
52.0162828817858625
 20
50.4343780308334004
 30
0.0
 40
1.1694074461625841
 50
269.2420087145076195
 51
275.6137291847672941
  0
ARC
  5
B560
  8
0
 10
51.9994932758780166
 20
47.7795585773172533
 30
0.0
 40
1.496780215903998
 50
84.9719619384212166
 51
89.9494924040117638
  0
ARC
  5
B561
  8
0
 10
52.0116650426093727
 20
50.0377246396109925
 30
0.0
 40
0.7336315885597529
 50
269.152415475173882
 51
279.3372361217150797
  0
ARC
  5
B562
  8
0
 10
52.0000785564890222
 20
48.6076751259174884
 30
0.0
 40
0.7181165141294591
 50
79.5204232101935986
 51
89.9414236293191891
  0
ARC
  5
B563
  8
0
 10
52.0150194167535886
 20
49.8340803930209404
 30
0.0
 40
0.4646270723000273
 50
268.2478195497996012
 51
284.4301270567044071
  0
ARC
  5
B564
  8
0
 10
52.0127131455208698
 20
48.9545758594901415
 30
0.0
 40
0.44547292366357
 50
74.6276292640450407
 51
91.5307891108853369
  0
ARC
  5
B565
  8
0
 10
52.0150393576332277
 20
49.8454691403664967
 30
0.0
 40
0.3894706089434253
 50
267.9066263969897932
 51
287.288578731479106
  0
ARC
  5
B566
  8
0
 10
52.0119611950783209
 20
49.1155311485968369
 30
0.0
 40
0.3772644055733344
 50
71.6416630375435943
 51
91.6933836914036675
  0
ARC
  5
B567
  8
0
 10
52.0029460153865912
 20
49.9917372452495101
 30
0.0
 40
0.4348203304439708
 50
269.7188973864481909
 51
287.0997969403561001
  0
ARC
  5
B568
  8
0
 10
52.0016806377527274
 20
49.1769650020583811
 30
0.0
 40
0.4195368213485256
 50
72.0754286747976636
 51
90.1185304268693557
  0
LINE
  5
B569
  8
0
 10
71.8492182473301284
 20
49.985003489859082
 30
0.0
 11
71.8492182530301307
 21
49.2750036998590772
 31
0.0
  0
LINE
  5
B56A
  8
0
 10
70.9743538279986836
 20
49.2550036998590812
 30
0.0
 11
71.2192233334301221
 21
49.2550036998590812
 31
0.0
  0
LINE
  5
B56B
  8
0
 10
71.829218247330104
 20
49.2555370331590865
 30
0.0
 11
71.3492182473301142
 21
49.2555370331590865
 31
0.0
  0
LINE
  5
B56C
  8
0
 10
71.829218247330104
 20
49.6635064740590835
 30
0.0
 11
71.3492182473301142
 21
49.6635064740590835
 31
0.0
  0
LINE
  5
B56D
  8
0
 10
71.8292190228301308
 20
49.7030852517590915
 30
0.0
 11
71.3492182473301142
 21
49.7030852517590915
 31
0.0
  0
LINE
  5
B56E
  8
0
 10
71.829218247330104
 20
49.7673766047590789
 30
0.0
 11
71.3492182473301142
 21
49.7673766047590789
 31
0.0
  0
LINE
  5
B56F
  8
0
 10
71.829218247330104
 20
49.8037489453590823
 30
0.0
 11
71.3492182473301142
 21
49.8037489453590823
 31
0.0
  0
LINE
  5
B570
  8
0
 10
71.829218247330104
 20
49.8601175996590769
 30
0.0
 11
71.3492182473301142
 21
49.8601175996590769
 31
0.0
  0
LINE
  5
B571
  8
0
 10
71.829218247330104
 20
49.8903368323590826
 30
0.0
 11
71.3492182473301142
 21
49.8903368323590826
 31
0.0
  0
LINE
  5
B572
  8
0
 10
71.829218247330104
 20
49.9342161349590796
 30
0.0
 11
71.3492182473301142
 21
49.9342161349590796
 31
0.0
  0
LINE
  5
B573
  8
0
 10
71.829218247330104
 20
49.9558340772590768
 30
0.0
 11
71.3492182473301142
 21
49.9558340772590768
 31
0.0
  0
LINE
  5
B574
  8
0
 10
71.829218247330104
 20
49.983669188059082
 30
0.0
 11
71.3492182473301142
 21
49.983669188059082
 31
0.0
  0
LINE
  5
B575
  8
0
 10
71.829218247330104
 20
49.994934482759092
 30
0.0
 11
71.3492182473301142
 21
49.994934482759092
 31
0.0
  0
LINE
  5
B576
  8
0
 10
70.9743538970660239
 20
50.0050036451179665
 30
0.0
 11
71.829218247330104
 21
50.0044703665590831
 31
0.0
  0
ARC
  5
B577
  8
0
 10
71.0702893677301262
 20
49.236852329459083
 30
0.0
 40
0.02
 50
46.0305551973997211
 51
65.1714723184370115
  0
ARC
  5
B578
  8
0
 10
71.0702893677301262
 20
49.236852329459083
 30
0.0
 40
0.02
 50
114.8285276815630027
 51
223.9694448025996962
  0
ARC
  5
B579
  8
0
 10
70.9860350469301267
 20
49.1677065953590926
 30
0.0
 40
0.02
 50
34.7805551976002505
 51
212.7194448022999893
  0
ARC
  5
B57A
  8
0
 10
70.889909985730128
 20
49.1163266797590765
 30
0.0
 40
0.02
 50
23.5305551977001102
 51
201.4694448023001883
  0
ARC
  5
B57B
  8
0
 10
70.7856082164301199
 20
49.0846870839590821
 30
0.0
 40
0.02
 50
12.2805551977999095
 51
190.219444802299904
  0
ARC
  5
B57C
  8
0
 10
70.283986627030103
 20
49.236852329459083
 30
0.0
 40
0.02
 50
114.8285276815595068
 51
133.9694448026002931
  0
ARC
  5
B57D
  8
0
 10
70.6771379973301208
 20
49.0740036998590767
 30
0.0
 40
0.02
 50
1.0305551975998619
 51
178.9694448024000906
  0
ARC
  5
B57E
  8
0
 10
70.283986627030103
 20
49.236852329459083
 30
0.0
 40
0.02
 50
316.0305551974003038
 51
65.1714723184404647
  0
ARC
  5
B57F
  8
0
 10
70.3682409478301167
 20
49.1677065953590926
 30
0.0
 40
0.02
 50
327.2805551976999823
 51
145.2194448024000053
  0
ARC
  5
B580
  8
0
 10
70.4643660090301296
 20
49.1163266797590765
 30
0.0
 40
0.02
 50
338.5305551977002096
 51
156.4694448022997904
  0
ARC
  5
B581
  8
0
 10
70.5686677783301235
 20
49.0846870839590821
 30
0.0
 40
0.02
 50
349.780555197700096
 51
167.719444802200087
  0
ARC
  5
B582
  8
0
 10
71.0702893677301262
 20
50.0231550701590777
 30
0.0
 40
0.02
 50
294.3809347744548859
 51
313.9694448026003215
  0
ARC
  5
B583
  8
0
 10
71.0702893677301262
 20
50.0231550701590777
 30
0.0
 40
0.02
 50
136.0305551974003038
 51
245.2516374522001001
  0
ARC
  5
B584
  8
0
 10
70.6771379973301208
 20
49.6300036998590812
 30
0.0
 40
1.139999999999999
 50
19.1790166098862294
 51
160.7951025028704919
  0
ARC
  5
B585
  8
0
 10
70.6771379973301208
 20
49.6300036998590812
 30
0.0
 40
1.139999999999999
 50
199.2048974971295081
 51
340.823484754725996
  0
ARC
  5
B586
  8
0
 10
70.6771379973301208
 20
49.6300036998590812
 30
0.0
 40
0.975
 50
22.5959187219816293
 51
157.3801350519593996
  0
ARC
  5
B587
  8
0
 10
70.6771379973301208
 20
49.6300036998590812
 30
0.0
 40
0.975
 50
202.6198649480406004
 51
337.4140839156502238
  0
ARC
  5
B588
  8
0
 10
70.6771379973301208
 20
49.6300036998590812
 30
0.0
 40
0.8526340065999999
 50
26.0701084849042601
 51
153.9080136977646021
  0
ARC
  5
B589
  8
0
 10
70.6771379973301208
 20
49.6300036998590812
 30
0.0
 40
0.8526340065999999
 50
206.0919863022353979
 51
333.9479129949531284
  0
ARC
  5
B58A
  8
0
 10
70.6771379973301208
 20
49.6300036998590812
 30
0.0
 40
0.742
 50
30.3381399986962492
 51
149.6426996640265941
  0
ARC
  5
B58B
  8
0
 10
70.6771379973301208
 20
49.6300036998590812
 30
0.0
 40
0.742
 50
210.3573003359734059
 51
329.6830244764647091
  0
ARC
  5
B58C
  8
0
 10
70.6771379973301208
 20
49.6300036998590812
 30
0.0
 40
0.556
 50
137.0611103953000907
 51
137.5877363696797886
  0
ARC
  5
B58D
  8
0
 10
70.6771379973301208
 20
49.6300036998590812
 30
0.0
 40
0.556
 50
125.8111103953001049
 51
132.9388896046999093
  0
ARC
  5
B58E
  8
0
 10
70.6771379973301208
 20
49.6300036998590812
 30
0.0
 40
0.556
 50
114.5611103953002043
 51
121.6888896047000941
  0
ARC
  5
B58F
  8
0
 10
70.6771379973301208
 20
49.6300036998590812
 30
0.0
 40
0.556
 50
103.3111103953001049
 51
110.4388896046997957
  0
ARC
  5
B590
  8
0
 10
70.6771379973301208
 20
49.6300036998590812
 30
0.0
 40
0.556
 50
92.0611103952998349
 51
99.1888896047001936
  0
ARC
  5
B591
  8
0
 10
70.6771379973301208
 20
49.6300036998590812
 30
0.0
 40
0.556
 50
80.8111103952998207
 51
87.938889604699753
  0
ARC
  5
B592
  8
0
 10
70.6771379973301208
 20
49.6300036998590812
 30
0.0
 40
0.556
 50
69.5611103953001901
 51
76.6888896046999093
  0
ARC
  5
B593
  8
0
 10
70.6771379973301208
 20
49.6300036998590812
 30
0.0
 40
0.556
 50
58.3111103952998988
 51
65.438889604699753
  0
ARC
  5
B594
  8
0
 10
70.6771379973301208
 20
49.6300036998590812
 30
0.0
 40
0.556
 50
47.0611103953000978
 51
54.1888896047000728
  0
ARC
  5
B595
  8
0
 10
70.6771379973301208
 20
49.6300036998590812
 30
0.0
 40
0.556
 50
42.4023874845646134
 51
42.9388896046999093
  0
ARC
  5
B596
  8
0
 10
70.6771379973301208
 20
49.6300036998590812
 30
0.0
 40
0.556
 50
317.0611103953000907
 51
317.587736369679817
  0
ARC
  5
B597
  8
0
 10
70.6771379973301208
 20
49.6300036998590812
 30
0.0
 40
0.556
 50
305.8111103952995791
 51
312.9388896046999093
  0
ARC
  5
B598
  8
0
 10
70.6771379973301208
 20
49.6300036998590812
 30
0.0
 40
0.556
 50
294.5611103952998064
 51
301.6888896047000799
  0
ARC
  5
B599
  8
0
 10
70.6771379973301208
 20
49.6300036998590812
 30
0.0
 40
0.556
 50
283.3111103953000907
 51
290.4388896046997957
  0
ARC
  5
B59A
  8
0
 10
70.6771379973301208
 20
49.6300036998590812
 30
0.0
 40
0.556
 50
272.0611103952998064
 51
279.1888896047001936
  0
ARC
  5
B59B
  8
0
 10
70.6771379973301208
 20
49.6300036998590812
 30
0.0
 40
0.556
 50
222.4122636303202114
 51
222.9388896046999093
  0
ARC
  5
B59C
  8
0
 10
70.6771379973301208
 20
49.6300036998590812
 30
0.0
 40
0.556
 50
227.0611103953000907
 51
234.1888896047003925
  0
ARC
  5
B59D
  8
0
 10
70.6771379973301208
 20
49.6300036998590812
 30
0.0
 40
0.556
 50
260.8111103952998064
 51
267.9388896047001936
  0
ARC
  5
B59E
  8
0
 10
70.6771379973301208
 20
49.6300036998590812
 30
0.0
 40
0.556
 50
238.3111103952998917
 51
245.4388896047001083
  0
ARC
  5
B59F
  8
0
 10
70.6771379973301208
 20
49.6300036998590812
 30
0.0
 40
0.556
 50
249.5611103953002043
 51
256.6888896046999093
  0
CIRCLE
  5
B5A0
  8
0
 10
70.6771379973301208
 20
49.6300036998590812
 30
0.0
 40
0.4785000000000001
  0
ARC
  5
B5A1
  8
0
 10
70.6771379973301208
 20
50.1860036998590786
 30
0.0
 40
0.02
 50
181.0305551975997957
 51
358.9694448024001758
  0
ARC
  5
B5A2
  8
0
 10
70.7856082164301199
 20
50.1753203157590875
 30
0.0
 40
0.02
 50
169.780555197700096
 51
347.719444802200087
  0
ARC
  5
B5A3
  8
0
 10
70.889909985730128
 20
50.1436807199590788
 30
0.0
 40
0.02
 50
158.5305551977002096
 51
336.469444802299904
  0
ARC
  5
B5A4
  8
0
 10
70.9860350469301267
 20
50.0923008042590823
 30
0.0
 40
0.02
 50
147.2805551977000107
 51
325.2194448023997779
  0
ARC
  5
B5A5
  8
0
 10
70.283986627030103
 20
50.0231550701590777
 30
0.0
 40
0.02
 50
226.0305551973997069
 51
245.1714716362288016
  0
ARC
  5
B5A6
  8
0
 10
70.283986627030103
 20
50.0231550701590777
 30
0.0
 40
0.02
 50
294.8285283637712269
 51
43.9694448025997033
  0
ARC
  5
B5A7
  8
0
 10
70.3682409478301167
 20
50.0923008042590823
 30
0.0
 40
0.02
 50
214.7805551975999947
 51
32.719444802299968
  0
ARC
  5
B5A8
  8
0
 10
70.4643660090301296
 20
50.1436807199590788
 30
0.0
 40
0.02
 50
203.530555197700096
 51
21.4694448022998294
  0
ARC
  5
B5A9
  8
0
 10
70.5686677783301235
 20
50.1753203157590875
 30
0.0
 40
0.02
 50
192.280555197799913
 51
10.2194448022998792
  0
LINE
  5
B5AA
  8
0
 10
71.829218247330104
 20
49.6635064740590835
 30
0.0
 11
71.8385682404301207
 21
49.6633710247590727
 31
0.0
  0
LINE
  5
B5AB
  8
0
 10
71.8463313092301235
 20
49.8559252861590778
 30
0.0
 11
71.847865101230127
 21
49.8555820469590927
 31
0.0
  0
ARC
  5
B5AC
  8
0
 10
71.8292770394135829
 20
49.984523468628737
 30
0.0
 40
0.0199469845729224
 50
1.378947567800201
 51
90.1688748049004403
  0
ARC
  5
B5AD
  8
0
 10
71.8292476821852404
 20
49.974963822374697
 30
0.0
 40
0.0199706820764556
 50
0.1960011666511872
 51
90.0844484716766374
  0
ARC
  5
B5AE
  8
0
 10
71.8291007649861228
 20
49.9618497589881301
 30
0.0
 40
0.0218197453487271
 50
55.8361959047417216
 51
89.6915053363766219
  0
ARC
  5
B5AF
  8
0
 10
71.8312539219927828
 20
49.9640648001942509
 30
0.0
 40
0.0187855105500645
 50
17.0036259788343891
 51
57.4764599478575633
  0
ARC
  5
B5B0
  8
0
 10
71.8290666662467032
 20
49.9086618962048689
 30
0.0
 40
0.0255546883199944
 50
61.7036728017911074
 51
89.6601403564321373
  0
ARC
  5
B5B1
  8
0
 10
71.8217424131484279
 20
49.8965195487900388
 30
0.0
 40
0.0397240966763997
 50
46.2378125459174498
 51
60.7037852174221015
  0
ARC
  5
B5B2
  8
0
 10
71.8296125380776971
 20
49.9356690387576094
 30
0.0
 40
0.020168892953246
 50
49.2598981392780431
 51
91.1201722883041469
  0
ARC
  5
B5B3
  8
0
 10
71.8302319103138416
 20
49.9375228097477617
 30
0.0
 40
0.01837504019845
 50
14.0480661632633499
 51
46.9501722789569911
  0
ARC
  5
B5B4
  8
0
 10
71.7846854313131075
 20
49.9267629102693888
 30
0.0
 40
0.0651740746105427
 50
8.0440246771920467
 51
13.5050576504839199
  0
ARC
  5
B5B5
  8
0
 10
71.8296283612627349
 20
49.8656450144582095
 30
0.0
 40
0.024695223519693
 50
67.5373141442628651
 51
90.9515555775938083
  0
ARC
  5
B5B6
  8
0
 10
71.8332005759831702
 20
49.8744423686380287
 30
0.0
 40
0.0152005783935872
 50
39.5550962881129706
 51
67.3106942580304235
  0
ARC
  5
B5B7
  8
0
 10
71.8313846210705833
 20
49.8734774944530415
 30
0.0
 40
0.0172200950504483
 50
13.9522564609742297
 51
38.1824482775523109
  0
ARC
  5
B5B8
  8
0
 10
71.329092766646724
 20
49.7646854154161531
 30
0.0
 40
0.5311510299177075
 50
11.6945318671593093
 51
12.2771210050837798
  0
ARC
  5
B5B9
  8
0
 10
71.8290937622983421
 20
49.8268823541551384
 30
0.0
 40
0.033235478637001
 50
77.9851505831916256
 51
89.7853954899049143
  0
ARC
  5
B5BA
  8
0
 10
71.8265126429579368
 20
49.8163277735521106
 30
0.0
 40
0.0440973624550041
 50
68.0682550257023848
 51
77.5596510419200342
  0
ARC
  5
B5BB
  8
0
 10
71.8937597988936403
 20
49.9822245099899405
 30
0.0
 40
0.1349109171714429
 50
247.890854563218511
 51
249.4175980598145088
  0
ARC
  5
B5BC
  8
0
 10
71.8479314138595555
 20
49.8566275936605479
 30
0.0
 40
0.0010476474930862
 50
266.3709401691008907
 51
309.744040412796096
  0
ARC
  5
B5BD
  8
0
 10
71.8472664572174295
 20
49.857013928010403
 30
0.0
 40
0.0017894726907293
 50
318.2370298603079277
 51
350.9752045790639841
  0
ARC
  5
B5BE
  8
0
 10
71.8312674609025521
 20
49.8594980560784506
 30
0.0
 40
0.0179801632349401
 50
351.1544732083868894
 51
356.7243706780810726
  0
ARC
  5
B5BF
  8
0
 10
71.8295536070397276
 20
49.7729398189219765
 30
0.0
 40
0.0308109515911515
 50
64.3068274435059948
 51
90.6236443343595965
  0
ARC
  5
B5C0
  8
0
 10
71.8344876269235471
 20
49.7891781176485182
 30
0.0
 40
0.0142766305727253
 50
22.5843316101315885
 51
53.8384745881923905
  0
ARC
  5
B5C1
  8
0
 10
71.8257727171821045
 20
49.7861991742656329
 30
0.0
 40
0.0234748588633095
 50
2.8642843613628788
 51
21.1285366558969514
  0
ARC
  5
B5C2
  8
0
 10
71.8287631451043751
 20
49.7060456362364675
 30
0.0
 40
0.0613326570267301
 50
81.2250421237319671
 51
89.5748484194776466
  0
ARC
  5
B5C3
  8
0
 10
71.8644683565682669
 20
49.9294877502599093
 30
0.0
 40
0.1649454377659916
 50
260.808092292148217
 51
262.6892464753839818
  0
ARC
  5
B5C4
  8
0
 10
71.8447989503394524
 20
49.7732628331677205
 30
0.0
 40
0.0074967398673582
 50
259.8584732916124267
 51
289.0833848496096152
  0
ARC
  5
B5C5
  8
0
 10
71.8458855102746838
 20
49.7687687697206371
 30
0.0
 40
0.002928032601608
 50
297.7747371640763276
 51
346.2355057128070257
  0
ARC
  5
B5C6
  8
0
 10
71.8384355824792351
 20
49.770928511309279
 30
0.0
 40
0.0106828327209503
 50
344.4913716112500879
 51
355.5590778469447173
  0
ARC
  5
B5C7
  8
0
 10
71.5724139290659025
 20
49.7884076299611706
 30
0.0
 40
0.2772773789547766
 50
356.2144861823647943
 51
356.6526600454100162
  0
ARC
  5
B5C8
  8
0
 10
71.8392941930258928
 20
49.6858041045125134
 30
0.0
 40
0.0224448228862528
 50
268.1465090817790156
 51
283.3708544022572937
  0
ARC
  5
B5C9
  8
0
 10
71.8431919916352939
 20
49.6691637317922314
 30
0.0
 40
0.0053544251284405
 50
283.9700287336426072
 51
325.7080385440157784
  0
ARC
  5
B5CA
  8
0
 10
71.8395204935897027
 20
49.6709898813183131
 30
0.0
 40
0.0094332318116921
 50
329.1103816638564012
 51
353.6415531947395721
  0
ARC
  5
B5CB
  8
0
 10
71.8682685617569916
 20
49.6683950897836297
 30
0.0
 40
0.0194347790433747
 50
168.5844722604348078
 51
175.4253468105100922
  0
ARC
  5
B5CC
  8
0
 10
71.8303969686673156
 20
49.6442443998606677
 30
0.0
 40
0.0588526414745088
 50
80.5868975116676012
 51
91.1468615569123273
  0
ARC
  5
B5CD
  8
0
 10
71.8383885909104407
 20
49.6913683624059317
 30
0.0
 40
0.011057584571291
 50
44.5634244347785966
 51
81.5031197005791341
  0
ARC
  5
B5CE
  8
0
 10
71.8381935346588563
 20
49.6924313226580878
 30
0.0
 40
0.0104888656359027
 50
11.5515665234942499
 51
39.6728779282701609
  0
ARC
  5
B5CF
  8
0
 10
71.806309052838813
 20
49.6857691271666795
 30
0.0
 40
0.0430618619843362
 50
4.826024582481879
 51
11.7410246984712607
  0
ARC
  5
B5D0
  8
0
 10
71.8292892517826544
 20
49.2754713951497223
 30
0.0
 40
0.0199344884460563
 50
269.7959183115809196
 51
358.6556251333000205
  0
ARC
  5
B5D1
  8
0
 10
71.3337480887058462
 20
48.825629368884762
 30
0.0
 40
1.1694074461625841
 50
89.2420087145075911
 51
95.6137291847673509
  0
ARC
  5
B5D2
  8
0
 10
71.3505376946136778
 20
51.4804488224009233
 30
0.0
 40
1.496780215903998
 50
264.9719619384212024
 51
269.9494924040113233
  0
ARC
  5
B5D3
  8
0
 10
71.3383659278823075
 20
49.2222827601071629
 30
0.0
 40
0.7336315885597529
 50
89.1524154751739388
 51
99.3372361217155344
  0
ARC
  5
B5D4
  8
0
 10
71.3499524140026722
 20
50.6523322738006598
 30
0.0
 40
0.7181165141294591
 50
259.520423210193087
 51
269.9414236293192175
  0
ARC
  5
B5D5
  8
0
 10
71.3350115537380987
 20
49.4259270066972221
 30
0.0
 40
0.4646270723000273
 50
88.247819549799587
 51
104.4301270567044071
  0
ARC
  5
B5D6
  8
0
 10
71.3373178249708246
 20
50.3054315402280281
 30
0.0
 40
0.44547292366357
 50
254.6276292640449981
 51
271.53078911088528
  0
ARC
  5
B5D7
  8
0
 10
71.3349916128584596
 20
49.4145382593516587
 30
0.0
 40
0.3894706089434253
 50
87.9066263969897648
 51
107.288578731479106
  0
ARC
  5
B5D8
  8
0
 10
71.3380697754133735
 20
50.1444762511213185
 30
0.0
 40
0.3772644055733344
 50
251.6416630375439922
 51
271.6933836914037101
  0
ARC
  5
B5D9
  8
0
 10
71.3470849551051032
 20
49.2682701544686523
 30
0.0
 40
0.4348203304439708
 50
89.7188973864482193
 51
107.0997969403560006
  0
ARC
  5
B5DA
  8
0
 10
71.3483503327389599
 20
50.0830423976597672
 30
0.0
 40
0.4195368213485256
 50
252.0754286747975073
 51
270.1185304268694267
  0
ARC
  5
B5DB
  8
0
 10
71.4202920443250946
 20
16.0891977798761303
 30
0.0
 40
33.1664154069817485
 50
90.1227817859897868
 51
90.3473531569274684
  0
LINE
  5
B5DC
  8
0
 10
71.829218247330104
 20
49.596500925659079
 30
0.0
 11
71.3492182473301142
 21
49.596500925659079
 31
0.0
  0
LINE
  5
B5DD
  8
0
 10
71.8292190228301308
 20
49.556922147959078
 30
0.0
 11
71.3492182473301142
 21
49.556922147959078
 31
0.0
  0
LINE
  5
B5DE
  8
0
 10
71.829218247330104
 20
49.4926307949590694
 30
0.0
 11
71.3492182473301142
 21
49.4926307949590694
 31
0.0
  0
LINE
  5
B5DF
  8
0
 10
71.829218247330104
 20
49.4562584543590802
 30
0.0
 11
71.3492182473301142
 21
49.4562584543590802
 31
0.0
  0
LINE
  5
B5E0
  8
0
 10
71.829218247330104
 20
49.3998898000590785
 30
0.0
 11
71.3492182473301142
 21
49.3998898000590785
 31
0.0
  0
LINE
  5
B5E1
  8
0
 10
71.829218247330104
 20
49.3696705673590799
 30
0.0
 11
71.3492182473301142
 21
49.3696705673590799
 31
0.0
  0
LINE
  5
B5E2
  8
0
 10
71.829218247330104
 20
49.3257912647590686
 30
0.0
 11
71.3492182473301142
 21
49.3257912647590686
 31
0.0
  0
LINE
  5
B5E3
  8
0
 10
71.829218247330104
 20
49.3041733224590786
 30
0.0
 11
71.3492182473301142
 21
49.3041733224590786
 31
0.0
  0
LINE
  5
B5E4
  8
0
 10
71.829218247330104
 20
49.2763382116590805
 30
0.0
 11
71.3492182473301142
 21
49.2763382116590805
 31
0.0
  0
LINE
  5
B5E5
  8
0
 10
71.829218247330104
 20
49.2650729169590775
 30
0.0
 11
71.3492182473301142
 21
49.2650729169590775
 31
0.0
  0
LINE
  5
B5E6
  8
0
 10
71.829218247330104
 20
49.596500925659079
 30
0.0
 11
71.8385682404301207
 21
49.5966363749590826
 31
0.0
  0
LINE
  5
B5E7
  8
0
 10
71.8463313092301235
 20
49.4040821135590775
 30
0.0
 11
71.847865101230127
 21
49.4044253527590769
 31
0.0
  0
ARC
  5
B5E8
  8
0
 10
71.8292476821852404
 20
49.2850435773434583
 30
0.0
 40
0.0199706820764556
 50
269.9155515283230216
 51
359.8039988333488282
  0
ARC
  5
B5E9
  8
0
 10
71.8291007649861228
 20
49.2981576407300182
 30
0.0
 40
0.0218197453487271
 50
270.3084946636233781
 51
304.1638040952582855
  0
ARC
  5
B5EA
  8
0
 10
71.8312539219927828
 20
49.2959425995239116
 30
0.0
 40
0.0187855105500645
 50
302.5235400521423799
 51
342.9963740211651952
  0
ARC
  5
B5EB
  8
0
 10
71.8290666662467032
 20
49.3513455035132793
 30
0.0
 40
0.0255546883199944
 50
270.3398596435678201
 51
298.2963271982085871
  0
ARC
  5
B5EC
  8
0
 10
71.8217424131484279
 20
49.3634878509281165
 30
0.0
 40
0.0397240966763997
 50
299.2962147825779198
 51
313.762187454082607
  0
ARC
  5
B5ED
  8
0
 10
71.8296125380776971
 20
49.3243383609605601
 30
0.0
 40
0.020168892953246
 50
268.879827711695782
 51
310.7401018607220067
  0
ARC
  5
B5EE
  8
0
 10
71.8302319103138416
 20
49.3224845899704007
 30
0.0
 40
0.01837504019845
 50
313.049827721043016
 51
345.9519338367363162
  0
ARC
  5
B5EF
  8
0
 10
71.7846854313131075
 20
49.3332444894487594
 30
0.0
 40
0.0651740746105427
 50
346.494942349516009
 51
351.9559753228080012
  0
ARC
  5
B5F0
  8
0
 10
71.8296283612627349
 20
49.39436238525996
 30
0.0
 40
0.024695223519693
 50
269.0484444224061917
 51
292.4626858557371065
  0
ARC
  5
B5F1
  8
0
 10
71.8332005759831702
 20
49.3855650310801408
 30
0.0
 40
0.0152005783935872
 50
292.6893057419695765
 51
320.4449037118869796
  0
ARC
  5
B5F2
  8
0
 10
71.8313846210705833
 20
49.386529905265121
 30
0.0
 40
0.0172200950504483
 50
321.8175517224477176
 51
346.0477435390258165
  0
ARC
  5
B5F3
  8
0
 10
71.329092766646724
 20
49.4953219843020094
 30
0.0
 40
0.5311510299177075
 50
347.7228789949161865
 51
348.3054681328407014
  0
ARC
  5
B5F4
  8
0
 10
71.8290937622983421
 20
49.4331250455630311
 30
0.0
 40
0.033235478637001
 50
270.2146045100951142
 51
282.0148494168083744
  0
ARC
  5
B5F5
  8
0
 10
71.8265126429579368
 20
49.4436796261660518
 30
0.0
 40
0.0440973624550041
 50
282.4403489580794826
 51
291.9317449742976009
  0
ARC
  5
B5F6
  8
0
 10
71.8937597988936403
 20
49.2777828897282077
 30
0.0
 40
0.1349109171714429
 50
110.5824019401855054
 51
112.1091454367811053
  0
ARC
  5
B5F7
  8
0
 10
71.8479314138595555
 20
49.4033798060576075
 30
0.0
 40
0.0010476474930862
 50
50.2559595872038116
 51
93.6290598308990951
  0
ARC
  5
B5F8
  8
0
 10
71.8472664572174295
 20
49.4029934717077666
 30
0.0
 40
0.0017894726907293
 50
9.0247954209359271
 51
41.7629701396920723
  0
ARC
  5
B5F9
  8
0
 10
71.8312674609025521
 20
49.4005093436397189
 30
0.0
 40
0.0179801632349401
 50
3.2756293219188182
 51
8.8455267916131106
  0
ARC
  5
B5FA
  8
0
 10
71.8295536070397276
 20
49.4870675807961931
 30
0.0
 40
0.0308109515911515
 50
269.3763556656404035
 51
295.6931725564940052
  0
ARC
  5
B5FB
  8
0
 10
71.8344876269235471
 20
49.47082928206963
 30
0.0
 40
0.0142766305727253
 50
306.1615254118077019
 51
337.415668389868415
  0
ARC
  5
B5FC
  8
0
 10
71.8257727171821045
 20
49.4738082254525366
 30
0.0
 40
0.0234748588633095
 50
338.871463344103006
 51
357.135715638637123
  0
ARC
  5
B5FD
  8
0
 10
71.8287631451043751
 20
49.553961763481702
 30
0.0
 40
0.0613326570267301
 50
270.4251515805219128
 51
278.7749578762679903
  0
ARC
  5
B5FE
  8
0
 10
71.8644683565682669
 20
49.3305196494582532
 30
0.0
 40
0.1649454377659916
 50
97.310753524616004
 51
99.1919077078518825
  0
ARC
  5
B5FF
  8
0
 10
71.8447989503394524
 20
49.486744566550442
 30
0.0
 40
0.0074967398673582
 50
70.9166151503903848
 51
100.1415267083875023
  0
ARC
  5
B600
  8
0
 10
71.8458855102746838
 20
49.4912386299975111
 30
0.0
 40
0.002928032601608
 50
13.7644942871929405
 51
62.2252628359233384
  0
ARC
  5
B601
  8
0
 10
71.8384355824792351
 20
49.4890788884088906
 30
0.0
 40
0.0106828327209503
 50
4.4409221530552934
 51
15.5086283887499192
  0
ARC
  5
B602
  8
0
 10
71.5724139290659025
 20
49.4715997697569918
 30
0.0
 40
0.2772773789547766
 50
3.3473399545899749
 51
3.7855138176351049
  0
ARC
  5
B603
  8
0
 10
71.8392941930258928
 20
49.5742032952056491
 30
0.0
 40
0.0224448228862528
 50
63.7586348993887029
 51
91.8534909182209987
  0
ARC
  5
B604
  8
0
 10
71.8303969686673156
 20
49.6157629998575018
 30
0.0
 40
0.0588526414745088
 50
268.8531384430876869
 51
279.413102488332413
  0
ARC
  5
B605
  8
0
 10
71.8383885909104407
 20
49.5686390373122308
 30
0.0
 40
0.011057584571291
 50
278.496880299420809
 51
348.3466146813026967
  0
ARC
  5
B606
  8
0
 10
71.3337480887058462
 20
50.4343780308334004
 30
0.0
 40
1.1694074461625841
 50
264.3862708152325922
 51
270.7579912854923805
  0
ARC
  5
B607
  8
0
 10
71.3505376946136778
 20
47.7795585773172533
 30
0.0
 40
1.496780215903998
 50
90.0505075959886341
 51
95.0280380615787834
  0
ARC
  5
B608
  8
0
 10
71.3383659278823075
 20
50.0377246396109925
 30
0.0
 40
0.7336315885597529
 50
260.6627638782845224
 51
270.847584524826118
  0
ARC
  5
B609
  8
0
 10
71.3499524140026722
 20
48.6076751259174884
 30
0.0
 40
0.7181165141294591
 50
90.0585763706808251
 51
100.4795767898064014
  0
ARC
  5
B60A
  8
0
 10
71.3350115537380987
 20
49.8340803930209404
 30
0.0
 40
0.4646270723000273
 50
255.5698729432955929
 51
271.7521804502003988
  0
ARC
  5
B60B
  8
0
 10
71.3373178249708246
 20
48.9545758594901415
 30
0.0
 40
0.44547292366357
 50
88.4692108891146347
 51
105.3723707359549024
  0
ARC
  5
B60C
  8
0
 10
71.3349916128584596
 20
49.8454691403664967
 30
0.0
 40
0.3894706089434253
 50
252.7114212685204961
 51
272.0933736030102068
  0
ARC
  5
B60D
  8
0
 10
71.3380697754133735
 20
49.1155311485968369
 30
0.0
 40
0.3772644055733344
 50
88.3066163085963325
 51
108.3583369624559936
  0
ARC
  5
B60E
  8
0
 10
71.3470849551051032
 20
49.9917372452495101
 30
0.0
 40
0.4348203304439708
 50
252.9002030596437862
 51
270.2811026135518091
  0
ARC
  5
B60F
  8
0
 10
71.3483503327389599
 20
49.1769650020583811
 30
0.0
 40
0.4195368213485256
 50
89.8814695731306301
 51
107.924571325202507
  0
ENDSEC
  0
EOF
