  0
SECTION
  2
HEADER
  9
$ACADVER
  1
AC1009
  9
$INSBASE
 10
361.9481633158898717
 20
15.7837223069107697
 30
0.0
  9
$EXTMIN
 10
353.2648534224395007
 20
14.1555210875186805
 30
-0.0000000000112498
  9
$EXTMAX
 10
361.9641891718525244
 20
17.4129009996017388
 30
0.0000000000002956
  9
$LIMMIN
 10
0.0
 20
0.0
  9
$LIMMAX
 10
11.6929133858000007
 20
8.2677165353999982
  9
$ORTHOMODE
 70
     0
  9
$REGENMODE
 70
     1
  9
$FILLMODE
 70
     1
  9
$QTEXTMODE
 70
     0
  9
$MIRRTEXT
 70
     0
  9
$DRAGMODE
 70
     2
  9
$LTSCALE
 40
0.6431102362
  9
$OSMODE
 70
  4095
  9
$ATTMODE
 70
     1
  9
$TEXTSIZE
 40
0.2
  9
$TRACEWID
 40
0.05
  9
$TEXTSTYLE
  7
STANDARD
  9
$CLAYER
  8
0
  9
$CELTYPE
  6
BYLAYER
  9
$CECOLOR
 62
   256
  9
$DIMSCALE
 40
1.0
  9
$DIMASZ
 40
0.1875
  9
$DIMEXO
 40
0.0625
  9
$DIMDLI
 40
0.4443307087
  9
$DIMRND
 40
0.0
  9
$DIMDLE
 40
0.0
  9
$DIMEXE
 40
0.125
  9
$DIMTP
 40
0.01
  9
$DIMTM
 40
0.01
  9
$DIMTXT
 40
0.15625
  9
$DIMCEN
 40
0.1052362205
  9
$DIMTSZ
 40
0.0
  9
$DIMTOL
 70
     1
  9
$DIMLIM
 70
     0
  9
$DIMTIH
 70
     1
  9
$DIMTOH
 70
     1
  9
$DIMSE1
 70
     0
  9
$DIMSE2
 70
     0
  9
$DIMTAD
 70
     0
  9
$DIMZIN
 70
     0
  9
$DIMBLK
  1

  9
$DIMASO
 70
     1
  9
$DIMSHO
 70
     1
  9
$DIMPOST
  1
\X
  9
$DIMAPOST
  1

  9
$DIMALT
 70
     1
  9
$DIMALTD
 70
     2
  9
$DIMALTF
 40
25.3999999999999986
  9
$DIMLFAC
 40
1.0
  9
$DIMTOFL
 70
     0
  9
$DIMTVP
 40
0.0
  9
$DIMTIX
 70
     0
  9
$DIMSOXD
 70
     0
  9
$DIMSAH
 70
     0
  9
$DIMBLK1
  1

  9
$DIMBLK2
  1

  9
$DIMSTYLE
  2
STANDARD
  9
$DIMCLRD
 70
     0
  9
$DIMCLRE
 70
     0
  9
$DIMCLRT
 70
     0
  9
$DIMTFAC
 40
1.0
  9
$DIMGAP
 40
0.09
  9
$LUNITS
 70
     2
  9
$LUPREC
 70
     4
  9
$SKETCHINC
 40
0.1
  9
$FILLETRAD
 40
0.0
  9
$AUNITS
 70
     0
  9
$AUPREC
 70
     0
  9
$MENU
  1
.
  9
$ELEVATION
 40
0.0
  9
$PELEVATION
 40
0.0
  9
$THICKNESS
 40
0.0
  9
$LIMCHECK
 70
     0
  9
$BLIPMODE
 70
     0
  9
$CHAMFERA
 40
0.0
  9
$CHAMFERB
 40
0.0
  9
$SKPOLY
 70
     0
  9
$TDCREATE
 40
2458018.639108797069639
  9
$TDUPDATE
 40
2460281.8205092591233552
  9
$TDINDWG
 40
0.4294324074
  9
$TDUSRTIMER
 40
0.4294324074
  9
$USRTIMER
 70
     1
  9
$ANGBASE
 50
0.0
  9
$ANGDIR
 70
     0
  9
$PDMODE
 70
     0
  9
$PDSIZE
 40
0.3125
  9
$PLINEWID
 40
0.0
  9
$COORDS
 70
     1
  9
$SPLFRAME
 70
     0
  9
$SPLINETYPE
 70
     6
  9
$SPLINESEGS
 70
     8
  9
$ATTDIA
 70
     1
  9
$ATTREQ
 70
     1
  9
$HANDLING
 70
     1
  9
$HANDSEED
  5
BF32
  9
$SURFTAB1
 70
     6
  9
$SURFTAB2
 70
     6
  9
$SURFTYPE
 70
     6
  9
$SURFU
 70
     6
  9
$SURFV
 70
     6
  9
$UCSNAME
  2

  9
$UCSORG
 10
0.0
 20
0.0
 30
0.0
  9
$UCSXDIR
 10
1.0
 20
0.0
 30
0.0
  9
$UCSYDIR
 10
0.0
 20
1.0
 30
0.0
  9
$PUCSNAME
  2

  9
$PUCSORG
 10
0.0
 20
0.0
 30
0.0
  9
$PUCSXDIR
 10
1.0
 20
0.0
 30
0.0
  9
$PUCSYDIR
 10
0.0
 20
1.0
 30
0.0
  9
$USERI1
 70
     0
  9
$USERI2
 70
     0
  9
$USERI3
 70
     0
  9
$USERI4
 70
     0
  9
$USERI5
 70
     0
  9
$USERR1
 40
0.0
  9
$USERR2
 40
0.0
  9
$USERR3
 40
0.0
  9
$USERR4
 40
0.0
  9
$USERR5
 40
0.0
  9
$WORLDVIEW
 70
     1
  9
$SHADEDGE
 70
     3
  9
$SHADEDIF
 70
    70
  9
$TILEMODE
 70
     1
  9
$MAXACTVP
 70
    64
  9
$PLIMCHECK
 70
     0
  9
$PEXTMIN
 10
1.0000000000000000E+20
 20
1.0000000000000000E+20
 30
1.0000000000000000E+20
  9
$PEXTMAX
 10
-1.0000000000000000E+20
 20
-1.0000000000000000E+20
 30
-1.0000000000000000E+20
  9
$PLIMMIN
 10
0.0
 20
0.0
  9
$PLIMMAX
 10
12.0
 20
9.0
  9
$UNITMODE
 70
     0
  9
$VISRETAIN
 70
     1
  9
$PLINEGEN
 70
     0
  9
$PSLTSCALE
 70
     1
  0
ENDSEC
  0
SECTION
  2
TABLES
  0
TABLE
  2
VPORT
 70
     1
  0
VPORT
  2
*ACTIVE
 70
     0
 10
0.0
 20
0.0
 11
1.0
 21
1.0
 12
262.2902602994082031
 22
8.7478790323373712
 13
0.0
 23
0.0
 14
1.0
 24
1.0
 15
0.0
 25
0.0
 16
-0.0000000000000142
 26
0.0
 36
39.3282560748450578
 17
95.3242609977377526
 27
7.0363320112228394
 37
0.0
 40
3.5656267120224499
 41
2.4474358974358972
 42
50.0
 43
0.0
 44
0.0
 50
0.0
 51
0.0
 71
     0
 72
   100
 73
     1
 74
     1
 75
     0
 76
     0
 77
     0
 78
     0
  0
ENDTAB
  0
TABLE
  2
LTYPE
 70
     2
  0
LTYPE
  2
CONTINUOUS
 70
     0
  3
Solid line
 72
    65
 73
     0
 40
0.0
  0
LTYPE
  2
PHANTOM2
 70
     0
  3
___ _ _ ___ _ _ ___ _ _ ___ _ _
 72
    65
 73
     6
 40
1.25
 49
0.625
 49
-0.125
 49
0.125
 49
-0.125
 49
0.125
 49
-0.125
  0
ENDTAB
  0
TABLE
  2
LAYER
 70
     2
  0
LAYER
  2
0
 70
     0
 62
   255
  6
CONTINUOUS
  0
LAYER
  2
DEFPOINTS
 70
     0
 62
     7
  6
CONTINUOUS
  0
ENDTAB
  0
TABLE
  2
STYLE
 70
     1
  0
STYLE
  2
STANDARD
 70
     0
 40
0.0
 41
0.8
 50
0.0
 71
     0
 42
0.2
  3
txt
  4

  0
ENDTAB
  0
TABLE
  2
VIEW
 70
     0
  0
ENDTAB
  0
TABLE
  2
UCS
 70
     0
  0
ENDTAB
  0
TABLE
  2
APPID
 70
    10
  0
APPID
  2
ACAD
 70
     0
  0
APPID
  2
ACAD_MLEADERVER
 70
     0
  0
APPID
  2
ACAD_DSTYLE_DIMJAG
 70
     0
  0
APPID
  2
ACAD_DSTYLE_DIMTALN
 70
     0
  0
APPID
  2
ACAD_NAV_VCDISPLAY
 70
     0
  0
APPID
  2
ACAD_EXEMPT_FROM_CAD_STANDARDS
 70
     0
  0
APPID
  2
ACAECLAYERSTANDARD
 70
     0
  0
APPID
  2
ACCMTRANSPARENCY
 70
     0
  0
APPID
  2
DCO15
 70
     0
  0
APPID
  2
ACDBATTR
 70
     0
  0
ENDTAB
  0
TABLE
  2
DIMSTYLE
 70
     1
  0
DIMSTYLE
  2
STANDARD
 70
     0
  3

  4

  5

  6

  7

 40
1.0
 41
0.1875
 42
0.0625
 43
0.38
 44
0.125
 45
0.0
 46
0.0
 47
0.01
 48
0.01
140
0.15625
141
0.09
142
0.0
143
25.3999999999999986
144
1.0
145
0.0
146
1.0
147
0.09
 71
     1
 72
     0
 73
     1
 74
     1
 75
     0
 76
     0
 77
     0
 78
     4
170
     0
171
     2
172
     0
173
     0
174
     0
175
     0
176
     0
177
     0
178
     0
  0
ENDTAB
  0
ENDSEC
  0
SECTION
  2
BLOCKS
  0
BLOCK
  8
0
  2
$MODEL_SPACE
 70
     0
 10
0.0
 20
0.0
 30
0.0
  3
$MODEL_SPACE
  1

  0
ENDBLK
  5
21
  8
0
  0
BLOCK
 67
     1
  8
0
  2
$PAPER_SPACE
 70
     0
 10
0.0
 20
0.0
 30
0.0
  3
$PAPER_SPACE
  1

  0
ENDBLK
  5
1D
 67
     1
  8
0
  0
BLOCK
  8
0
  2
_FILLED
 70
     0
 10
0.0
 20
0.0
 30
0.0
  3
_FILLED
  1

  0
SOLID
  5
A58D
  8
0
  6
BYBLOCK
 62
     0
 10
0.0
 20
0.0
 30
0.0
 11
-1.0
 21
0.1666666667
 31
0.0
 12
-1.0
 22
-0.1666666667
 32
0.0
 13
-1.0
 23
-0.1666666667
 33
0.0
  0
ENDBLK
  5
A58E
  8
0
  6
BYBLOCK
 62
     0
  0
ENDSEC
  0
SECTION
  2
ENTITIES
  0
ATTDEF
  5
7A6E
  8
DEFPOINTS
 10
361.9485260626474883
 20
15.7865425691790193
 30
0.0
 40
0.001
  1
P32076-JST
  3

  2
MODELNUMBER
 70
     0
1001
ACDBATTR
1070
     0
1070
     1
  0
ATTDEF
  5
7A6F
  8
DEFPOINTS
 10
361.9485260626474883
 20
15.7848759025123595
 30
0.0
 40
0.001
  1
002
  3

  2
TRADENAME
 70
     0
1001
ACDBATTR
1070
     0
1070
     1
  0
ATTDEF
  5
7A70
  8
DEFPOINTS
 10
361.9485260626474883
 20
15.7832092358456908
 30
0.0
 40
0.001
  1
BATHROOM SINK FAUCET
  3

  2
PRODUCT
 70
     0
1001
ACDBATTR
1070
     0
1070
     1
  0
LINE
  5
BDD0
  8
0
 10
361.9481633158898717
 20
14.6427223069107697
 30
0.0
 11
361.9481633158898717
 21
16.9247223069107697
 31
0.0
  0
LINE
  5
BDD1
  8
0
 10
361.6721633158899181
 20
14.6817223069107694
 30
0.0
 11
361.6721633158899181
 21
16.8857223069107683
 31
0.0
  0
LINE
  5
BDD2
  8
0
 10
361.9481633158898717
 20
16.9247223069107697
 30
0.0
 11
361.7111633158899053
 21
16.9247223069107697
 31
0.0
  0
ARC
  5
BDD3
  8
0
 10
361.7111633158899053
 20
16.8857223069107683
 30
0.0
 40
0.039
 50
89.9999999999837144
 51
179.9999999999992042
  0
LINE
  5
BDD4
  8
0
 10
360.1955633158898991
 20
16.2864732453107699
 30
0.0
 11
361.6721633158899181
 21
16.2864732453107699
 31
0.0
  0
LINE
  5
BDD5
  8
0
 10
360.1375633158899063
 20
16.2927223069107683
 30
0.0
 11
359.7669185353898911
 21
16.2927223069107683
 31
0.0
  0
LINE
  5
BDD6
  8
0
 10
360.1855633158899082
 20
16.2764732453107683
 30
0.0
 11
360.1855633158899082
 21
15.2784732453107708
 31
0.0
  0
LINE
  5
BDD7
  8
0
 10
360.1475633158898972
 20
16.2827223069107703
 30
0.0
 11
360.1475633158898972
 21
15.2847223069107692
 31
0.0
  0
ARC
  5
BDD8
  8
0
 10
360.1955633158898991
 20
16.2764732453107683
 30
0.0
 40
0.01
 50
90.0
 51
180.0
  0
LINE
  5
BDD9
  8
0
 10
360.1755633158899172
 20
16.2437223069107688
 30
0.0
 11
360.1475633158898972
 21
16.2437223069107688
 31
0.0
  0
ARC
  5
BDDA
  8
0
 10
360.1755633158899172
 20
16.2537223069107704
 30
0.0
 40
0.01
 50
269.999999999980389
 51
0.0000000000024427
  0
ARC
  5
BDDB
  8
0
 10
360.1375633158899063
 20
16.2827223069107703
 30
0.0
 40
0.01
 50
359.9999999999869829
 51
90.0000000000390656
  0
LINE
  5
BDDC
  8
0
 10
359.6109185353898852
 20
16.4487223069107706
 30
0.0
 11
359.6109185353898852
 21
16.9717223069107703
 31
0.0
  0
LINE
  5
BDDD
  8
0
 10
359.1925633158897995
 20
17.3919097512193801
 30
0.0
 11
359.1925633158897995
 21
14.1755348626021593
 31
0.0
  0
LINE
  5
BDDE
  8
0
 10
358.9401622401898067
 20
17.1458782827590497
 30
0.0
 11
358.9401622401898067
 21
14.4215663310625395
 31
0.0
  0
LINE
  5
BDDF
  8
0
 10
359.1438568448779165
 20
17.3527692719107698
 30
0.0
 11
359.1668864594898878
 21
17.3527692719107698
 31
0.0
  0
ARC
  5
BDE0
  8
0
 10
359.7669185353898911
 20
16.4487223069107706
 30
0.0
 40
0.156
 50
180.0000000000003979
 51
270.0
  0
ARC
  5
BDE1
  8
0
 10
359.1684185353898897
 20
16.9717223069107703
 30
0.0
 40
0.442499999999999
 50
0.0
 51
84.0025219723204515
  0
ARC
  5
BDE2
  8
0
 10
359.212563315889895
 20
17.3919097512193801
 30
0.0
 40
0.02
 50
84.0025219723204515
 51
179.999999999997101
  0
LINE
  5
BDE3
  8
0
 10
359.171889148738785
 20
17.3514279727531715
 30
0.0
 11
359.1925633158897995
 21
17.3394831746107698
 31
0.0
  0
ARC
  5
BDE4
  8
0
 10
359.1668864594898878
 20
17.3427692719107789
 30
0.0
 40
0.01
 50
59.982206476534472
 51
90.0000000000390656
  0
ARC
  5
BDE5
  8
0
 10
359.3738573219263799
 20
16.9064322443362407
 30
0.0
 40
0.5038270152102476
 50
118.0677360059714971
 51
147.3501827472834123
  0
ARC
  5
BDE6
  8
0
 10
359.1438568448779165
 20
17.3377692719107692
 30
0.0
 40
0.015
 50
90.0
 51
118.0677360059682002
  0
ARC
  5
BDE7
  8
0
 10
359.0001622401902068
 20
17.1458782827590106
 30
0.0
 40
0.06
 50
147.3501827474223091
 51
179.9999999999600959
  0
LINE
  5
BDE8
  8
0
 10
359.171889148738785
 20
17.3514279727531715
 30
0.0
 11
359.171889148738785
 21
14.2160166410683697
 31
0.0
  0
LINE
  5
BDE9
  8
0
 10
359.136799118834972
 20
17.3510051512961105
 30
0.0
 11
359.136799118834972
 21
14.2164394625254396
 31
0.0
  0
LINE
  5
BDEA
  8
0
 10
361.9481633158898717
 20
14.6427223069107697
 30
0.0
 11
361.7111633158899053
 21
14.6427223069107697
 31
0.0
  0
ARC
  5
BDEB
  8
0
 10
361.7111633158899053
 20
14.6817223069107694
 30
0.0
 40
0.039
 50
180.0000000000003979
 51
270.0000000000163141
  0
LINE
  5
BDEC
  8
0
 10
360.1955633158898991
 20
15.2684732453107692
 30
0.0
 11
361.6721633158899181
 21
15.2684732453107692
 31
0.0
  0
LINE
  5
BDED
  8
0
 10
360.1375633158899063
 20
15.2747223069107694
 30
0.0
 11
359.7669185353898911
 21
15.2747223069107694
 31
0.0
  0
ARC
  5
BDEE
  8
0
 10
360.1955633158898991
 20
15.2784732453107708
 30
0.0
 40
0.01
 50
180.0
 51
270.0
  0
LINE
  5
BDEF
  8
0
 10
360.1755633158899172
 20
15.3237223069107706
 30
0.0
 11
360.1475633158898972
 21
15.3237223069107706
 31
0.0
  0
ARC
  5
BDF0
  8
0
 10
360.1755633158899172
 20
15.3137223069107709
 30
0.0
 40
0.01
 50
359.9999999999972147
 51
90.0000000000195257
  0
ARC
  5
BDF1
  8
0
 10
360.1375633158899063
 20
15.2847223069107692
 30
0.0
 40
0.01
 50
269.9999999999575948
 51
0.0000000000126204
  0
LINE
  5
BDF2
  8
0
 10
359.6109185353898852
 20
15.1187223069107706
 30
0.0
 11
359.6109185353898852
 21
14.5957223069107709
 31
0.0
  0
LINE
  5
BDF3
  8
0
 10
359.1438568448779165
 20
14.2146753419107696
 30
0.0
 11
359.1668864594898878
 21
14.2146753419107696
 31
0.0
  0
ARC
  5
BDF4
  8
0
 10
359.7669185353898911
 20
15.1187223069107706
 30
0.0
 40
0.156
 50
90.0
 51
179.9999999999992042
  0
ARC
  5
BDF5
  8
0
 10
359.1684185353898897
 20
14.5957223069107709
 30
0.0
 40
0.442499999999999
 50
275.9974780276796196
 51
0.0
  0
ARC
  5
BDF6
  8
0
 10
359.212563315889895
 20
14.1755348626021593
 30
0.0
 40
0.02
 50
180.0000000000023874
 51
275.9974780276796196
  0
LINE
  5
BDF7
  8
0
 10
359.171889148738785
 20
14.2160166410683697
 30
0.0
 11
359.1925633158897995
 21
14.2279614392107696
 31
0.0
  0
ARC
  5
BDF8
  8
0
 10
359.1668864594898878
 20
14.2246753419107606
 30
0.0
 40
0.01
 50
269.9999999999575948
 51
300.0177935234651727
  0
ARC
  5
BDF9
  8
0
 10
359.3738573219263799
 20
14.6610123694853005
 30
0.0
 40
0.5038270152102476
 50
212.6498172527143993
 51
241.9322639940280908
  0
ARC
  5
BDFA
  8
0
 10
359.1438568448779165
 20
14.2296753419107702
 30
0.0
 40
0.015
 50
241.9322639940317003
 51
270.0
  0
ARC
  5
BDFB
  8
0
 10
359.0001622401902068
 20
14.4215663310625395
 30
0.0
 40
0.06
 50
180.0000000000399041
 51
212.6498172525772929
  0
ARC
  5
BDFC
  8
0
 10
359.1684185353898897
 20
15.7837223069107697
 30
0.0
 40
0.4424999999999983
 50
275.9974780276796196
 51
84.0025219723204515
  0
ARC
  5
BDFD
  8
0
 10
359.212563315889895
 20
15.3635348626021599
 30
0.0
 40
0.02
 50
180.0
 51
275.9974780276796196
  0
ARC
  5
BDFE
  8
0
 10
359.212563315889895
 20
16.2039097512193884
 30
0.0
 40
0.02
 50
84.0025219723204515
 51
179.9999999999988063
  0
LINE
  5
BDFF
  8
0
 10
359.1438568448779165
 20
16.164769271910771
 30
0.0
 11
359.1668864594898878
 21
16.164769271910771
 31
0.0
  0
LINE
  5
BE00
  8
0
 10
359.171889148738785
 20
16.1634279727531691
 30
0.0
 11
359.1925633158897995
 21
16.151483174610771
 31
0.0
  0
ARC
  5
BE01
  8
0
 10
359.1668864594898878
 20
16.15476927191078
 30
0.0
 40
0.01
 50
59.982206476534472
 51
90.0000000000390656
  0
ARC
  5
BE02
  8
0
 10
359.3738573219263799
 20
15.7184322443362401
 30
0.0
 40
0.5038270152102476
 50
118.0677360059714971
 51
147.3501827472834123
  0
ARC
  5
BE03
  8
0
 10
359.1438568448779165
 20
16.149769271910781
 30
0.0
 40
0.015
 50
90.0
 51
118.0677360059682002
  0
ARC
  5
BE04
  8
0
 10
359.0001622401902068
 20
15.95787828275901
 30
0.0
 40
0.06
 50
147.3501827474223091
 51
179.9999999999600959
  0
LINE
  5
BE05
  8
0
 10
359.1438568448779165
 20
15.4026753419107703
 30
0.0
 11
359.1668864594898878
 21
15.4026753419107703
 31
0.0
  0
LINE
  5
BE06
  8
0
 10
359.171889148738785
 20
15.4040166410683703
 30
0.0
 11
359.1925633158897995
 21
15.4159614392107702
 31
0.0
  0
ARC
  5
BE07
  8
0
 10
359.1668864594898878
 20
15.4126753419107594
 30
0.0
 40
0.01
 50
269.9999999999575948
 51
300.0177935234651727
  0
ARC
  5
BE08
  8
0
 10
359.3738573219263799
 20
15.8490123694852993
 30
0.0
 40
0.5038270152102476
 50
212.6498172527143993
 51
241.9322639940280908
  0
ARC
  5
BE09
  8
0
 10
359.1438568448779165
 20
15.4176753419107708
 30
0.0
 40
0.015
 50
241.9322639940317003
 51
270.0
  0
ARC
  5
BE0A
  8
0
 10
359.0001622401902068
 20
15.6095663310625401
 30
0.0
 40
0.06
 50
180.0000000000399041
 51
212.6498172525772929
  0
LINE
  5
BE0B
  8
0
 10
359.7669185353898911
 20
15.2747223069107694
 30
0.0
 11
360.2704759478716028
 21
15.2459567708469006
 31
0.0
  0
LINE
  5
BE0C
  8
0
 10
360.5305205976943057
 20
15.2315007566183809
 30
0.0
 11
361.65162840452399
 21
15.1756338283554602
 31
0.0
  0
ARC
  5
BE0D
  8
0
 10
361.6526057805202186
 20
15.1952472900858204
 30
0.0
 40
0.0196377988808817
 50
267.1472024529704754
 51
354.8179889478909104
  0
ARC
  5
BE0E
  8
0
 10
360.3718389704554852
 20
14.7231856741857996
 30
0.0
 40
0.5325073538004643
 50
72.6631091630838455
 51
100.9732376551454962
  0
LINE
  5
BE0F
  8
0
 10
353.3075141916411894
 20
16.1526470204348485
 30
0.0
 11
358.9401622401898067
 21
16.1526470204348485
 31
0.0
  0
LINE
  5
BE10
  8
0
 10
353.7810771163153731
 20
16.2202669934107711
 30
0.0
 11
358.9401622401898067
 21
16.2202669934107711
 31
0.0
  0
LINE
  5
BE11
  8
0
 10
355.8138955992907881
 20
15.4261725052107703
 30
0.0
 11
355.4381633158898808
 21
15.4261725052107703
 31
0.0
  0
ARC
  5
BE12
  8
0
 10
354.0235195130575221
 20
16.1714940064978414
 30
0.0
 40
0.748033271971025
 50
184.3453303368495142
 51
274.8801698884220741
  0
ARC
  5
BE13
  8
0
 10
353.3166363617474985
 20
16.1147288715803612
 30
0.0
 40
0.039
 50
103.3522602181127041
 51
179.8701010375216924
  0
ARC
  5
BE14
  8
0
 10
353.9137638539393151
 20
13.5989536101923996
 30
0.0
 40
2.6246694312581522
 50
92.8977485355445367
 51
103.352260218109393
  0
ARC
  5
BE15
  8
0
 10
354.0861785646548014
 20
15.4414328193204096
 30
0.0
 40
0.0152916015172657
 50
273.6658105033076822
 51
321.2552972933934257
  0
ARC
  5
BE16
  8
0
 10
354.2610658511895281
 20
14.7784129766125201
 30
0.0
 40
0.6734630950501365
 50
101.9640727845306998
 51
104.0030908008491934
  0
ARC
  5
BE17
  8
0
 10
354.1183486190191729
 20
15.4519211242155396
 30
0.0
 40
0.015
 50
281.9640727845340962
 51
320.2408520672345844
  0
ARC
  5
BE18
  8
0
 10
354.3294967788011149
 20
15.1507438265130805
 30
0.0
 40
0.3561632715290072
 50
92.4675096621551091
 51
117.2090728050545039
  0
ARC
  5
BE19
  8
0
 10
354.275449390735389
 20
15.2556293807178207
 30
0.0
 40
0.238171399445984
 50
117.1828563752460042
 51
124.7430315404877064
  0
ARC
  5
BE1A
  8
0
 10
354.1679084671795863
 20
15.4106892456459494
 30
0.0
 40
0.0494689565609841
 50
124.7430315404872943
 51
140.2408520672346128
  0
LINE
  5
BE1B
  8
0
 10
354.3141629324991868
 20
15.5065768619999904
 30
0.0
 11
355.2106289021448902
 21
15.5065768619999904
 31
0.0
  0
ARC
  5
BE1C
  8
0
 10
355.4406353846533761
 20
15.44442937248518
 30
0.0
 40
0.018423472165873
 50
220.7895045288699976
 51
262.2887712436681795
  0
ARC
  5
BE1D
  8
0
 10
355.2637259834546057
 20
14.7789440780766306
 30
0.0
 40
0.6734630950501365
 50
75.9969091991508208
 51
78.035927215469286
  0
ARC
  5
BE1E
  8
0
 10
355.406443215624904
 20
15.4524522256796502
 30
0.0
 40
0.015
 50
219.7591479327653872
 51
258.0359272154660175
  0
ARC
  5
BE1F
  8
0
 10
355.196585471285573
 20
15.1513142751419192
 30
0.0
 40
0.3555400449617338
 50
62.9729693160355026
 51
87.736292432431469
  0
ARC
  5
BE20
  8
0
 10
355.249342443908688
 20
15.2561604821819294
 30
0.0
 40
0.238171399445984
 50
55.2569684595122723
 51
62.8171436247539887
  0
ARC
  5
BE21
  8
0
 10
355.3568833674644907
 20
15.4112203471100599
 30
0.0
 40
0.0494689565609841
 50
39.7591479327653516
 51
55.25696845951272
  0
ARC
  5
BE22
  8
0
 10
354.1804062493820879
 20
-153.109682423994002
 30
0.0
 40
168.5694066590367015
 50
89.9761266614497259
 51
90.0094233202316616
  0
ARC
  5
BE23
  8
0
 10
354.4105834155299135
 20
14.8901945741274009
 30
0.0
 40
0.5915471683047661
 50
90.2247736338580779
 51
105.6865892005804
  0
ARC
  5
BE24
  8
0
 10
354.7603606925184749
 20
-11.3132526594020106
 30
0.0
 40
26.7973031107023516
 50
89.2008530063217933
 51
90.7528483757549367
  0
ARC
  5
BE25
  8
0
 10
355.1124496167755069
 20
14.88334107254631
 30
0.0
 40
0.5984949610223969
 50
74.3767495178071698
 51
87.9258779175971767
  0
ARC
  5
BE26
  8
0
 10
355.3025459839208793
 20
37448.92047966318205
 30
0.0
 40
37433.4607560183430905
 50
269.9999557421425038
 51
270.0001078150951912
  0
ARC
  5
BE27
  8
0
 10
355.4780026028163888
 20
-41.3567030599697887
 30
0.0
 40
56.7838690259466219
 50
86.5044607255697713
 51
89.6610769285044427
  0
ENDSEC
  0
EOF
