  0
SECTION
  2
HEADER
  9
$ACADVER
  1
AC1009
  9
$INSBASE
 10
359.477369901981092
 20
9.5665808743337095
 30
0.0
  9
$EXTMIN
 10
350.791059394264721
 20
7.9383604937553613
 30
-0.0000000000000058
  9
$EXTMAX
 10
359.5131110040534281
 20
11.1953296275855791
 30
0.0000000000000104
  9
$LIMMIN
 10
0.0
 20
0.0
  9
$LIMMAX
 10
11.6929133858000007
 20
8.2677165353999982
  9
$ORTHOMODE
 70
     0
  9
$REGENMODE
 70
     1
  9
$FILLMODE
 70
     1
  9
$QTEXTMODE
 70
     0
  9
$MIRRTEXT
 70
     0
  9
$DRAGMODE
 70
     2
  9
$LTSCALE
 40
0.6431102362
  9
$OSMODE
 70
  4095
  9
$ATTMODE
 70
     1
  9
$TEXTSIZE
 40
0.2
  9
$TRACEWID
 40
0.05
  9
$TEXTSTYLE
  7
STANDARD
  9
$CLAYER
  8
0
  9
$CELTYPE
  6
BYLAYER
  9
$CECOLOR
 62
   256
  9
$DIMSCALE
 40
1.0
  9
$DIMASZ
 40
0.1875
  9
$DIMEXO
 40
0.0625
  9
$DIMDLI
 40
0.4443307087
  9
$DIMRND
 40
0.0
  9
$DIMDLE
 40
0.0
  9
$DIMEXE
 40
0.125
  9
$DIMTP
 40
0.01
  9
$DIMTM
 40
0.01
  9
$DIMTXT
 40
0.15625
  9
$DIMCEN
 40
0.1052362205
  9
$DIMTSZ
 40
0.0
  9
$DIMTOL
 70
     1
  9
$DIMLIM
 70
     0
  9
$DIMTIH
 70
     1
  9
$DIMTOH
 70
     1
  9
$DIMSE1
 70
     0
  9
$DIMSE2
 70
     0
  9
$DIMTAD
 70
     0
  9
$DIMZIN
 70
     0
  9
$DIMBLK
  1

  9
$DIMASO
 70
     1
  9
$DIMSHO
 70
     1
  9
$DIMPOST
  1
\X
  9
$DIMAPOST
  1

  9
$DIMALT
 70
     1
  9
$DIMALTD
 70
     2
  9
$DIMALTF
 40
25.3999999999999986
  9
$DIMLFAC
 40
1.0
  9
$DIMTOFL
 70
     0
  9
$DIMTVP
 40
0.0
  9
$DIMTIX
 70
     0
  9
$DIMSOXD
 70
     0
  9
$DIMSAH
 70
     0
  9
$DIMBLK1
  1

  9
$DIMBLK2
  1

  9
$DIMSTYLE
  2
STANDARD
  9
$DIMCLRD
 70
     0
  9
$DIMCLRE
 70
     0
  9
$DIMCLRT
 70
     0
  9
$DIMTFAC
 40
1.0
  9
$DIMGAP
 40
0.09
  9
$LUNITS
 70
     2
  9
$LUPREC
 70
     4
  9
$SKETCHINC
 40
0.1
  9
$FILLETRAD
 40
0.0
  9
$AUNITS
 70
     0
  9
$AUPREC
 70
     0
  9
$MENU
  1
.
  9
$ELEVATION
 40
0.0
  9
$PELEVATION
 40
0.0
  9
$THICKNESS
 40
0.0
  9
$LIMCHECK
 70
     0
  9
$BLIPMODE
 70
     0
  9
$CHAMFERA
 40
0.0
  9
$CHAMFERB
 40
0.0
  9
$SKPOLY
 70
     0
  9
$TDCREATE
 40
2458018.639108797069639
  9
$TDUPDATE
 40
2460281.8235300919041038
  9
$TDINDWG
 40
0.4303930556
  9
$TDUSRTIMER
 40
0.4303930556
  9
$USRTIMER
 70
     1
  9
$ANGBASE
 50
0.0
  9
$ANGDIR
 70
     0
  9
$PDMODE
 70
     0
  9
$PDSIZE
 40
0.3125
  9
$PLINEWID
 40
0.0
  9
$COORDS
 70
     1
  9
$SPLFRAME
 70
     0
  9
$SPLINETYPE
 70
     6
  9
$SPLINESEGS
 70
     8
  9
$ATTDIA
 70
     1
  9
$ATTREQ
 70
     1
  9
$HANDLING
 70
     1
  9
$HANDSEED
  5
BFB7
  9
$SURFTAB1
 70
     6
  9
$SURFTAB2
 70
     6
  9
$SURFTYPE
 70
     6
  9
$SURFU
 70
     6
  9
$SURFV
 70
     6
  9
$UCSNAME
  2

  9
$UCSORG
 10
0.0
 20
0.0
 30
0.0
  9
$UCSXDIR
 10
1.0
 20
0.0
 30
0.0
  9
$UCSYDIR
 10
0.0
 20
1.0
 30
0.0
  9
$PUCSNAME
  2

  9
$PUCSORG
 10
0.0
 20
0.0
 30
0.0
  9
$PUCSXDIR
 10
1.0
 20
0.0
 30
0.0
  9
$PUCSYDIR
 10
0.0
 20
1.0
 30
0.0
  9
$USERI1
 70
     0
  9
$USERI2
 70
     0
  9
$USERI3
 70
     0
  9
$USERI4
 70
     0
  9
$USERI5
 70
     0
  9
$USERR1
 40
0.0
  9
$USERR2
 40
0.0
  9
$USERR3
 40
0.0
  9
$USERR4
 40
0.0
  9
$USERR5
 40
0.0
  9
$WORLDVIEW
 70
     1
  9
$SHADEDGE
 70
     3
  9
$SHADEDIF
 70
    70
  9
$TILEMODE
 70
     1
  9
$MAXACTVP
 70
    64
  9
$PLIMCHECK
 70
     0
  9
$PEXTMIN
 10
1.0000000000000000E+20
 20
1.0000000000000000E+20
 30
1.0000000000000000E+20
  9
$PEXTMAX
 10
-1.0000000000000000E+20
 20
-1.0000000000000000E+20
 30
-1.0000000000000000E+20
  9
$PLIMMIN
 10
0.0
 20
0.0
  9
$PLIMMAX
 10
12.0
 20
9.0
  9
$UNITMODE
 70
     0
  9
$VISRETAIN
 70
     1
  9
$PLINEGEN
 70
     0
  9
$PSLTSCALE
 70
     1
  0
ENDSEC
  0
SECTION
  2
TABLES
  0
TABLE
  2
VPORT
 70
     1
  0
VPORT
  2
*ACTIVE
 70
     0
 10
0.0
 20
0.0
 11
1.0
 21
1.0
 12
259.827824201421322
 22
2.530513049447634
 13
0.0
 23
0.0
 14
1.0
 24
1.0
 15
0.0
 25
0.0
 16
-0.0000000000000142
 26
0.0
 36
39.3282560748450578
 17
95.3242609977377526
 27
7.0363320112228394
 37
0.0
 40
3.574937339968693
 41
2.4474358974358972
 42
50.0
 43
0.0
 44
0.0
 50
0.0
 51
0.0
 71
     0
 72
   100
 73
     1
 74
     1
 75
     0
 76
     0
 77
     0
 78
     0
  0
ENDTAB
  0
TABLE
  2
LTYPE
 70
     2
  0
LTYPE
  2
CONTINUOUS
 70
     0
  3
Solid line
 72
    65
 73
     0
 40
0.0
  0
LTYPE
  2
PHANTOM2
 70
     0
  3
___ _ _ ___ _ _ ___ _ _ ___ _ _
 72
    65
 73
     6
 40
1.25
 49
0.625
 49
-0.125
 49
0.125
 49
-0.125
 49
0.125
 49
-0.125
  0
ENDTAB
  0
TABLE
  2
LAYER
 70
     2
  0
LAYER
  2
0
 70
     0
 62
   255
  6
CONTINUOUS
  0
LAYER
  2
DEFPOINTS
 70
     0
 62
     7
  6
CONTINUOUS
  0
ENDTAB
  0
TABLE
  2
STYLE
 70
     1
  0
STYLE
  2
STANDARD
 70
     0
 40
0.0
 41
0.8
 50
0.0
 71
     0
 42
0.2
  3
txt
  4

  0
ENDTAB
  0
TABLE
  2
VIEW
 70
     0
  0
ENDTAB
  0
TABLE
  2
UCS
 70
     0
  0
ENDTAB
  0
TABLE
  2
APPID
 70
    10
  0
APPID
  2
ACAD
 70
     0
  0
APPID
  2
ACAD_MLEADERVER
 70
     0
  0
APPID
  2
ACAD_DSTYLE_DIMJAG
 70
     0
  0
APPID
  2
ACAD_DSTYLE_DIMTALN
 70
     0
  0
APPID
  2
ACAD_NAV_VCDISPLAY
 70
     0
  0
APPID
  2
ACAD_EXEMPT_FROM_CAD_STANDARDS
 70
     0
  0
APPID
  2
ACAECLAYERSTANDARD
 70
     0
  0
APPID
  2
ACCMTRANSPARENCY
 70
     0
  0
APPID
  2
DCO15
 70
     0
  0
APPID
  2
ACDBATTR
 70
     0
  0
ENDTAB
  0
TABLE
  2
DIMSTYLE
 70
     1
  0
DIMSTYLE
  2
STANDARD
 70
     0
  3

  4

  5

  6

  7

 40
1.0
 41
0.1875
 42
0.0625
 43
0.38
 44
0.125
 45
0.0
 46
0.0
 47
0.01
 48
0.01
140
0.15625
141
0.09
142
0.0
143
25.3999999999999986
144
1.0
145
0.0
146
1.0
147
0.09
 71
     1
 72
     0
 73
     1
 74
     1
 75
     0
 76
     0
 77
     0
 78
     4
170
     0
171
     2
172
     0
173
     0
174
     0
175
     0
176
     0
177
     0
178
     0
  0
ENDTAB
  0
ENDSEC
  0
SECTION
  2
BLOCKS
  0
BLOCK
  8
0
  2
$MODEL_SPACE
 70
     0
 10
0.0
 20
0.0
 30
0.0
  3
$MODEL_SPACE
  1

  0
ENDBLK
  5
21
  8
0
  0
BLOCK
 67
     1
  8
0
  2
$PAPER_SPACE
 70
     0
 10
0.0
 20
0.0
 30
0.0
  3
$PAPER_SPACE
  1

  0
ENDBLK
  5
1D
 67
     1
  8
0
  0
BLOCK
  8
0
  2
_FILLED
 70
     0
 10
0.0
 20
0.0
 30
0.0
  3
_FILLED
  1

  0
SOLID
  5
A58D
  8
0
  6
BYBLOCK
 62
     0
 10
0.0
 20
0.0
 30
0.0
 11
-1.0
 21
0.1666666667
 31
0.0
 12
-1.0
 22
-0.1666666667
 32
0.0
 13
-1.0
 23
-0.1666666667
 33
0.0
  0
ENDBLK
  5
A58E
  8
0
  6
BYBLOCK
 62
     0
  0
ENDSEC
  0
SECTION
  2
ENTITIES
  0
ATTDEF
  5
7A6E
  8
DEFPOINTS
 10
359.4782352033165012
 20
9.5677904529720745
 30
0.0
 40
0.001
  1
P32076-WC
  3

  2
MODELNUMBER
 70
     0
1001
ACDBATTR
1070
     0
1070
     1
  0
ATTDEF
  5
7A6F
  8
DEFPOINTS
 10
359.4782352033165012
 20
9.5661237863054094
 30
0.0
 40
0.001
  1
002
  3

  2
TRADENAME
 70
     0
1001
ACDBATTR
1070
     0
1070
     1
  0
ATTDEF
  5
7A70
  8
DEFPOINTS
 10
359.4782352033165012
 20
9.5644571196387442
 30
0.0
 40
0.001
  1
BATHROOM SINK FAUCET
  3

  2
PRODUCT
 70
     0
1001
ACDBATTR
1070
     0
1070
     1
  0
LINE
  5
BE55
  8
0
 10
359.477369901981092
 20
8.4255808743337077
 30
0.0
 11
359.477369901981092
 21
10.7075808743337095
 31
0.0
  0
LINE
  5
BE56
  8
0
 10
359.2013699019810815
 20
8.4645808743337092
 30
0.0
 11
359.2013699019810815
 21
10.6685808743337098
 31
0.0
  0
LINE
  5
BE57
  8
0
 10
359.477369901981092
 20
10.7075808743337095
 30
0.0
 11
359.2403699019811256
 21
10.7075808743337095
 31
0.0
  0
ARC
  5
BE58
  8
0
 10
359.2403699019811256
 20
10.6685808743336992
 30
0.0
 40
0.039
 50
89.9999999999837144
 51
179.9999999999992042
  0
LINE
  5
BE59
  8
0
 10
357.7247699019811193
 20
10.0693318127337097
 30
0.0
 11
359.2013699019810815
 21
10.0693318127337097
 31
0.0
  0
LINE
  5
BE5A
  8
0
 10
357.6667699019811266
 20
10.0755808743337099
 30
0.0
 11
357.2961251214811114
 21
10.0755808743337099
 31
0.0
  0
LINE
  5
BE5B
  8
0
 10
357.7147699019810716
 20
10.0593318127336993
 30
0.0
 11
357.7147699019810716
 21
9.0613318127337052
 31
0.0
  0
LINE
  5
BE5C
  8
0
 10
357.6767699019811175
 20
10.0655808743337101
 30
0.0
 11
357.6767699019811175
 21
9.0675808743337072
 31
0.0
  0
ARC
  5
BE5D
  8
0
 10
357.7247699019811193
 20
10.0593318127336993
 30
0.0
 40
0.01
 50
90.0
 51
180.0
  0
LINE
  5
BE5E
  8
0
 10
357.7047699019810807
 20
10.0265808743337104
 30
0.0
 11
357.6767699019811175
 21
10.0265808743337104
 31
0.0
  0
ARC
  5
BE5F
  8
0
 10
357.7047699019810807
 20
10.0365808743337102
 30
0.0
 40
0.01
 50
269.999999999980389
 51
0.0000000000024427
  0
ARC
  5
BE60
  8
0
 10
357.6667699019811266
 20
10.0655808743337101
 30
0.0
 40
0.01
 50
359.9999999999869829
 51
90.0000000000390656
  0
LINE
  5
BE61
  8
0
 10
357.1401251214811055
 20
10.2315808743337104
 30
0.0
 11
357.1401251214811055
 21
10.7545808743337101
 31
0.0
  0
LINE
  5
BE62
  8
0
 10
356.7217699019810766
 20
11.1747683186423199
 30
0.0
 11
356.7217699019810766
 21
7.9583934300250974
 31
0.0
  0
LINE
  5
BE63
  8
0
 10
356.4693688262810838
 20
10.9287368501819806
 30
0.0
 11
356.4693688262810838
 21
8.2044248984854722
 31
0.0
  0
LINE
  5
BE64
  8
0
 10
356.6730634309690799
 20
11.1356278393337096
 30
0.0
 11
356.6960930455809944
 21
11.1356278393337096
 31
0.0
  0
ARC
  5
BE65
  8
0
 10
357.2961251214811114
 20
10.2315808743337104
 30
0.0
 40
0.156
 50
180.0000000000003979
 51
270.0
  0
ARC
  5
BE66
  8
0
 10
356.69762512148111
 20
10.7545808743337101
 30
0.0
 40
0.442499999999999
 50
0.0
 51
84.0025219723204657
  0
ARC
  5
BE67
  8
0
 10
356.7417699019811153
 20
11.1747683186423199
 30
0.0
 40
0.02
 50
84.0025219723204657
 51
179.999999999997101
  0
LINE
  5
BE68
  8
0
 10
356.701095734830119
 20
11.1342865401761095
 30
0.0
 11
356.7217699019810766
 21
11.1223417420337096
 31
0.0
  0
ARC
  5
BE69
  8
0
 10
356.6960930455809944
 20
11.1256278393337205
 30
0.0
 40
0.01
 50
59.9822064765346212
 51
90.0000000000390656
  0
ARC
  5
BE6A
  8
0
 10
356.9030639080176002
 20
10.6892908117591805
 30
0.0
 40
0.5038270152102476
 50
118.067736005971696
 51
147.3501827472834975
  0
ARC
  5
BE6B
  8
0
 10
356.6730634309690799
 20
11.1206278393337001
 30
0.0
 40
0.015
 50
90.0
 51
118.0677360059682002
  0
ARC
  5
BE6C
  8
0
 10
356.5293688262814271
 20
10.9287368501819397
 30
0.0
 40
0.06
 50
147.3501827474223091
 51
179.9999999999600959
  0
LINE
  5
BE6D
  8
0
 10
356.701095734830119
 20
11.1342865401761006
 30
0.0
 11
356.701095734830119
 21
7.9988752084913086
 31
0.0
  0
LINE
  5
BE6E
  8
0
 10
356.6660057049260786
 20
11.1338637187190397
 30
0.0
 11
356.6660057049260786
 21
7.9992980299483767
 31
0.0
  0
LINE
  5
BE6F
  8
0
 10
359.477369901981092
 20
8.4255808743337077
 30
0.0
 11
359.2403699019811256
 21
8.4255808743337077
 31
0.0
  0
ARC
  5
BE70
  8
0
 10
359.2403699019811256
 20
8.4645808743337092
 30
0.0
 40
0.039
 50
180.0000000000003979
 51
270.0000000000163141
  0
LINE
  5
BE71
  8
0
 10
357.7247699019811193
 20
9.0513318127337072
 30
0.0
 11
359.2013699019810815
 21
9.0513318127337072
 31
0.0
  0
LINE
  5
BE72
  8
0
 10
357.6667699019811266
 20
9.0575808743337092
 30
0.0
 11
357.2961251214811114
 21
9.0575808743337092
 31
0.0
  0
ARC
  5
BE73
  8
0
 10
357.7247699019811193
 20
9.0613318127337052
 30
0.0
 40
0.01
 50
180.0
 51
270.0
  0
LINE
  5
BE74
  8
0
 10
357.7047699019810807
 20
9.1065808743337087
 30
0.0
 11
357.6767699019811175
 21
9.1065808743337087
 31
0.0
  0
ARC
  5
BE75
  8
0
 10
357.7047699019810807
 20
9.0965808743337107
 30
0.0
 40
0.01
 50
359.9999999999972147
 51
90.0000000000195257
  0
ARC
  5
BE76
  8
0
 10
357.6667699019811266
 20
9.0675808743337072
 30
0.0
 40
0.01
 50
269.9999999999575948
 51
0.0000000000126204
  0
LINE
  5
BE77
  8
0
 10
357.1401251214811055
 20
8.9015808743337104
 30
0.0
 11
357.1401251214811055
 21
8.3785808743337071
 31
0.0
  0
LINE
  5
BE78
  8
0
 10
356.6730634309690799
 20
7.9975339093337068
 30
0.0
 11
356.6960930455809944
 21
7.9975339093337068
 31
0.0
  0
ARC
  5
BE79
  8
0
 10
357.2961251214811114
 20
8.9015808743337068
 30
0.0
 40
0.156
 50
90.0
 51
179.9999999999992042
  0
ARC
  5
BE7A
  8
0
 10
356.69762512148111
 20
8.3785808743337071
 30
0.0
 40
0.442499999999999
 50
275.9974780276796196
 51
0.0
  0
ARC
  5
BE7B
  8
0
 10
356.7417699019811153
 20
7.9583934300250974
 30
0.0
 40
0.02
 50
180.0000000000023874
 51
275.9974780276795059
  0
LINE
  5
BE7C
  8
0
 10
356.701095734830119
 20
7.9988752084913051
 30
0.0
 11
356.7217699019810766
 21
8.0108200066337076
 31
0.0
  0
ARC
  5
BE7D
  8
0
 10
356.6960930455809944
 20
8.0075339093336986
 30
0.0
 40
0.01
 50
269.9999999999575948
 51
300.0177935234654001
  0
ARC
  5
BE7E
  8
0
 10
356.9030639080176002
 20
8.4438709369082403
 30
0.0
 40
0.5038270152102476
 50
212.649817252714314
 51
241.9322639940282897
  0
ARC
  5
BE7F
  8
0
 10
356.6730634309690799
 20
8.0125339093337082
 30
0.0
 40
0.015
 50
241.932263994031814
 51
270.0
  0
ARC
  5
BE80
  8
0
 10
356.5293688262814271
 20
8.2044248984854722
 30
0.0
 40
0.06
 50
180.0000000000399041
 51
212.6498172525772929
  0
ARC
  5
BE81
  8
0
 10
356.69762512148111
 20
9.5665808743337095
 30
0.0
 40
0.4424999999999983
 50
275.9974780276796196
 51
84.0025219723204657
  0
ARC
  5
BE82
  8
0
 10
356.7417699019811153
 20
9.1463934300250926
 30
0.0
 40
0.02
 50
180.0
 51
275.9974780276796196
  0
ARC
  5
BE83
  8
0
 10
356.7417699019811153
 20
9.9867683186423228
 30
0.0
 40
0.02
 50
84.0025219723204657
 51
179.9999999999988063
  0
LINE
  5
BE84
  8
0
 10
356.6730634309690799
 20
9.9476278393337072
 30
0.0
 11
356.6960930455809944
 21
9.9476278393337072
 31
0.0
  0
LINE
  5
BE85
  8
0
 10
356.701095734830119
 20
9.9462865401761107
 30
0.0
 11
356.7217699019810766
 21
9.934341742033709
 31
0.0
  0
ARC
  5
BE86
  8
0
 10
356.6960930455809944
 20
9.9376278393337181
 30
0.0
 40
0.01
 50
59.9822064765346212
 51
90.0000000000390656
  0
ARC
  5
BE87
  8
0
 10
356.9030639080176002
 20
9.5012908117591781
 30
0.0
 40
0.5038270152102476
 50
118.067736005971696
 51
147.3501827472834975
  0
ARC
  5
BE88
  8
0
 10
356.6730634309690799
 20
9.9326278393337102
 30
0.0
 40
0.015
 50
90.0
 51
118.0677360059681007
  0
ARC
  5
BE89
  8
0
 10
356.5293688262814271
 20
9.7407368501819462
 30
0.0
 40
0.06
 50
147.3501827474223091
 51
179.9999999999600959
  0
LINE
  5
BE8A
  8
0
 10
356.6730634309690799
 20
9.1855339093337101
 30
0.0
 11
356.6960930455809944
 21
9.1855339093337101
 31
0.0
  0
LINE
  5
BE8B
  8
0
 10
356.701095734830119
 20
9.1868752084913083
 30
0.0
 11
356.7217699019810766
 21
9.19882000663371
 31
0.0
  0
ARC
  5
BE8C
  8
0
 10
356.6960930455809944
 20
9.1955339093336992
 30
0.0
 40
0.01
 50
269.9999999999575948
 51
300.0177935234654001
  0
ARC
  5
BE8D
  8
0
 10
356.9030639080176002
 20
9.6318709369082391
 30
0.0
 40
0.5038270152102476
 50
212.649817252714314
 51
241.9322639940282897
  0
ARC
  5
BE8E
  8
0
 10
356.6730634309690799
 20
9.2005339093337071
 30
0.0
 40
0.015
 50
241.932263994031814
 51
270.0
  0
ARC
  5
BE8F
  8
0
 10
356.5293688262814271
 20
9.3924248984854728
 30
0.0
 40
0.06
 50
180.0000000000399041
 51
212.6498172525772929
  0
LINE
  5
BE90
  8
0
 10
357.2961251214811114
 20
9.0575808743337092
 30
0.0
 11
357.7996825339628799
 21
9.0288153382698333
 31
0.0
  0
LINE
  5
BE91
  8
0
 10
358.059727183785526
 20
9.0143593240413225
 30
0.0
 11
359.1808349906152102
 21
8.9584923957783964
 31
0.0
  0
ARC
  5
BE92
  8
0
 10
359.181812366611382
 20
8.9781058575087513
 30
0.0
 40
0.0196377988808817
 50
267.1472024529704754
 51
354.8179889478910241
  0
ARC
  5
BE93
  8
0
 10
357.9010455565468192
 20
8.5060442416087376
 30
0.0
 40
0.5325073538004643
 50
72.6631091630839023
 51
100.9732376551454962
  0
LINE
  5
BE94
  8
0
 10
350.8367207777324097
 20
9.93550558785779
 30
0.0
 11
356.4693688262810838
 21
9.93550558785779
 31
0.0
  0
LINE
  5
BE95
  8
0
 10
351.3102837024065934
 20
10.0031255608337108
 30
0.0
 11
356.4693688262810838
 21
10.0031255608337108
 31
0.0
  0
LINE
  5
BE96
  8
0
 10
353.3431021853820084
 20
9.2090310726337066
 30
0.0
 11
352.9673699019811011
 21
9.2090310726337066
 31
0.0
  0
ARC
  5
BE97
  8
0
 10
351.5527260991486855
 20
9.9543525739207759
 30
0.0
 40
0.748033271971025
 50
184.3453303368495142
 51
274.8801698884220741
  0
ARC
  5
BE98
  8
0
 10
350.8458429478387188
 20
9.8975874390032956
 30
0.0
 40
0.039
 50
103.3522602181127041
 51
179.8701010375216924
  0
ARC
  5
BE99
  8
0
 10
351.4429704400304217
 20
7.3818121776153367
 30
0.0
 40
2.6246694312581522
 50
92.8977485355445367
 51
103.3522602181095067
  0
ARC
  5
BE9A
  8
0
 10
351.6153851507460217
 20
9.2242913867433423
 30
0.0
 40
0.0152916015172657
 50
273.6658105033076822
 51
321.2552972933934257
  0
ARC
  5
BE9B
  8
0
 10
351.7902724372806915
 20
8.5612715440354528
 30
0.0
 40
0.6734630950501365
 50
101.9640727845306998
 51
104.0030908008491934
  0
ARC
  5
BE9C
  8
0
 10
351.6475552051103932
 20
9.2347796916384794
 30
0.0
 40
0.015
 50
281.9640727845340962
 51
320.2408520672345844
  0
ARC
  5
BE9D
  8
0
 10
351.8587033648922784
 20
8.9336023939360132
 30
0.0
 40
0.3561632715290072
 50
92.4675096621551091
 51
117.2090728050544044
  0
ARC
  5
BE9E
  8
0
 10
351.8046559768266093
 20
9.0384879481407552
 30
0.0
 40
0.238171399445984
 50
117.1828563752459047
 51
124.7430315404874932
  0
ARC
  5
BE9F
  8
0
 10
351.6971150532708066
 20
9.1935478130688857
 30
0.0
 40
0.0494689565609841
 50
124.7430315404871948
 51
140.2408520672346981
  0
LINE
  5
BEA0
  8
0
 10
351.8433695185904071
 20
9.2894354294229302
 30
0.0
 11
352.7398354882361105
 21
9.2894354294229302
 31
0.0
  0
ARC
  5
BEA1
  8
0
 10
352.9698419707444828
 20
9.2272879399081162
 30
0.0
 40
0.018423472165873
 50
220.7895045288699976
 51
262.2887712436681795
  0
ARC
  5
BEA2
  8
0
 10
352.792932569545826
 20
8.5618026454995615
 30
0.0
 40
0.6734630950501365
 50
75.9969091991507923
 51
78.035927215469286
  0
ARC
  5
BEA3
  8
0
 10
352.9356498017161243
 20
9.2353107931025882
 30
0.0
 40
0.015
 50
219.7591479327651882
 51
258.0359272154660175
  0
ARC
  5
BEA4
  8
0
 10
352.7257920573767933
 20
8.9341728425648554
 30
0.0
 40
0.3555400449617338
 50
62.9729693160355808
 51
87.736292432431469
  0
ARC
  5
BEA5
  8
0
 10
352.7785490299999083
 20
9.0390190496048621
 30
0.0
 40
0.238171399445984
 50
55.2569684595124215
 51
62.8171436247540171
  0
ARC
  5
BEA6
  8
0
 10
352.886089953555711
 20
9.1940789145329962
 30
0.0
 40
0.0494689565609841
 50
39.7591479327653232
 51
55.2569684595128265
  0
ARC
  5
BEA7
  8
0
 10
351.7096128354733082
 20
-159.3268238565709964
 30
0.0
 40
168.5694066590367015
 50
89.9761266614497259
 51
90.0094233202316616
  0
ARC
  5
BEA8
  8
0
 10
351.939790001621077
 20
8.6730531415503371
 30
0.0
 40
0.5915471683047661
 50
90.2247736338580779
 51
105.6865892005803005
  0
ARC
  5
BEA9
  8
0
 10
352.2895672786095815
 20
-17.5303940919790797
 30
0.0
 40
26.7973031107023516
 50
89.2008530063217933
 51
90.7528483757549367
  0
ARC
  5
BEAA
  8
0
 10
352.6416562028667272
 20
8.6661996399692498
 30
0.0
 40
0.5984949610223969
 50
74.3767495178072267
 51
87.9258779175971767
  0
ARC
  5
BEAB
  8
0
 10
352.8317525700120996
 20
37442.7033382306035492
 30
0.0
 40
37433.4607560183430905
 50
269.9999557421425038
 51
270.0001078150951912
  0
ARC
  5
BEAC
  8
0
 10
353.0072091889076091
 20
-47.5738444925468471
 30
0.0
 40
56.7838690259466219
 50
86.5044607255697713
 51
89.6610769285044427
  0
ENDSEC
  0
EOF
