  0
SECTION
  2
HEADER
  9
$ACADVER
  1
AC1009
  9
$INSBASE
 10
393.9573378912643875
 20
58.4298675897738491
 30
0.0
  9
$EXTMIN
 10
388.2033444415915255
 20
58.4216745780217579
 30
-0.0015258207003583
  9
$EXTMAX
 10
395.0956128070586146
 20
61.4535042308167689
 30
0.0000000349246037
  9
$LIMMIN
 10
0.0
 20
0.0
  9
$LIMMAX
 10
11.6929133858000007
 20
8.2677165353999982
  9
$ORTHOMODE
 70
     0
  9
$REGENMODE
 70
     1
  9
$FILLMODE
 70
     1
  9
$QTEXTMODE
 70
     0
  9
$MIRRTEXT
 70
     0
  9
$DRAGMODE
 70
     2
  9
$LTSCALE
 40
0.6431102362
  9
$OSMODE
 70
  4095
  9
$ATTMODE
 70
     1
  9
$TEXTSIZE
 40
0.2
  9
$TRACEWID
 40
0.05
  9
$TEXTSTYLE
  7
STANDARD
  9
$CLAYER
  8
0
  9
$CELTYPE
  6
BYLAYER
  9
$CECOLOR
 62
   256
  9
$DIMSCALE
 40
1.0
  9
$DIMASZ
 40
0.1875
  9
$DIMEXO
 40
0.0625
  9
$DIMDLI
 40
0.4443307087
  9
$DIMRND
 40
0.0
  9
$DIMDLE
 40
0.0
  9
$DIMEXE
 40
0.125
  9
$DIMTP
 40
0.01
  9
$DIMTM
 40
0.01
  9
$DIMTXT
 40
1.0
  9
$DIMCEN
 40
0.1052362205
  9
$DIMTSZ
 40
0.0
  9
$DIMTOL
 70
     1
  9
$DIMLIM
 70
     0
  9
$DIMTIH
 70
     0
  9
$DIMTOH
 70
     1
  9
$DIMSE1
 70
     0
  9
$DIMSE2
 70
     0
  9
$DIMTAD
 70
     0
  9
$DIMZIN
 70
     0
  9
$DIMBLK
  1

  9
$DIMASO
 70
     1
  9
$DIMSHO
 70
     1
  9
$DIMPOST
  1
\X
  9
$DIMAPOST
  1

  9
$DIMALT
 70
     1
  9
$DIMALTD
 70
     2
  9
$DIMALTF
 40
25.3999999999999986
  9
$DIMLFAC
 40
1.0
  9
$DIMTOFL
 70
     0
  9
$DIMTVP
 40
0.0
  9
$DIMTIX
 70
     0
  9
$DIMSOXD
 70
     0
  9
$DIMSAH
 70
     0
  9
$DIMBLK1
  1

  9
$DIMBLK2
  1

  9
$DIMSTYLE
  2
STANDARD
  9
$DIMCLRD
 70
     0
  9
$DIMCLRE
 70
     0
  9
$DIMCLRT
 70
     0
  9
$DIMTFAC
 40
1.0
  9
$DIMGAP
 40
0.09
  9
$LUNITS
 70
     2
  9
$LUPREC
 70
     4
  9
$SKETCHINC
 40
0.1
  9
$FILLETRAD
 40
0.0
  9
$AUNITS
 70
     0
  9
$AUPREC
 70
     0
  9
$MENU
  1
.
  9
$ELEVATION
 40
0.0
  9
$PELEVATION
 40
0.0
  9
$THICKNESS
 40
0.0
  9
$LIMCHECK
 70
     0
  9
$BLIPMODE
 70
     0
  9
$CHAMFERA
 40
0.0
  9
$CHAMFERB
 40
0.0
  9
$SKPOLY
 70
     0
  9
$TDCREATE
 40
2458172.5207638889551163
  9
$TDUPDATE
 40
2459985.5270717591047287
  9
$TDINDWG
 40
0.2896036806
  9
$TDUSRTIMER
 40
0.2896036806
  9
$USRTIMER
 70
     1
  9
$ANGBASE
 50
0.0
  9
$ANGDIR
 70
     0
  9
$PDMODE
 70
     0
  9
$PDSIZE
 40
0.3125
  9
$PLINEWID
 40
0.0
  9
$COORDS
 70
     1
  9
$SPLFRAME
 70
     0
  9
$SPLINETYPE
 70
     6
  9
$SPLINESEGS
 70
     8
  9
$ATTDIA
 70
     1
  9
$ATTREQ
 70
     1
  9
$HANDLING
 70
     1
  9
$HANDSEED
  5
10E14
  9
$SURFTAB1
 70
     6
  9
$SURFTAB2
 70
     6
  9
$SURFTYPE
 70
     6
  9
$SURFU
 70
     6
  9
$SURFV
 70
     6
  9
$UCSNAME
  2

  9
$UCSORG
 10
0.0
 20
0.0
 30
0.0
  9
$UCSXDIR
 10
1.0
 20
0.0
 30
0.0
  9
$UCSYDIR
 10
0.0
 20
1.0
 30
0.0
  9
$PUCSNAME
  2

  9
$PUCSORG
 10
0.0
 20
0.0
 30
0.0
  9
$PUCSXDIR
 10
1.0
 20
0.0
 30
0.0
  9
$PUCSYDIR
 10
0.0
 20
1.0
 30
0.0
  9
$USERI1
 70
     0
  9
$USERI2
 70
     0
  9
$USERI3
 70
     0
  9
$USERI4
 70
     0
  9
$USERI5
 70
     0
  9
$USERR1
 40
0.0
  9
$USERR2
 40
0.0
  9
$USERR3
 40
0.0
  9
$USERR4
 40
0.0
  9
$USERR5
 40
0.0
  9
$WORLDVIEW
 70
     1
  9
$SHADEDGE
 70
     3
  9
$SHADEDIF
 70
    70
  9
$TILEMODE
 70
     1
  9
$MAXACTVP
 70
    64
  9
$PLIMCHECK
 70
     0
  9
$PEXTMIN
 10
1.0000000000000000E+20
 20
1.0000000000000000E+20
 30
1.0000000000000000E+20
  9
$PEXTMAX
 10
-1.0000000000000000E+20
 20
-1.0000000000000000E+20
 30
-1.0000000000000000E+20
  9
$PLIMMIN
 10
0.0
 20
0.0
  9
$PLIMMAX
 10
12.0
 20
9.0
  9
$UNITMODE
 70
     0
  9
$VISRETAIN
 70
     1
  9
$PLINEGEN
 70
     0
  9
$PSLTSCALE
 70
     1
  0
ENDSEC
  0
SECTION
  2
TABLES
  0
TABLE
  2
VPORT
 70
     1
  0
VPORT
  2
*ACTIVE
 70
     0
 10
0.0
 20
0.0
 11
1.0
 21
1.0
 12
-37.9798104837286701
 22
-9.7649521077994166
 13
0.0
 23
0.0
 14
1.0
 24
1.0
 15
0.0
 25
0.0
 16
0.0
 26
0.0
 36
14.6338572656650907
 17
429.6292891080536833
 27
69.7025415122186871
 37
0.0
 40
4.345845592175209
 41
1.593589743589743
 42
50.0
 43
0.0
 44
0.0
 50
0.0
 51
0.0
 71
     0
 72
   100
 73
     1
 74
     1
 75
     0
 76
     0
 77
     0
 78
     1
  0
ENDTAB
  0
TABLE
  2
LTYPE
 70
     2
  0
LTYPE
  2
CONTINUOUS
 70
     0
  3
Solid line
 72
    65
 73
     0
 40
0.0
  0
LTYPE
  2
PHANTOM2
 70
     0
  3
___ _ _ ___ _ _ ___ _ _ ___ _ _
 72
    65
 73
     6
 40
1.25
 49
0.625
 49
-0.125
 49
0.125
 49
-0.125
 49
0.125
 49
-0.125
  0
ENDTAB
  0
TABLE
  2
LAYER
 70
     2
  0
LAYER
  2
0
 70
     0
 62
   255
  6
CONTINUOUS
  0
LAYER
  2
DEFPOINTS
 70
     0
 62
     7
  6
CONTINUOUS
  0
ENDTAB
  0
TABLE
  2
STYLE
 70
     1
  0
STYLE
  2
STANDARD
 70
     0
 40
0.0
 41
0.8
 50
0.0
 71
     0
 42
0.2
  3
txt
  4

  0
ENDTAB
  0
TABLE
  2
VIEW
 70
     0
  0
ENDTAB
  0
TABLE
  2
UCS
 70
     0
  0
ENDTAB
  0
TABLE
  2
APPID
 70
    10
  0
APPID
  2
ACAD
 70
     0
  0
APPID
  2
ACAD_MLEADERVER
 70
     0
  0
APPID
  2
ACAD_EXEMPT_FROM_CAD_STANDARDS
 70
     0
  0
APPID
  2
ACAD_DSTYLE_DIMJAG
 70
     0
  0
APPID
  2
ACAD_DSTYLE_DIMTALN
 70
     0
  0
APPID
  2
ACAD_NAV_VCDISPLAY
 70
     0
  0
APPID
  2
ACAECLAYERSTANDARD
 70
     0
  0
APPID
  2
ACCMTRANSPARENCY
 70
     0
  0
APPID
  2
DCO15
 70
     0
  0
APPID
  2
ACDBATTR
 70
     0
  0
ENDTAB
  0
TABLE
  2
DIMSTYLE
 70
     1
  0
DIMSTYLE
  2
STANDARD
 70
     0
  3

  4

  5

  6

  7

 40
1.0
 41
0.1875
 42
0.0625
 43
0.38
 44
0.125
 45
0.0
 46
0.0
 47
0.01
 48
0.01
140
0.15625
141
0.09
142
0.0
143
25.3999999999999986
144
1.0
145
0.0
146
1.0
147
0.09
 71
     1
 72
     0
 73
     1
 74
     1
 75
     0
 76
     0
 77
     0
 78
     4
170
     0
171
     2
172
     0
173
     0
174
     0
175
     0
176
     0
177
     0
178
     0
  0
ENDTAB
  0
ENDSEC
  0
SECTION
  2
BLOCKS
  0
BLOCK
  8
0
  2
$MODEL_SPACE
 70
     0
 10
0.0
 20
0.0
 30
0.0
  3
$MODEL_SPACE
  1

  0
ENDBLK
  5
21
  8
0
  0
BLOCK
 67
     1
  8
0
  2
$PAPER_SPACE
 70
     0
 10
0.0
 20
0.0
 30
0.0
  3
$PAPER_SPACE
  1

  0
ENDBLK
  5
1D
 67
     1
  8
0
  0
ENDSEC
  0
SECTION
  2
ENTITIES
  0
ATTDEF
  5
10A81
  8
DEFPOINTS
 10
393.9523026987077969
 20
58.428011194745018
 30
0.0
 40
0.001
  1
P32356-AD
  3

  2
MODELNUMBER
 70
     0
1001
ACDBATTR
1070
     0
1070
     1
  0
ATTDEF
  5
10A82
  8
DEFPOINTS
 10
393.9523026987077969
 20
58.4263445280783529
 30
0.0
 40
0.001
  1
ONE
  3

  2
TRADENAME
 70
     0
1001
ACDBATTR
1070
     0
1070
     1
  0
ATTDEF
  5
10A83
  8
DEFPOINTS
 10
393.9523026987077969
 20
58.4246778614117019
 30
0.0
 40
0.001
  1
BATHROOM SINK FAUCET
  3

  2
PRODUCT
 70
     0
1001
ACDBATTR
1070
     0
1070
     1
  0
LINE
  5
10D69
  8
0
 10
388.2169271913523971
 20
59.8223720510240113
 30
0.0
 11
389.075748591201716
 21
59.7773631286266678
 31
0.0
  0
LINE
  5
10D6A
  8
0
 10
389.0862582461120951
 20
59.7868260644126579
 30
0.0
 11
389.1054431275703109
 21
60.1528954104815483
 31
0.0
  0
ARC
  5
10D6B
  8
0
 10
389.0762719507645215
 20
59.7873494239741916
 30
0.0
 40
0.01
 50
266.9999999979722816
 51
357.0000000051102234
  0
LINE
  5
10D6C
  8
0
 10
388.2074642555675155
 20
59.8328817059320386
 30
0.0
 11
388.2266491369750838
 21
60.1989510517600621
 31
0.0
  0
ARC
  5
10D6D
  8
0
 10
388.217450550915089
 20
59.8323583463715423
 30
0.0
 40
0.01
 50
177.0000000110605924
 51
266.9999999979722816
  0
LINE
  5
10D6E
  8
0
 10
395.0823378912645012
 20
58.8198675897738497
 30
0.0
 11
395.0823378912645012
 21
58.4298675897738491
 31
0.0
  0
LINE
  5
10D6F
  8
0
 10
395.0723378912645103
 20
58.8298675897738477
 30
0.0
 11
392.8423378912643784
 21
58.8298675897738477
 31
0.0
  0
ARC
  5
10D70
  8
0
 10
395.0723378912645103
 20
58.8198675897738497
 30
0.0
 40
0.01
 50
0.0
 51
90.0
  0
ARC
  5
10D71
  8
0
 10
392.8423378912643784
 20
58.8198675897738497
 30
0.0
 40
0.01
 50
90.0
 51
180.0
  0
LINE
  5
10D72
  8
0
 10
395.0823378912645012
 20
58.4298675897738491
 30
0.0
 11
392.8323378912645012
 21
58.4298675897738491
 31
0.0
  0
LINE
  5
10D73
  8
0
 10
392.8323378912645012
 20
58.8198675897738497
 30
0.0
 11
392.8323378912645012
 21
58.4298675897738491
 31
0.0
  0
ARC
  5
10D74
  8
0
 10
392.852337891264483
 20
58.8098675897738516
 30
0.0
 40
0.0199999999999999
 50
90.0
 51
180.0
  0
ARC
  5
10D75
  8
0
 10
395.0623378912645194
 20
58.8098675897738516
 30
0.0
 40
0.0199999999999999
 50
0.0
 51
90.0
  0
LINE
  5
10D76
  8
0
 10
394.3591953374099148
 20
58.869867589773861
 30
0.0
 11
394.3591953374099148
 21
59.9598675897738502
 31
0.0
  0
LINE
  5
10D77
  8
0
 10
394.3451953374099048
 20
60.007867589773852
 30
0.0
 11
393.5694804451189839
 21
60.007867589773852
 31
0.0
  0
LINE
  5
10D78
  8
0
 10
394.3191953374098944
 20
59.9998675897738494
 30
0.0
 11
393.595480445119108
 21
59.9998675897738494
 31
0.0
  0
ARC
  5
10D79
  8
0
 10
394.3991953374098784
 20
58.869867589773861
 30
0.0
 40
0.04
 50
180.0
 51
270.0
  0
LINE
  5
10D7A
  8
0
 10
394.3073378912645239
 20
59.9998675897738494
 30
0.0
 11
394.3073378912645239
 21
60.007867589773852
 31
0.0
  0
ARC
  5
10D7B
  8
0
 10
394.3451953374099048
 20
60.0218675897738407
 30
0.0
 40
0.014
 50
269.9999999999968168
 51
0.000000000003664
  0
ARC
  5
10D7C
  8
0
 10
394.3191953374098944
 20
59.9598675897738502
 30
0.0
 40
0.04
 50
0.0000000000008142
 51
90.0
  0
LINE
  5
10D7D
  8
0
 10
393.5554804451189739
 20
58.869867589773861
 30
0.0
 11
393.5554804451189739
 21
59.9598675897738502
 31
0.0
  0
ARC
  5
10D7E
  8
0
 10
393.5154804451190103
 20
58.869867589773861
 30
0.0
 40
0.04
 50
270.0
 51
0.0
  0
LINE
  5
10D7F
  8
0
 10
393.6073378912644785
 20
59.9998675897738494
 30
0.0
 11
393.6073378912644785
 21
60.007867589773852
 31
0.0
  0
ARC
  5
10D80
  8
0
 10
393.5694804451189839
 20
60.0218675897738407
 30
0.0
 40
0.014
 50
179.9999999999963052
 51
270.0000000000032969
  0
ARC
  5
10D81
  8
0
 10
393.595480445119108
 20
59.9598675897738502
 30
0.0
 40
0.04
 50
90.0
 51
179.9999999999992042
  0
LINE
  5
10D82
  8
0
 10
393.5554804451189739
 20
60.0218675897738407
 30
0.0
 11
393.5554804451189739
 21
60.8824966813790098
 31
0.0
  0
LINE
  5
10D83
  8
0
 10
394.3593378912643743
 20
60.0218675897738407
 30
0.0
 11
394.3593378912643743
 21
60.8841076990950398
 31
0.0
  0
CIRCLE
  5
10D84
  8
0
 10
393.9573378912643875
 20
60.9188675897738534
 30
0.0
 40
0.4035000000000002
  0
LINE
  5
10D85
  8
0
 10
389.5448401228644002
 20
61.4498675897738522
 30
0.0
 11
393.0913666586818067
 21
61.4498675897738522
 31
0.0
  0
LINE
  5
10D86
  8
0
 10
389.5448401228644002
 20
60.5698675897738497
 30
0.0
 11
393.0773378912645057
 21
60.5698675897738497
 31
0.0
  0
ARC
  5
10D87
  8
0
 10
389.5448401228644002
 20
60.1298675897738519
 30
0.0
 40
0.4400000000000001
 50
90.0
 51
177.0000000051101949
  0
ARC
  5
10D88
  8
0
 10
389.5448401228644002
 20
60.1298675897738519
 30
0.0
 40
1.3200000000000001
 50
90.0
 51
177.0000000110605924
  0
LINE
  5
10D89
  8
0
 10
393.5173378912645035
 20
60.1298675897738519
 30
0.0
 11
393.5173378912645035
 21
58.8298675897738477
 31
0.0
  0
LINE
  5
10D8A
  8
0
 10
394.3973378912643852
 20
60.1298675897739017
 30
0.0
 11
394.3973378912643852
 21
58.8298675897738477
 31
0.0
  0
ARC
  5
10D8B
  8
0
 10
393.0773378912649036
 20
60.1298675897739017
 30
0.0
 40
1.319999999999627
 50
359.9999999999976126
 51
12.38036092490497
  0
ARC
  5
10D8C
  8
0
 10
393.0773378912645057
 20
60.1298675897738519
 30
0.0
 40
0.4400000000000001
 50
0.0
 51
90.0
  0
LINE
  5
10D8D
  8
0
 10
393.5173378912645035
 20
60.1298675897738519
 30
0.0
 11
393.5554804451189739
 21
60.1298675897738519
 31
0.0
  0
ARC
  5
10D8E
  8
0
 10
393.0769692746887927
 20
60.1290625009457074
 30
0.0
 40
1.320883555556718
 50
59.3421200121374
 51
89.3754743404516887
  0
ENDSEC
  0
EOF
