  0
SECTION
  2
HEADER
  9
$ACADVER
  1
AC1009
  9
$INSBASE
 10
482.5452994598857117
 20
69.8726828715676618
 30
0.0
  9
$EXTMIN
 10
460.6866832867856942
 20
64.9770228433675214
 30
0.0
  9
$EXTMAX
 10
483.6702994598858254
 20
93.3874175506524864
 30
0.0
  9
$LIMMIN
 10
0.0
 20
0.0
  9
$LIMMAX
 10
11.6929133858000007
 20
8.2677165353999982
  9
$ORTHOMODE
 70
     0
  9
$REGENMODE
 70
     1
  9
$FILLMODE
 70
     1
  9
$QTEXTMODE
 70
     0
  9
$MIRRTEXT
 70
     0
  9
$DRAGMODE
 70
     2
  9
$LTSCALE
 40
0.6431102362
  9
$OSMODE
 70
  4095
  9
$ATTMODE
 70
     1
  9
$TEXTSIZE
 40
0.2
  9
$TRACEWID
 40
0.05
  9
$TEXTSTYLE
  7
STANDARD
  9
$CLAYER
  8
0
  9
$CELTYPE
  6
BYLAYER
  9
$CECOLOR
 62
   256
  9
$DIMSCALE
 40
1.0
  9
$DIMASZ
 40
0.1875
  9
$DIMEXO
 40
0.0625
  9
$DIMDLI
 40
0.4443307087
  9
$DIMRND
 40
0.0
  9
$DIMDLE
 40
0.0
  9
$DIMEXE
 40
0.125
  9
$DIMTP
 40
0.01
  9
$DIMTM
 40
0.01
  9
$DIMTXT
 40
1.0
  9
$DIMCEN
 40
0.1052362205
  9
$DIMTSZ
 40
0.0
  9
$DIMTOL
 70
     1
  9
$DIMLIM
 70
     0
  9
$DIMTIH
 70
     1
  9
$DIMTOH
 70
     1
  9
$DIMSE1
 70
     0
  9
$DIMSE2
 70
     0
  9
$DIMTAD
 70
     0
  9
$DIMZIN
 70
     0
  9
$DIMBLK
  1

  9
$DIMASO
 70
     1
  9
$DIMSHO
 70
     1
  9
$DIMPOST
  1
\X
  9
$DIMAPOST
  1

  9
$DIMALT
 70
     1
  9
$DIMALTD
 70
     2
  9
$DIMALTF
 40
25.3999999999999986
  9
$DIMLFAC
 40
1.0
  9
$DIMTOFL
 70
     0
  9
$DIMTVP
 40
0.0
  9
$DIMTIX
 70
     0
  9
$DIMSOXD
 70
     0
  9
$DIMSAH
 70
     0
  9
$DIMBLK1
  1

  9
$DIMBLK2
  1

  9
$DIMSTYLE
  2
STANDARD
  9
$DIMCLRD
 70
     0
  9
$DIMCLRE
 70
     0
  9
$DIMCLRT
 70
     0
  9
$DIMTFAC
 40
1.0
  9
$DIMGAP
 40
0.09
  9
$LUNITS
 70
     2
  9
$LUPREC
 70
     4
  9
$SKETCHINC
 40
0.1
  9
$FILLETRAD
 40
0.0
  9
$AUNITS
 70
     0
  9
$AUPREC
 70
     0
  9
$MENU
  1
.
  9
$ELEVATION
 40
0.0
  9
$PELEVATION
 40
0.0
  9
$THICKNESS
 40
0.0
  9
$LIMCHECK
 70
     0
  9
$BLIPMODE
 70
     0
  9
$CHAMFERA
 40
0.0
  9
$CHAMFERB
 40
0.0
  9
$SKPOLY
 70
     0
  9
$TDCREATE
 40
2458306.6094560190103948
  9
$TDUPDATE
 40
2459984.6320138890296221
  9
$TDINDWG
 40
0.0602968287
  9
$TDUSRTIMER
 40
0.0602968287
  9
$USRTIMER
 70
     1
  9
$ANGBASE
 50
0.0
  9
$ANGDIR
 70
     0
  9
$PDMODE
 70
     0
  9
$PDSIZE
 40
0.3125
  9
$PLINEWID
 40
0.0
  9
$COORDS
 70
     1
  9
$SPLFRAME
 70
     0
  9
$SPLINETYPE
 70
     6
  9
$SPLINESEGS
 70
     8
  9
$ATTDIA
 70
     1
  9
$ATTREQ
 70
     1
  9
$HANDLING
 70
     1
  9
$HANDSEED
  5
6E05
  9
$SURFTAB1
 70
     6
  9
$SURFTAB2
 70
     6
  9
$SURFTYPE
 70
     6
  9
$SURFU
 70
     6
  9
$SURFV
 70
     6
  9
$UCSNAME
  2

  9
$UCSORG
 10
0.0
 20
0.0
 30
0.0
  9
$UCSXDIR
 10
1.0
 20
0.0
 30
0.0
  9
$UCSYDIR
 10
0.0
 20
1.0
 30
0.0
  9
$PUCSNAME
  2

  9
$PUCSORG
 10
0.0
 20
0.0
 30
0.0
  9
$PUCSXDIR
 10
1.0
 20
0.0
 30
0.0
  9
$PUCSYDIR
 10
0.0
 20
1.0
 30
0.0
  9
$USERI1
 70
     0
  9
$USERI2
 70
     0
  9
$USERI3
 70
     0
  9
$USERI4
 70
     0
  9
$USERI5
 70
     0
  9
$USERR1
 40
0.0
  9
$USERR2
 40
0.0
  9
$USERR3
 40
0.0
  9
$USERR4
 40
0.0
  9
$USERR5
 40
0.0
  9
$WORLDVIEW
 70
     1
  9
$SHADEDGE
 70
     3
  9
$SHADEDIF
 70
    70
  9
$TILEMODE
 70
     1
  9
$MAXACTVP
 70
    64
  9
$PLIMCHECK
 70
     0
  9
$PEXTMIN
 10
1.0000000000000000E+20
 20
1.0000000000000000E+20
 30
1.0000000000000000E+20
  9
$PEXTMAX
 10
-1.0000000000000000E+20
 20
-1.0000000000000000E+20
 30
-1.0000000000000000E+20
  9
$PLIMMIN
 10
0.0
 20
0.0
  9
$PLIMMAX
 10
12.0
 20
9.0
  9
$UNITMODE
 70
     0
  9
$VISRETAIN
 70
     1
  9
$PLINEGEN
 70
     0
  9
$PSLTSCALE
 70
     1
  0
ENDSEC
  0
SECTION
  2
TABLES
  0
TABLE
  2
VPORT
 70
     1
  0
VPORT
  2
*ACTIVE
 70
     0
 10
0.0
 20
0.0
 11
1.0
 21
1.0
 12
141.0872800248151862
 22
50.5275649455227622
 13
0.0
 23
0.0
 14
1.0
 24
1.0
 15
0.0
 25
0.0
 16
0.0
 26
0.0
 36
20.8152009923093715
 17
341.9466339173652045
 27
22.1065852756951884
 37
0.0
 40
10.7059353566284692
 41
2.5251322751322749
 42
50.0
 43
0.0
 44
0.0
 50
0.0
 51
0.0
 71
     0
 72
   100
 73
     1
 74
     1
 75
     0
 76
     0
 77
     0
 78
     0
  0
ENDTAB
  0
TABLE
  2
LTYPE
 70
     2
  0
LTYPE
  2
CONTINUOUS
 70
     0
  3
Solid line
 72
    65
 73
     0
 40
0.0
  0
LTYPE
  2
PHANTOM2
 70
     0
  3
___ _ _ ___ _ _ ___ _ _ ___ _ _
 72
    65
 73
     6
 40
1.25
 49
0.625
 49
-0.125
 49
0.125
 49
-0.125
 49
0.125
 49
-0.125
  0
ENDTAB
  0
TABLE
  2
LAYER
 70
     2
  0
LAYER
  2
0
 70
     0
 62
   255
  6
CONTINUOUS
  0
LAYER
  2
DEFPOINTS
 70
     0
 62
     7
  6
CONTINUOUS
  0
ENDTAB
  0
TABLE
  2
STYLE
 70
     1
  0
STYLE
  2
STANDARD
 70
     0
 40
0.0
 41
0.8
 50
0.0
 71
     0
 42
0.2
  3
txt
  4

  0
ENDTAB
  0
TABLE
  2
VIEW
 70
     0
  0
ENDTAB
  0
TABLE
  2
UCS
 70
     0
  0
ENDTAB
  0
TABLE
  2
APPID
 70
     9
  0
APPID
  2
ACAD
 70
     0
  0
APPID
  2
ACAD_MLEADERVER
 70
     0
  0
APPID
  2
ACAD_EXEMPT_FROM_CAD_STANDARDS
 70
     0
  0
APPID
  2
ACAD_DSTYLE_DIMJAG
 70
     0
  0
APPID
  2
ACAD_DSTYLE_DIMTALN
 70
     0
  0
APPID
  2
ACAD_NAV_VCDISPLAY
 70
     0
  0
APPID
  2
ACAECLAYERSTANDARD
 70
     0
  0
APPID
  2
ACCMTRANSPARENCY
 70
     0
  0
APPID
  2
ACDBATTR
 70
     0
  0
ENDTAB
  0
TABLE
  2
DIMSTYLE
 70
     1
  0
DIMSTYLE
  2
STANDARD
 70
     0
  3

  4

  5

  6

  7

 40
1.0
 41
0.1875
 42
0.0625
 43
0.38
 44
0.125
 45
0.0
 46
0.0
 47
0.01
 48
0.01
140
0.15625
141
0.09
142
0.0
143
25.3999999999999986
144
1.0
145
0.0
146
1.0
147
0.09
 71
     1
 72
     0
 73
     1
 74
     1
 75
     0
 76
     0
 77
     0
 78
     4
170
     0
171
     2
172
     0
173
     0
174
     0
175
     0
176
     0
177
     0
178
     0
  0
ENDTAB
  0
ENDSEC
  0
SECTION
  2
BLOCKS
  0
BLOCK
  8
0
  2
$MODEL_SPACE
 70
     0
 10
0.0
 20
0.0
 30
0.0
  3
$MODEL_SPACE
  1

  0
ENDBLK
  5
21
  8
0
  0
BLOCK
 67
     1
  8
0
  2
$PAPER_SPACE
 70
     0
 10
0.0
 20
0.0
 30
0.0
  3
$PAPER_SPACE
  1

  0
ENDBLK
  5
1D
 67
     1
  8
0
  0
BLOCK
  8
0
  2
_FILLED
 70
     0
 10
0.0
 20
0.0
 30
0.0
  3
_FILLED
  1

  0
SOLID
  5
1C83
  8
0
  6
BYBLOCK
 62
     0
 10
0.0
 20
0.0
 30
0.0
 11
-1.0
 21
0.1666666667
 31
0.0
 12
-1.0
 22
-0.1666666667
 32
0.0
 13
-1.0
 23
-0.1666666667
 33
0.0
  0
ENDBLK
  5
1C84
  8
0
  6
BYBLOCK
 62
     0
  0
ENDSEC
  0
SECTION
  2
ENTITIES
  0
LINE
  5
6B9A
  8
0
 10
481.4202994598857117
 20
69.8726828715676618
 30
0.0
 11
483.6702994598858254
 21
69.8726828715676618
 31
0.0
  0
LINE
  5
6B9E
  8
0
 10
478.1328016914857812
 20
76.3626828715676567
 30
0.0
 11
481.6652994598857163
 21
76.3626828715676567
 31
0.0
  0
LINE
  5
6BA0
  8
0
 10
481.4302994598858163
 20
70.2726828715676533
 30
0.0
 11
482.1243707673913832
 21
70.2726828715676533
 31
0.0
  0
LINE
  5
6BA1
  8
0
 10
482.9662281523799834
 20
70.2726828715676533
 30
0.0
 11
483.6602994598857208
 21
70.2726828715676533
 31
0.0
  0
LINE
  5
6BB0
  8
0
 10
477.6567515279638769
 20
74.6901784186676565
 30
0.0
 11
477.6647570382045842
 21
74.6901784186676565
 31
0.0
  0
LINE
  5
6BB5
  8
0
 10
482.5339318379481028
 20
72.7591828715676598
 30
0.0
 11
482.5571463961592258
 21
72.7591828715676598
 31
0.0
  0
LINE
  5
6BB9
  8
0
 10
482.5223366454790721
 20
71.9521828715676577
 30
0.0
 11
482.5687415886281997
 21
71.9521828715676577
 31
0.0
  0
LINE
  5
6BBA
  8
0
 10
482.9852994598858231
 20
75.0426828715676635
 30
0.0
 11
482.9852994598858231
 21
70.2726828715676533
 31
0.0
  0
LINE
  5
6BBB
  8
0
 10
482.105299459885714
 20
75.0426828715676493
 30
0.0
 11
482.105299459885714
 21
70.2726828715676533
 31
0.0
  0
ARC
  5
6BBC
  8
0
 10
482.545539117053579
 20
72.3554327936500954
 30
0.0
 40
0.4039168903953711
 50
273.2930930528586941
 51
354.0766886525337895
  0
ARC
  5
6BBD
  8
0
 10
482.545539117053579
 20
72.3554327936500954
 30
0.0
 40
0.4039168903953711
 50
5.9233113474661856
 51
88.3532759153532368
  0
ARC
  5
6BBE
  8
0
 10
482.545539117053579
 20
72.3554327936500954
 30
0.0
 40
0.4039168903953711
 50
91.6467240846467632
 51
174.776774839696202
  0
ARC
  5
6BBF
  8
0
 10
482.545539117053579
 20
72.3554327936500954
 30
0.0
 40
0.4039168903953711
 50
185.2232251603028885
 51
266.7069069471414196
  0
LINE
  5
6BC0
  8
0
 10
478.1328016913274155
 20
75.482682871567647
 30
0.0
 11
481.6652994598857163
 21
75.482682871567647
 31
0.0
  0
LINE
  5
6BC1
  8
0
 10
476.7954121194857748
 20
74.7456880335468838
 30
0.0
 11
476.7954121194857748
 21
74.7451736280676471
 31
0.0
  0
ARC
  5
6BC2
  8
0
 10
478.1328016914857812
 20
75.0426828715676493
 30
0.0
 40
1.3199999999999961
 50
90.0
 51
145.3308936611433069
  0
ARC
  5
6BC3
  8
0
 10
478.1328016914857812
 20
75.0426828715676493
 30
0.0
 40
1.3200000000000041
 50
145.3308936611433069
 51
167.1292357072348125
  0
ARC
  5
6BC4
  8
0
 10
478.1475140393721972
 20
75.0393211940595961
 30
0.0
 40
1.3350915226534801
 50
167.1292357072352104
 51
178.048167345339408
  0
ARC
  5
6BC5
  8
0
 10
470.9914510189612997
 20
75.2831933102101232
 30
0.0
 40
5.825125761837838
 50
355.9518326523814267
 51
358.0481673453394933
  0
ARC
  5
6BC6
  8
0
 10
479.8226929363194131
 20
74.658191736406792
 30
0.0
 40
3.0282047284444151
 50
175.9518326523813982
 51
178.0481673453406017
  0
ARC
  5
6BC7
  8
0
 10
476.3872020242287135
 20
74.7752701406015632
 30
0.0
 40
0.409280567493262
 50
355.8551437311267023
 51
358.048167345340687
  0
ARC
  5
6BC8
  8
0
 10
481.6652994598857163
 20
75.0426828715676635
 30
0.0
 40
1.319999999999987
 50
56.5096643837726518
 51
90.0
  0
ARC
  5
6BC9
  8
0
 10
481.6652994598857163
 20
75.0426828715676493
 30
0.0
 40
1.3200000000000149
 50
30.9523657602120394
 51
56.5096643837726518
  0
ARC
  5
6BCA
  8
0
 10
481.6652994598857163
 20
75.0426828715676635
 30
0.0
 40
1.3199999999999821
 50
359.9999999999996021
 51
30.9523657602120394
  0
ARC
  5
6BCB
  8
0
 10
476.8054121194857089
 20
74.7451736280676471
 30
0.0
 40
0.0099999999999252
 50
179.9999999999388933
 51
196.294074926025786
  0
ARC
  5
6BCC
  8
0
 10
476.8054121194857089
 20
74.7451736280676471
 30
0.0
 40
0.0099999999999878
 50
196.2940749259448125
 51
222.0004565760646926
  0
ARC
  5
6BCD
  8
0
 10
476.8054121194857089
 20
74.7451736280676613
 30
0.0
 40
0.0100000000000074
 50
222.0004565760687001
 51
251.1238524156993037
  0
ARC
  5
6BCE
  8
0
 10
476.8054121195905282
 20
74.7451736283742321
 30
0.0
 40
0.0100000003240018
 50
251.1238524156995027
 51
267.0009126804977768
  0
ARC
  5
6BCF
  8
0
 10
393.5998025643070264
 20
-1513.3964745779969689
 30
0.0
 40
1590.3098006149839421
 50
86.9990873172223331
 51
87.0009126804978052
  0
ARC
  5
6BD0
  8
0
 10
428.8964195957569245
 20
-840.1021101382591496
 30
0.0
 40
916.0908804116317015
 50
86.948903081714576
 51
86.9990873172223331
  0
ARC
  5
6BD1
  8
0
 10
477.6642335193857889
 20
74.7001647056676603
 30
0.0
 40
0.0100000000000002
 50
273.0009137243517898
 51
356.9999999999981242
  0
LINE
  5
6BD2
  8
0
 10
477.6742198147331919
 20
74.6996413461052242
 30
0.0
 11
477.6934046962314255
 21
75.0657106922652702
 31
0.0
  0
ARC
  5
6BD3
  8
0
 10
478.132801691783925
 20
75.0426828715020235
 30
0.0
 40
0.4400000002610739
 50
136.3489334927388938
 51
176.9999999996506972
  0
ARC
  5
6BD4
  8
0
 10
478.1328016913274155
 20
75.0426828719376005
 30
0.0
 40
0.439999999630061
 50
89.9999999793773782
 51
136.3489334927388938
  0
ARC
  5
6BD5
  8
0
 10
481.6652994598857163
 20
75.0426828715676493
 30
0.0
 40
0.4400000000000049
 50
26.7629547590053889
 51
90.0
  0
ARC
  5
6BD6
  8
0
 10
481.6652994598857163
 20
75.0426828715676493
 30
0.0
 40
0.4399999999999871
 50
359.9999999999996021
 51
26.7629547590053889
  0
LINE
  5
6BD7
  8
0
 10
481.4202994598857117
 20
69.8726828715676618
 30
0.0
 11
481.4202994598857117
 21
70.2626828715676339
 31
0.0
  0
ARC
  5
6BD8
  8
0
 10
481.4402994598856935
 20
70.246682871567657
 30
0.0
 40
0.02
 50
90.0
 51
180.0
  0
ARC
  5
6BD9
  8
0
 10
481.4302994598858163
 20
70.2626828715676339
 30
0.0
 40
0.01
 50
90.0
 51
180.0
  0
LINE
  5
6BDA
  8
0
 10
483.6702994598858254
 20
69.8726828715676618
 30
0.0
 11
483.6702994598858254
 21
70.2626828715676339
 31
0.0
  0
ARC
  5
6BDB
  8
0
 10
483.6502994598856731
 20
70.246682871567657
 30
0.0
 40
0.02
 50
0.0
 51
90.0
  0
ARC
  5
6BDC
  8
0
 10
483.6602994598857208
 20
70.2626828715676339
 30
0.0
 40
0.01
 50
0.0
 51
90.0
  0
LINE
  5
6BDD
  8
0
 10
481.4402994598856935
 20
70.266682871567653
 30
0.0
 11
483.6502994598856731
 21
70.266682871567653
 31
0.0
  0
ARC
  5
6BDE
  8
0
 10
482.987299459885719
 20
70.3066828715676593
 30
0.0
 40
0.04
 50
180.0
 51
270.0
  0
LINE
  5
6BE1
  8
0
 10
482.1432994598857817
 20
72.3922038766926477
 30
0.0
 11
482.1432994598857817
 21
71.4586828715676603
 31
0.0
  0
ARC
  5
6BE2
  8
0
 10
482.1572994598857917
 20
71.4586828715676603
 30
0.0
 40
0.014
 50
180.0
 51
270.0
  0
LINE
  5
6BE3
  8
0
 10
482.1432994598857817
 20
71.3966828715676627
 30
0.0
 11
482.1432994598857817
 21
70.3066828715676593
 31
0.0
  0
ARC
  5
6BE4
  8
0
 10
482.1832994598858022
 20
71.3966828715676627
 30
0.0
 40
0.04
 50
90.0
 51
180.0
  0
ARC
  5
6BE5
  8
0
 10
482.1032994598858181
 20
70.3066828715676593
 30
0.0
 40
0.04
 50
270.0
 51
0.0
  0
LINE
  5
6BE6
  8
0
 10
482.9472994598858122
 20
72.397115899029771
 30
0.0
 11
482.9472994598858122
 21
71.4586828715676603
 31
0.0
  0
ARC
  5
6BE7
  8
0
 10
482.9332994598858022
 20
71.4586828715676603
 30
0.0
 40
0.014
 50
270.0
 51
0.0
  0
LINE
  5
6BE8
  8
0
 10
482.9472994598858122
 20
71.3966828715676627
 30
0.0
 11
482.9472994598858122
 21
70.3066828715676593
 31
0.0
  0
ARC
  5
6BE9
  8
0
 10
482.9072994598857917
 20
71.3966828715676627
 30
0.0
 40
0.04
 50
0.0
 51
90.0
  0
LINE
  5
6BEA
  8
0
 10
482.1572994598857917
 20
71.4446828715676645
 30
0.0
 11
482.9332994598858022
 21
71.4446828715676645
 31
0.0
  0
LINE
  5
6BEC
  8
0
 10
482.1832994598858022
 20
71.4366828715676547
 30
0.0
 11
482.9072994598857917
 21
71.4366828715676547
 31
0.0
  0
LINE
  5
6BEE
  8
0
 10
482.195299459885689
 20
71.4366828715676547
 30
0.0
 11
482.195299459885689
 21
71.4446828715676645
 31
0.0
  0
LINE
  5
6BEF
  8
0
 10
482.8952994598856776
 20
71.4366828715676547
 30
0.0
 11
482.8952994598856776
 21
71.4446828715676645
 31
0.0
  0
ATTDEF
  5
6D37
  8
DEFPOINTS
 10
482.5465234210810763
 20
69.870508546219753
 30
0.0
 40
0.001
  1
P32357-ULB
  3

  2
MODELNUMBER
 70
     0
1001
ACDBATTR
1070
     0
1070
     1
  0
ATTDEF
  5
6D38
  8
DEFPOINTS
 10
482.5465234210810763
 20
69.8688418795530737
 30
0.0
 40
0.001
  1
ONE
  3

  2
TRADENAME
 70
     0
1001
ACDBATTR
1070
     0
1070
     1
  0
ATTDEF
  5
6D39
  8
DEFPOINTS
 10
482.5465234210810763
 20
69.8671752128864227
 30
0.0
 40
0.001
  1
BATHROOM SINK FAUCET
  3

  2
PRODUCT
 70
     0
1001
ACDBATTR
1070
     0
1070
     1
  0
ENDSEC
  0
EOF
