  0
SECTION
  2
HEADER
  9
$ACADVER
  1
AC1009
  9
$INSBASE
 10
396.3104620640557982
 20
61.2705839717760981
 30
0.0
  9
$EXTMIN
 10
394.4354620640557982
 20
57.5210839717761075
 30
0.0
  9
$EXTMAX
 10
398.1854620640557982
 20
61.2761110791253572
 30
0.0
  9
$LIMMIN
 10
0.0
 20
0.0
  9
$LIMMAX
 10
11.6929133858000007
 20
8.2677165353999982
  9
$ORTHOMODE
 70
     0
  9
$REGENMODE
 70
     1
  9
$FILLMODE
 70
     1
  9
$QTEXTMODE
 70
     0
  9
$MIRRTEXT
 70
     0
  9
$DRAGMODE
 70
     2
  9
$LTSCALE
 40
0.6431102362
  9
$OSMODE
 70
  4095
  9
$ATTMODE
 70
     1
  9
$TEXTSIZE
 40
0.2
  9
$TRACEWID
 40
0.05
  9
$TEXTSTYLE
  7
STANDARD
  9
$CLAYER
  8
0
  9
$CELTYPE
  6
BYLAYER
  9
$CECOLOR
 62
   256
  9
$DIMSCALE
 40
1.0
  9
$DIMASZ
 40
0.1875
  9
$DIMEXO
 40
0.0625
  9
$DIMDLI
 40
0.4443307087
  9
$DIMRND
 40
0.0
  9
$DIMDLE
 40
0.0
  9
$DIMEXE
 40
0.125
  9
$DIMTP
 40
0.01
  9
$DIMTM
 40
0.01
  9
$DIMTXT
 40
1.0
  9
$DIMCEN
 40
0.1052362205
  9
$DIMTSZ
 40
0.0
  9
$DIMTOL
 70
     1
  9
$DIMLIM
 70
     0
  9
$DIMTIH
 70
     0
  9
$DIMTOH
 70
     1
  9
$DIMSE1
 70
     0
  9
$DIMSE2
 70
     0
  9
$DIMTAD
 70
     0
  9
$DIMZIN
 70
     0
  9
$DIMBLK
  1

  9
$DIMASO
 70
     1
  9
$DIMSHO
 70
     1
  9
$DIMPOST
  1
\X
  9
$DIMAPOST
  1

  9
$DIMALT
 70
     1
  9
$DIMALTD
 70
     2
  9
$DIMALTF
 40
25.3999999999999986
  9
$DIMLFAC
 40
1.0
  9
$DIMTOFL
 70
     0
  9
$DIMTVP
 40
0.0
  9
$DIMTIX
 70
     0
  9
$DIMSOXD
 70
     0
  9
$DIMSAH
 70
     0
  9
$DIMBLK1
  1

  9
$DIMBLK2
  1

  9
$DIMSTYLE
  2
STANDARD
  9
$DIMCLRD
 70
     0
  9
$DIMCLRE
 70
     0
  9
$DIMCLRT
 70
     0
  9
$DIMTFAC
 40
1.0
  9
$DIMGAP
 40
0.09
  9
$LUNITS
 70
     2
  9
$LUPREC
 70
     4
  9
$SKETCHINC
 40
0.1
  9
$FILLETRAD
 40
0.0
  9
$AUNITS
 70
     0
  9
$AUPREC
 70
     0
  9
$MENU
  1
.
  9
$ELEVATION
 40
0.0
  9
$PELEVATION
 40
0.0
  9
$THICKNESS
 40
0.0
  9
$LIMCHECK
 70
     0
  9
$BLIPMODE
 70
     0
  9
$CHAMFERA
 40
0.0
  9
$CHAMFERB
 40
0.0
  9
$SKPOLY
 70
     0
  9
$TDCREATE
 40
2458172.5207638889551163
  9
$TDUPDATE
 40
2459990.5194097221828997
  9
$TDINDWG
 40
0.2910620139
  9
$TDUSRTIMER
 40
0.2910620139
  9
$USRTIMER
 70
     1
  9
$ANGBASE
 50
0.0
  9
$ANGDIR
 70
     0
  9
$PDMODE
 70
     0
  9
$PDSIZE
 40
0.3125
  9
$PLINEWID
 40
0.0
  9
$COORDS
 70
     1
  9
$SPLFRAME
 70
     0
  9
$SPLINETYPE
 70
     6
  9
$SPLINESEGS
 70
     8
  9
$ATTDIA
 70
     1
  9
$ATTREQ
 70
     1
  9
$HANDLING
 70
     1
  9
$HANDSEED
  5
1105E
  9
$SURFTAB1
 70
     6
  9
$SURFTAB2
 70
     6
  9
$SURFTYPE
 70
     6
  9
$SURFU
 70
     6
  9
$SURFV
 70
     6
  9
$UCSNAME
  2

  9
$UCSORG
 10
0.0
 20
0.0
 30
0.0
  9
$UCSXDIR
 10
1.0
 20
0.0
 30
0.0
  9
$UCSYDIR
 10
0.0
 20
1.0
 30
0.0
  9
$PUCSNAME
  2

  9
$PUCSORG
 10
0.0
 20
0.0
 30
0.0
  9
$PUCSXDIR
 10
1.0
 20
0.0
 30
0.0
  9
$PUCSYDIR
 10
0.0
 20
1.0
 30
0.0
  9
$USERI1
 70
     0
  9
$USERI2
 70
     0
  9
$USERI3
 70
     0
  9
$USERI4
 70
     0
  9
$USERI5
 70
     0
  9
$USERR1
 40
0.0
  9
$USERR2
 40
0.0
  9
$USERR3
 40
0.0
  9
$USERR4
 40
0.0
  9
$USERR5
 40
0.0
  9
$WORLDVIEW
 70
     1
  9
$SHADEDGE
 70
     3
  9
$SHADEDIF
 70
    70
  9
$TILEMODE
 70
     1
  9
$MAXACTVP
 70
    64
  9
$PLIMCHECK
 70
     0
  9
$PEXTMIN
 10
1.0000000000000000E+20
 20
1.0000000000000000E+20
 30
1.0000000000000000E+20
  9
$PEXTMAX
 10
-1.0000000000000000E+20
 20
-1.0000000000000000E+20
 30
-1.0000000000000000E+20
  9
$PLIMMIN
 10
0.0
 20
0.0
  9
$PLIMMAX
 10
12.0
 20
9.0
  9
$UNITMODE
 70
     0
  9
$VISRETAIN
 70
     1
  9
$PLINEGEN
 70
     0
  9
$PSLTSCALE
 70
     1
  0
ENDSEC
  0
SECTION
  2
TABLES
  0
TABLE
  2
VPORT
 70
     1
  0
VPORT
  2
*ACTIVE
 70
     0
 10
0.0
 20
0.0
 11
1.0
 21
1.0
 12
-33.3151809031080575
 22
-10.3039087580236508
 13
0.0
 23
0.0
 14
1.0
 24
1.0
 15
0.0
 25
0.0
 16
0.0
 26
0.0
 36
14.6338572656650907
 17
429.6292891080536833
 27
69.7025415122186871
 37
0.0
 40
3.7885848653455581
 41
1.593589743589743
 42
50.0
 43
0.0
 44
0.0
 50
0.0
 51
0.0
 71
     0
 72
   100
 73
     1
 74
     1
 75
     0
 76
     0
 77
     0
 78
     1
  0
ENDTAB
  0
TABLE
  2
LTYPE
 70
     2
  0
LTYPE
  2
CONTINUOUS
 70
     0
  3
Solid line
 72
    65
 73
     0
 40
0.0
  0
LTYPE
  2
PHANTOM2
 70
     0
  3
___ _ _ ___ _ _ ___ _ _ ___ _ _
 72
    65
 73
     6
 40
1.25
 49
0.625
 49
-0.125
 49
0.125
 49
-0.125
 49
0.125
 49
-0.125
  0
ENDTAB
  0
TABLE
  2
LAYER
 70
     2
  0
LAYER
  2
0
 70
     0
 62
   255
  6
CONTINUOUS
  0
LAYER
  2
DEFPOINTS
 70
     0
 62
     7
  6
CONTINUOUS
  0
ENDTAB
  0
TABLE
  2
STYLE
 70
     1
  0
STYLE
  2
STANDARD
 70
     0
 40
0.0
 41
0.8
 50
0.0
 71
     0
 42
0.2
  3
txt
  4

  0
ENDTAB
  0
TABLE
  2
VIEW
 70
     0
  0
ENDTAB
  0
TABLE
  2
UCS
 70
     0
  0
ENDTAB
  0
TABLE
  2
APPID
 70
    10
  0
APPID
  2
ACAD
 70
     0
  0
APPID
  2
ACAD_MLEADERVER
 70
     0
  0
APPID
  2
ACAD_EXEMPT_FROM_CAD_STANDARDS
 70
     0
  0
APPID
  2
ACAD_DSTYLE_DIMJAG
 70
     0
  0
APPID
  2
ACAD_DSTYLE_DIMTALN
 70
     0
  0
APPID
  2
ACAD_NAV_VCDISPLAY
 70
     0
  0
APPID
  2
ACAECLAYERSTANDARD
 70
     0
  0
APPID
  2
ACCMTRANSPARENCY
 70
     0
  0
APPID
  2
DCO15
 70
     0
  0
APPID
  2
ACDBATTR
 70
     0
  0
ENDTAB
  0
TABLE
  2
DIMSTYLE
 70
     1
  0
DIMSTYLE
  2
STANDARD
 70
     0
  3

  4

  5

  6

  7

 40
1.0
 41
0.1875
 42
0.0625
 43
0.38
 44
0.125
 45
0.0
 46
0.0
 47
0.01
 48
0.01
140
0.15625
141
0.09
142
0.0
143
25.3999999999999986
144
1.0
145
0.0
146
1.0
147
0.09
 71
     1
 72
     0
 73
     1
 74
     1
 75
     0
 76
     0
 77
     0
 78
     4
170
     0
171
     2
172
     0
173
     0
174
     0
175
     0
176
     0
177
     0
178
     0
  0
ENDTAB
  0
ENDSEC
  0
SECTION
  2
BLOCKS
  0
BLOCK
  8
0
  2
$MODEL_SPACE
 70
     0
 10
0.0
 20
0.0
 30
0.0
  3
$MODEL_SPACE
  1

  0
ENDBLK
  5
21
  8
0
  0
BLOCK
 67
     1
  8
0
  2
$PAPER_SPACE
 70
     0
 10
0.0
 20
0.0
 30
0.0
  3
$PAPER_SPACE
  1

  0
ENDBLK
  5
1D
 67
     1
  8
0
  0
BLOCK
  8
0
  2
_FILLED
 70
     0
 10
0.0
 20
0.0
 30
0.0
  3
_FILLED
  1

  0
SOLID
  5
10E52
  8
0
  6
BYBLOCK
 62
     0
 10
0.0
 20
0.0
 30
0.0
 11
-1.0
 21
0.1666666667
 31
0.0
 12
-1.0
 22
-0.1666666667
 32
0.0
 13
-1.0
 23
-0.1666666667
 33
0.0
  0
ENDBLK
  5
10E53
  8
0
  6
BYBLOCK
 62
     0
  0
ENDSEC
  0
SECTION
  2
ENTITIES
  0
ATTDEF
  5
10A81
  8
DEFPOINTS
 10
396.3073494958281913
 20
61.2751110791253595
 30
0.0
 40
0.001
  1
P32359-ULB
  3

  2
MODELNUMBER
 70
     0
1001
ACDBATTR
1070
     0
1070
     1
  0
ATTDEF
  5
10A82
  8
DEFPOINTS
 10
396.3073494958281913
 20
61.2734444124587014
 30
0.0
 40
0.001
  1
ONE
  3

  2
TRADENAME
 70
     0
1001
ACDBATTR
1070
     0
1070
     1
  0
ATTDEF
  5
10A83
  8
DEFPOINTS
 10
396.3073494958281913
 20
61.2717777457920292
 30
0.0
 40
0.001
  1
VALVE TRIM
  3

  2
PRODUCT
 70
     0
1001
ACDBATTR
1070
     0
1070
     1
  0
LINE
  5
10E73
  8
0
 10
394.4354620640557982
 20
61.2705839717761123
 30
0.0
 11
398.1854620640557982
 21
61.2705839717760981
 31
0.0
  0
LINE
  5
10E74
  8
0
 10
395.4404620640557937
 20
59.3005839717760992
 30
0.0
 11
397.1804620640558028
 21
59.3005839717760992
 31
0.0
  0
LINE
  5
10E75
  8
0
 10
395.410462064055821
 20
59.3305839717761003
 30
0.0
 11
395.410462064055821
 21
60.5705839717761094
 31
0.0
  0
LINE
  5
10E76
  8
0
 10
394.5164694179176195
 20
60.5705839717761094
 30
0.0
 11
398.104454710193977
 21
60.5705839717761094
 31
0.0
  0
LINE
  5
10E77
  8
0
 10
395.9084620640558114
 20
59.0205839717761123
 30
0.0
 11
395.9084620640558114
 21
59.3005839717760992
 31
0.0
  0
LINE
  5
10E78
  8
0
 10
395.9219620640557764
 20
58.970583971776108
 30
0.0
 11
396.6989620640558201
 21
58.970583971776108
 31
0.0
  0
LINE
  5
10E79
  8
0
 10
395.9384620640557841
 20
58.9905839717760969
 30
0.0
 11
396.6824620640558123
 21
58.9905839717760969
 31
0.0
  0
ARC
  5
10E7A
  8
0
 10
395.9384620640557841
 20
59.0205839717761123
 30
0.0
 40
0.03
 50
180.0000000000133866
 51
269.9999999999968168
  0
LINE
  5
10E7B
  8
0
 10
394.4464800792558208
 20
60.6393623033761102
 30
0.0
 11
394.4354620640557982
 21
61.2705839717761123
 31
0.0
  0
ARC
  5
10E7C
  8
0
 10
394.5164694179176195
 20
60.6405839717761026
 30
0.0
 40
0.07
 50
180.9999999994545021
 51
270.0
  0
ARC
  5
10E7D
  8
0
 10
395.4404620640557937
 20
59.3305839717761074
 30
0.0
 40
0.03
 50
180.0000000000100897
 51
270.0
  0
LINE
  5
10E7E
  8
0
 10
396.0104620640557869
 20
58.970583971776108
 30
0.0
 11
396.0104620640557869
 21
58.9905839717761111
 31
0.0
  0
LINE
  5
10E7F
  8
0
 10
396.712462064055785
 20
59.3005839717760992
 30
0.0
 11
396.712462064055785
 21
59.0205839717761123
 31
0.0
  0
ARC
  5
10E80
  8
0
 10
396.6824620640558123
 20
59.0205839717761123
 30
0.0
 40
0.03
 50
270.0000000000064801
 51
359.9999999999931219
  0
LINE
  5
10E81
  8
0
 10
396.6104620640558096
 20
58.970583971776108
 30
0.0
 11
396.6104620640558096
 21
58.9905839717761111
 31
0.0
  0
LINE
  5
10E82
  8
0
 10
397.2104620640557755
 20
59.3305839717761003
 30
0.0
 11
397.2104620640557755
 21
60.5705839717761094
 31
0.0
  0
LINE
  5
10E83
  8
0
 10
398.1744440488557757
 20
60.6393623033761031
 30
0.0
 11
398.1854620640557982
 21
61.2705839717760981
 31
0.0
  0
ARC
  5
10E84
  8
0
 10
398.104454710193977
 20
60.6405839717761026
 30
0.0
 40
0.07
 50
270.0
 51
359.0000000005455263
  0
ARC
  5
10E85
  8
0
 10
397.1804620640558028
 20
59.3305839717761003
 30
0.0
 40
0.03
 50
270.0
 51
359.999999999989825
  0
LINE
  5
10E86
  8
0
 10
395.9069620640557901
 20
57.9247264470812269
 30
0.0
 11
395.9069620640557901
 21
58.9555839717761074
 31
0.0
  0
LINE
  5
10E87
  8
0
 10
396.7139620640558064
 20
57.924726447076111
 30
0.0
 11
396.7139620640558064
 21
58.9555839717761074
 31
0.0
  0
ARC
  5
10E88
  8
0
 10
396.3104620640557982
 20
57.9245839969211502
 30
0.0
 40
0.4035000251450404
 50
179.9797725089850928
 51
0.0202274902877874
  0
ARC
  5
10E89
  8
0
 10
395.9219620640557764
 20
58.9555839717761074
 30
0.0
 40
0.015
 50
90.0000000000130314
 51
179.9999999999930083
  0
ARC
  5
10E8A
  8
0
 10
396.6989620640558201
 20
58.9555839717761074
 30
0.0
 40
0.015
 50
0.0
 51
90.0000000000032543
  0
ENDSEC
  0
EOF
